  0
SECTION
  2
HEADER
  9
$ACADVER
  1
AC1012
  9
$DWGCODEPAGE
  3
ansi_1252
  9
$INSBASE
 10
0.0
 20
0.0
 30
0.0
  9
$EXTMIN
 10
0.0
 20
0.0
 30
0.0
  9
$EXTMAX
 10
297.0
 20
210.0
 30
0.0
  9
$LIMMIN
 10
0.0
 20
0.0
  9
$LIMMAX
 10
297.0
 20
210.0
  9
$ORTHOMODE
 70
     0
  9
$REGENMODE
 70
     1
  9
$FILLMODE
 70
     1
  9
$QTEXTMODE
 70
     0
  9
$MIRRTEXT
 70
     1
  9
$DRAGMODE
 70
     2
  9
$LTSCALE
 40
1.0
  9
$OSMODE
 70
    37
  9
$ATTMODE
 70
     1
  9
$TEXTSIZE
 40
3.5
  9
$TRACEWID
 40
1.0
  9
$TEXTSTYLE
  7
STANDARD
  9
$CLAYER
  8
0
  9
$CELTYPE
  6
BYLAYER
  9
$CECOLOR
 62
   256
  9
$CELTSCALE
 40
1.0
  9
$DELOBJ
 70
     1
  9
$DISPSILH
 70
     0
  9
$DIMSCALE
 40
1.0
  9
$DIMASZ
 40
3.302
  9
$DIMEXO
 40
1.0
  9
$DIMDLI
 40
3.75
  9
$DIMRND
 40
0.0
  9
$DIMDLE
 40
0.0
  9
$DIMEXE
 40
1.0
  9
$DIMTP
 40
0.0
  9
$DIMTM
 40
0.0
  9
$DIMTXT
 40
3.5
  9
$DIMCEN
 40
2.5
  9
$DIMTSZ
 40
0.0
  9
$DIMTOL
 70
     0
  9
$DIMLIM
 70
     0
  9
$DIMTIH
 70
     1
  9
$DIMTOH
 70
     1
  9
$DIMSE1
 70
     0
  9
$DIMSE2
 70
     0
  9
$DIMTAD
 70
     1
  9
$DIMZIN
 70
     1
  9
$DIMBLK
  1

  9
$DIMASO
 70
     1
  9
$DIMSHO
 70
     1
  9
$DIMPOST
  1

  9
$DIMAPOST
  1

  9
$DIMALT
 70
     0
  9
$DIMALTD
 70
     3
  9
$DIMALTF
 40
0.0393700787
  9
$DIMLFAC
 40
1.0
  9
$DIMTOFL
 70
     1
  9
$DIMTVP
 40
0.0
  9
$DIMTIX
 70
     0
  9
$DIMSOXD
 70
     0
  9
$DIMSAH
 70
     0
  9
$DIMBLK1
  1

  9
$DIMBLK2
  1

  9
$DIMSTYLE
  2
ISO-25
  9
$DIMCLRD
 70
     0
  9
$DIMCLRE
 70
     0
  9
$DIMCLRT
 70
     0
  9
$DIMTFAC
 40
1.0
  9
$DIMGAP
 40
1.524
  9
$DIMJUST
 70
     0
  9
$DIMSD1
 70
     0
  9
$DIMSD2
 70
     0
  9
$DIMTOLJ
 70
     0
  9
$DIMTZIN
 70
     1
  9
$DIMALTZ
 70
     0
  9
$DIMALTTZ
 70
     0
  9
$DIMFIT
 70
     3
  9
$DIMUPT
 70
     0
  9
$DIMUNIT
 70
     2
  9
$DIMDEC
 70
     2
  9
$DIMTDEC
 70
     2
  9
$DIMALTU
 70
     2
  9
$DIMALTTD
 70
     3
  9
$DIMTXSTY
  7
STANDARD
  9
$DIMAUNIT
 70
     0
  9
$LUNITS
 70
     2
  9
$LUPREC
 70
     2
  9
$SKETCHINC
 40
1.0
  9
$FILLETRAD
 40
10.0
  9
$AUNITS
 70
     0
  9
$AUPREC
 70
     2
  9
$MENU
  1
.
  9
$ELEVATION
 40
0.0
  9
$PELEVATION
 40
0.0
  9
$THICKNESS
 40
0.0
  9
$LIMCHECK
 70
     0
  9
$CHAMFERA
 40
0.0
  9
$CHAMFERB
 40
0.0
  9
$CHAMFERC
 40
0.0
  9
$CHAMFERD
 40
0.0
  9
$SKPOLY
 70
     0
  9
$TDCREATE
 40
2456813.562987917
  9
$TDUPDATE
 40
2456813.562988658
  9
$TDINDWG
 40
0.0000000116
  9
$TDUSRTIMER
 40
0.0000000116
  9
$USRTIMER
 70
     1
  9
$ANGBASE
 50
0.0
  9
$ANGDIR
 70
     0
  9
$PDMODE
 70
     0
  9
$PDSIZE
 40
-1.0
  9
$PLINEWID
 40
0.0
  9
$COORDS
 70
     1
  9
$SPLFRAME
 70
     0
  9
$SPLINETYPE
 70
     6
  9
$SPLINESEGS
 70
     8
  9
$ATTDIA
 70
     0
  9
$ATTREQ
 70
     1
  9
$HANDLING
 70
     1
  9
$HANDSEED
  5
378
  9
$SURFTAB1
 70
     6
  9
$SURFTAB2
 70
     6
  9
$SURFTYPE
 70
     6
  9
$SURFU
 70
     6
  9
$SURFV
 70
     6
  9
$UCSNAME
  2

  9
$UCSORG
 10
0.0
 20
0.0
 30
0.0
  9
$UCSXDIR
 10
1.0
 20
0.0
 30
0.0
  9
$UCSYDIR
 10
0.0
 20
1.0
 30
0.0
  9
$PUCSNAME
  2

  9
$PUCSORG
 10
0.0
 20
0.0
 30
0.0
  9
$PUCSXDIR
 10
1.0
 20
0.0
 30
0.0
  9
$PUCSYDIR
 10
0.0
 20
1.0
 30
0.0
  9
$USERI1
 70
     0
  9
$USERI2
 70
     0
  9
$USERI3
 70
     0
  9
$USERI4
 70
     0
  9
$USERI5
 70
     0
  9
$USERR1
 40
0.0
  9
$USERR2
 40
0.0
  9
$USERR3
 40
0.0
  9
$USERR4
 40
0.0
  9
$USERR5
 40
0.0
  9
$WORLDVIEW
 70
     1
  9
$SHADEDGE
 70
     3
  9
$SHADEDIF
 70
    70
  9
$TILEMODE
 70
     1
  9
$MAXACTVP
 70
    64
  9
$PINSBASE
 10
0.0
 20
0.0
 30
0.0
  9
$PLIMCHECK
 70
     0
  9
$PEXTMIN
 10
1.0000000000E+20
 20
1.0000000000E+20
 30
1.0000000000E+20
  9
$PEXTMAX
 10
-1.0000000000E+20
 20
-1.0000000000E+20
 30
-1.0000000000E+20
  9
$PLIMMIN
 10
0.0
 20
0.0
  9
$PLIMMAX
 10
420.0
 20
297.0
  9
$UNITMODE
 70
     0
  9
$VISRETAIN
 70
     1
  9
$PLINEGEN
 70
     0
  9
$PSLTSCALE
 70
     1
  9
$TREEDEPTH
 70
  3020
  9
$PICKSTYLE
 70
     1
  9
$CMLSTYLE
  2
STANDARD
  9
$CMLJUST
 70
     0
  9
$CMLSCALE
 40
20.0
  9
$SAVEIMAGES
 70
     1
  0
ENDSEC
  0
SECTION
  2
CLASSES
  0
CLASS
  1
ACDBDICTIONARYWDFLT
  2
AcDbDictionaryWithDefault
  3
ObjectDBX Classes
 90
    32768
280
     0
281
     0
  0
CLASS
  1
VISUALSTYLE
  2
AcDbVisualStyle
  3
ObjectDBX Classes
 90
     4095
280
     0
281
     0
  0
CLASS
  1
MATERIAL
  2
AcDbMaterial
  3
ObjectDBX Classes
 90
     1153
280
     0
281
     0
  0
CLASS
  1
SCALE
  2
AcDbScale
  3
ObjectDBX Classes
 90
     1153
280
     0
281
     0
  0
CLASS
  1
SUN
  2
AcDbSun
  3
SCENEOE
 90
     1153
280
     0
281
     0
  0
CLASS
  1
XRECORD
  2
AcDbXrecord
  3
ObjectDBX Classes
 90
    32768
280
     0
281
     0
  0
ENDSEC
  0
SECTION
  2
TABLES
  0
TABLE
  2
VPORT
  5
8
330
0
100
AcDbSymbolTable
 70
     1
  0
VPORT
  5
29
330
8
100
AcDbSymbolTableRecord
100
AcDbViewportTableRecord
  2
*ACTIVE
 70
     0
 10
0.0
 20
0.0
 11
1.0
 21
1.0
 12
148.5
 22
105.0
 13
0.0
 23
0.0
 14
10.0
 24
10.0
 15
10.0
 25
10.0
 16
0.0
 26
0.0
 36
1.0
 17
0.0
 27
0.0
 37
0.0
 40
210.0
 41
1.4142857143
 42
50.0
 43
0.0
 44
0.0
 50
0.0
 51
0.0
 71
     0
 72
  2000
 73
     1
 74
     3
 75
     0
 76
     0
 77
     0
 78
     0
  0
ENDTAB
  0
TABLE
  2
LTYPE
  5
5
330
0
100
AcDbSymbolTable
 70
     8
  0
LTYPE
  5
14
330
5
100
AcDbSymbolTableRecord
100
AcDbLinetypeTableRecord
  2
BYBLOCK
 70
     0
  3

 72
    65
 73
     0
 40
0.0
  0
LTYPE
  5
15
330
5
100
AcDbSymbolTableRecord
100
AcDbLinetypeTableRecord
  2
BYLAYER
 70
     0
  3

 72
    65
 73
     0
 40
0.0
  0
LTYPE
  5
16
330
5
100
AcDbSymbolTableRecord
100
AcDbLinetypeTableRecord
  2
CONTINUOUS
 70
     0
  3
Solid line
 72
    65
 73
     0
 40
0.0
  0
LTYPE
  5
6A
330
5
100
AcDbSymbolTableRecord
100
AcDbLinetypeTableRecord
  2
SLD-DURCHGEHEND
 70
     0
  3
SolidWorks Line Style
 72
    65
 73
     0
 40
0.0
  0
LTYPE
  5
6B
330
5
100
AcDbSymbolTableRecord
100
AcDbLinetypeTableRecord
  2
SLD-GESTRICHELT
 70
     0
  3
SolidWorks Line Style
 72
    65
 73
     2
 40
1.905
 49
1.27
 74
     0
 49
-0.635
 74
     0
  0
LTYPE
  5
6C
330
5
100
AcDbSymbolTableRecord
100
AcDbLinetypeTableRecord
  2
SLD-PHANTOM
 70
     0
  3
SolidWorks Line Style
 72
    65
 73
     6
 40
12.7
 49
6.35
 74
     0
 49
-1.27
 74
     0
 49
1.27
 74
     0
 49
-1.27
 74
     0
 49
1.27
 74
     0
 49
-1.27
 74
     0
  0
LTYPE
  5
6D
330
5
100
AcDbSymbolTableRecord
100
AcDbLinetypeTableRecord
  2
SLD-KETTE
 70
     0
  3
SolidWorks Line Style
 72
    65
 73
     4
 40
10.16
 49
6.35
 74
     0
 49
-1.27
 74
     0
 49
1.27
 74
     0
 49
-1.27
 74
     0
  0
LTYPE
  5
6E
330
5
100
AcDbSymbolTableRecord
100
AcDbLinetypeTableRecord
  2
SLD-PUNKTSTRICH
 70
     0
  3
SolidWorks Line Style
 72
    65
 73
     4
 40
19.05
 49
15.24
 74
     0
 49
-1.27
 74
     0
 49
1.27
 74
     0
 49
-1.27
 74
     0
  0
LTYPE
  5
6F
330
5
100
AcDbSymbolTableRecord
100
AcDbLinetypeTableRecord
  2
SLD-NAHT
 70
     0
  3
SolidWorks Line Style
 72
    65
 73
     2
 40
0.635
 49
0.0
 74
     0
 49
-0.635
 74
     0
  0
LTYPE
  5
70
330
5
100
AcDbSymbolTableRecord
100
AcDbLinetypeTableRecord
  2
SLD-DICKE-DÜNNE-KETTE
 70
     0
  3
SolidWorks Line Style
 72
    65
 73
     4
 40
10.16
 49
6.35
 74
     0
 49
-1.27
 74
     0
 49
1.27
 74
     0
 49
-1.27
 74
     0
  0
ENDTAB
  0
TABLE
  2
LAYER
  5
2
330
0
100
AcDbSymbolTable
 70
     3
  0
LAYER
  5
10
330
2
100
AcDbSymbolTableRecord
100
AcDbLayerTableRecord
  2
0
 70
     0
 62
     7
  6
CONTINUOUS
  0
LAYER
  5
71
330
2
100
AcDbSymbolTableRecord
100
AcDbLayerTableRecord
  2
FORMAT
 70
     0
 62
     7
  6
SLD-DURCHGEHEND
  0
LAYER
  5
72
330
2
100
AcDbSymbolTableRecord
100
AcDbLayerTableRecord
  2
SLD-0
 70
     0
 62
     7
  6
SLD-DURCHGEHEND
  0
ENDTAB
  0
TABLE
  2
STYLE
  5
3
330
0
100
AcDbSymbolTable
 70
     3
  0
STYLE
  5
11
330
3
100
AcDbSymbolTableRecord
100
AcDbTextStyleTableRecord
  2
STANDARD
 70
     0
 40
0.0
 41
1.0
 50
0.0
 71
     0
 42
3.5
  3
txt
  4

  0
STYLE
  5
365
330
3
100
AcDbSymbolTableRecord
100
AcDbTextStyleTableRecord
  2
SLDTEXTSTYLE0
 70
     0
 40
0.0
 41
0.75
 50
0.0
 71
     0
 42
3.5
  3
TXT
  4

  0
STYLE
  5
36D
330
3
100
AcDbSymbolTableRecord
100
AcDbTextStyleTableRecord
  2
SLDTEXTSTYLE1
 70
     0
 40
0.0
 41
0.6923076923
 50
0.0
 71
     0
 42
3.5
  3
TXT
  4

  0
ENDTAB
  0
TABLE
  2
VIEW
  5
6
330
0
100
AcDbSymbolTable
 70
     0
  0
ENDTAB
  0
TABLE
  2
UCS
  5
7
330
0
100
AcDbSymbolTable
 70
     0
  0
ENDTAB
  0
TABLE
  2
APPID
  5
9
330
0
100
AcDbSymbolTable
 70
     1
  0
APPID
  5
12
330
9
100
AcDbSymbolTableRecord
100
AcDbRegAppTableRecord
  2
ACAD
 70
     0
  0
ENDTAB
  0
TABLE
  2
DIMSTYLE
  5
A
330
0
100
AcDbSymbolTable
 70
     1
  0
DIMSTYLE
105
27
330
A
100
AcDbSymbolTableRecord
100
AcDbDimStyleTableRecord
  2
ISO-25
 70
     0
  3

  4

  5

  6

  7

 40
1.0
 41
2.5
 42
0.625
 43
3.75
 44
1.25
 45
0.0
 46
0.0
 47
0.0
 48
0.0
140
2.5
141
2.5
142
0.0
143
0.0393700787
144
1.0
145
0.0
146
1.0
147
0.625
 71
     0
 72
     0
 73
     0
 74
     0
 75
     0
 76
     0
 77
     1
 78
     8
170
     0
171
     3
172
     1
173
     0
174
     0
175
     0
176
     0
177
     0
178
     0
270
     2
271
     2
272
     2
273
     2
274
     3
340
11
275
     0
280
     0
281
     0
282
     0
283
     0
284
     8
285
     0
286
     0
287
     3
288
     0
  0
ENDTAB
  0
TABLE
  2
BLOCK_RECORD
  5
1
330
0
100
AcDbSymbolTable
 70
     3
  0
BLOCK_RECORD
  5
1F
330
1
100
AcDbSymbolTableRecord
100
AcDbBlockTableRecord
  2
*MODEL_SPACE
  0
BLOCK_RECORD
  5
1B
330
1
100
AcDbSymbolTableRecord
100
AcDbBlockTableRecord
  2
*PAPER_SPACE
  0
BLOCK_RECORD
  5
23
330
1
100
AcDbSymbolTableRecord
100
AcDbBlockTableRecord
  2
*PAPER_SPACE0
  0
BLOCK_RECORD
  5
73
330
1
100
AcDbSymbolTableRecord
100
AcDbBlockTableRecord
  2
SW_CENTERMARKSYMBOL_0
  0
BLOCK_RECORD
  5
7E
330
1
100
AcDbSymbolTableRecord
100
AcDbBlockTableRecord
  2
SW_CENTERMARKSYMBOL_1
  0
ENDTAB
  0
ENDSEC
  0
SECTION
  2
BLOCKS
  0
BLOCK
  5
20
330
1F
100
AcDbEntity
  8
0
100
AcDbBlockBegin
  2
*MODEL_SPACE
 70
     0
 10
0.0
 20
0.0
 30
0.0
  3
*MODEL_SPACE
  1

  0
ENDBLK
  5
21
330
1F
100
AcDbEntity
  8
0
100
AcDbBlockEnd
  0
BLOCK
  5
1C
330
1B
100
AcDbEntity
 67
     1
  8
0
100
AcDbBlockBegin
  2
*PAPER_SPACE
 70
     0
 10
0.0
 20
0.0
 30
0.0
  3
*PAPER_SPACE
  1

  0
ENDBLK
  5
1D
330
1B
100
AcDbEntity
 67
     1
  8
0
100
AcDbBlockEnd
  0
BLOCK
  5
24
330
23
100
AcDbEntity
  8
0
100
AcDbBlockBegin
  2
*PAPER_SPACE0
 70
     0
 10
0.0
 20
0.0
 30
0.0
  3
*PAPER_SPACE0
  1
*PAPER_SPACE0
  0
ENDBLK
  5
25
330
23
100
AcDbEntity
  8
0
100
AcDbBlockEnd
  0
BLOCK
  5
74
330
73
100
AcDbEntity
  8
0
100
AcDbBlockBegin
  2
SW_CENTERMARKSYMBOL_0
 70
     0
 10
0.0
 20
0.0
 30
0.0
  3
SW_CENTERMARKSYMBOL_0
  1
SW_CENTERMARKSYMBOL_0
  0
LINE
  5
76
330
73
100
AcDbEntity
  8
SLD-0
  6
SLD-DURCHGEHEND
 62
     7
100
AcDbLine
 10
0.0
 20
0.0
 30
0.0
 11
0.0
 21
2.5
 31
0.0
  0
LINE
  5
77
330
73
100
AcDbEntity
  8
SLD-0
  6
SLD-DURCHGEHEND
 62
     7
100
AcDbLine
 10
0.0
 20
0.0
 30
0.0
 11
-2.5
 21
0.0
 31
0.0
  0
LINE
  5
78
330
73
100
AcDbEntity
  8
SLD-0
  6
SLD-DURCHGEHEND
 62
     7
100
AcDbLine
 10
0.0
 20
0.0
 30
0.0
 11
0.0
 21
-2.5
 31
0.0
  0
LINE
  5
79
330
73
100
AcDbEntity
  8
SLD-0
  6
SLD-DURCHGEHEND
 62
     7
100
AcDbLine
 10
0.0
 20
0.0
 30
0.0
 11
2.5
 21
0.0
 31
0.0
  0
LINE
  5
7A
330
73
100
AcDbEntity
  8
SLD-0
  6
SLD-DURCHGEHEND
 62
     7
100
AcDbLine
 10
0.0
 20
5.0
 30
0.0
 11
0.0
 21
8.0
 31
0.0
  0
LINE
  5
7B
330
73
100
AcDbEntity
  8
SLD-0
  6
SLD-DURCHGEHEND
 62
     7
100
AcDbLine
 10
-5.0
 20
0.0
 30
0.0
 11
-8.0
 21
0.0
 31
0.0
  0
LINE
  5
7C
330
73
100
AcDbEntity
  8
SLD-0
  6
SLD-DURCHGEHEND
 62
     7
100
AcDbLine
 10
0.0
 20
-5.0
 30
0.0
 11
0.0
 21
-8.0
 31
0.0
  0
LINE
  5
7D
330
73
100
AcDbEntity
  8
SLD-0
  6
SLD-DURCHGEHEND
 62
     7
100
AcDbLine
 10
5.0
 20
0.0
 30
0.0
 11
8.0
 21
0.0
 31
0.0
  0
ENDBLK
  5
75
330
73
100
AcDbEntity
  8
0
100
AcDbBlockEnd
  0
BLOCK
  5
7F
330
7E
100
AcDbEntity
  8
0
100
AcDbBlockBegin
  2
SW_CENTERMARKSYMBOL_1
 70
     0
 10
0.0
 20
0.0
 30
0.0
  3
SW_CENTERMARKSYMBOL_1
  1
SW_CENTERMARKSYMBOL_1
  0
LINE
  5
81
330
7E
100
AcDbEntity
  8
SLD-0
  6
SLD-DURCHGEHEND
 62
     7
100
AcDbLine
 10
0.0
 20
0.0
 30
0.0
 11
0.0
 21
2.5
 31
0.0
  0
LINE
  5
82
330
7E
100
AcDbEntity
  8
SLD-0
  6
SLD-DURCHGEHEND
 62
     7
100
AcDbLine
 10
0.0
 20
0.0
 30
0.0
 11
-2.5
 21
0.0
 31
0.0
  0
LINE
  5
83
330
7E
100
AcDbEntity
  8
SLD-0
  6
SLD-DURCHGEHEND
 62
     7
100
AcDbLine
 10
0.0
 20
0.0
 30
0.0
 11
0.0
 21
-2.5
 31
0.0
  0
LINE
  5
84
330
7E
100
AcDbEntity
  8
SLD-0
  6
SLD-DURCHGEHEND
 62
     7
100
AcDbLine
 10
0.0
 20
0.0
 30
0.0
 11
2.5
 21
0.0
 31
0.0
  0
LINE
  5
85
330
7E
100
AcDbEntity
  8
SLD-0
  6
SLD-DURCHGEHEND
 62
     7
100
AcDbLine
 10
0.0
 20
5.0
 30
0.0
 11
0.0
 21
8.0
 31
0.0
  0
LINE
  5
86
330
7E
100
AcDbEntity
  8
SLD-0
  6
SLD-DURCHGEHEND
 62
     7
100
AcDbLine
 10
-5.0
 20
0.0
 30
0.0
 11
-8.0
 21
0.0
 31
0.0
  0
LINE
  5
87
330
7E
100
AcDbEntity
  8
SLD-0
  6
SLD-DURCHGEHEND
 62
     7
100
AcDbLine
 10
0.0
 20
-5.0
 30
0.0
 11
0.0
 21
-8.0
 31
0.0
  0
LINE
  5
88
330
7E
100
AcDbEntity
  8
SLD-0
  6
SLD-DURCHGEHEND
 62
     7
100
AcDbLine
 10
5.0
 20
0.0
 30
0.0
 11
8.0
 21
0.0
 31
0.0
  0
ENDBLK
  5
80
330
7E
100
AcDbEntity
  8
0
100
AcDbBlockEnd
  0
ENDSEC
  0
SECTION
  2
ENTITIES
  0
LINE
  5
89
330
1F
100
AcDbEntity
  8
SLD-0
  6
SLD-DURCHGEHEND
 62
     7
100
AcDbLine
 10
292.0
 20
205.0
 30
0.0
 11
292.0
 21
5.0
 31
0.0
  0
LINE
  5
8A
330
1F
100
AcDbEntity
  8
SLD-0
  6
SLD-DURCHGEHEND
 62
     7
100
AcDbLine
 10
159.4
 20
34.75
 30
0.0
 11
174.13
 21
34.75
 31
0.0
  0
LINE
  5
8B
330
1F
100
AcDbEntity
  8
SLD-0
  6
SLD-DURCHGEHEND
 62
     7
100
AcDbLine
 10
203.6
 20
34.75
 30
0.0
 11
292.0
 21
34.75
 31
0.0
  0
LINE
  5
8C
330
1F
100
AcDbEntity
  8
SLD-0
  6
SLD-DURCHGEHEND
 62
     7
100
AcDbLine
 10
159.4
 20
9.25
 30
0.0
 11
292.0
 21
9.25
 31
0.0
  0
LINE
  5
8D
330
1F
100
AcDbEntity
  8
SLD-0
  6
SLD-DURCHGEHEND
 62
     7
100
AcDbLine
 10
159.4
 20
34.75
 30
0.0
 11
159.4
 21
28.375
 31
0.0
  0
LINE
  5
8E
330
1F
100
AcDbEntity
  8
SLD-0
  6
SLD-DURCHGEHEND
 62
     7
100
AcDbLine
 10
292.0
 20
22.0
 30
0.0
 11
279.0
 21
22.0
 31
0.0
  0
LINE
  5
8F
330
1F
100
AcDbEntity
  8
SLD-0
  6
SLD-DURCHGEHEND
 62
     7
100
AcDbLine
 10
188.86
 20
22.0
 30
0.0
 11
203.6
 21
22.0
 31
0.0
  0
LINE
  5
90
330
1F
100
AcDbEntity
  8
SLD-0
  6
SLD-DURCHGEHEND
 62
     7
100
AcDbLine
 10
203.6
 20
34.75
 30
0.0
 11
203.6
 21
5.0
 31
0.0
  0
LINE
  5
91
330
1F
100
AcDbEntity
  8
SLD-0
  6
SLD-DURCHGEHEND
 62
     7
100
AcDbLine
 10
247.8
 20
5.0
 30
0.0
 11
247.8
 21
9.25
 31
0.0
  0
LINE
  5
92
330
1F
100
AcDbEntity
  8
SLD-0
  6
SLD-DURCHGEHEND
 62
     7
100
AcDbLine
 10
174.13
 20
34.75
 30
0.0
 11
188.86
 21
34.75
 31
0.0
  0
LINE
  5
93
330
1F
100
AcDbEntity
  8
SLD-0
  6
SLD-DURCHGEHEND
 62
     7
100
AcDbLine
 10
279.0
 20
9.25
 30
0.0
 11
279.0
 21
15.4949693602
 31
0.0
  0
LINE
  5
94
330
1F
100
AcDbEntity
  8
SLD-0
  6
SLD-DURCHGEHEND
 62
     7
100
AcDbLine
 10
188.86
 20
34.75
 30
0.0
 11
203.6
 21
34.75
 31
0.0
  0
LINE
  5
95
330
1F
100
AcDbEntity
  8
SLD-0
  6
SLD-DURCHGEHEND
 62
     7
100
AcDbLine
 10
292.0
 20
15.4949693602
 30
0.0
 11
279.0
 21
15.4949693602
 31
0.0
  0
LINE
  5
96
330
1F
100
AcDbEntity
  8
SLD-0
  6
SLD-DURCHGEHEND
 62
     7
100
AcDbLine
 10
203.6
 20
22.0
 30
0.0
 11
279.0
 21
22.0
 31
0.0
  0
LINE
  5
97
330
1F
100
AcDbEntity
  8
SLD-0
  6
SLD-DURCHGEHEND
 62
     7
100
AcDbLine
 10
188.86
 20
34.75
 30
0.0
 11
188.86
 21
22.0
 31
0.0
  0
LINE
  5
98
330
1F
100
AcDbEntity
  8
SLD-0
  6
SLD-DURCHGEHEND
 62
     7
100
AcDbLine
 10
188.86
 20
22.0
 30
0.0
 11
174.13
 21
22.0
 31
0.0
  0
LINE
  5
99
330
1F
100
AcDbEntity
  8
SLD-0
  6
SLD-DURCHGEHEND
 62
     7
100
AcDbLine
 10
292.0
 20
205.0
 30
0.0
 11
5.0
 21
205.0
 31
0.0
  0
LINE
  5
9A
330
1F
100
AcDbEntity
  8
SLD-0
  6
SLD-DURCHGEHEND
 62
     7
100
AcDbLine
 10
5.0
 20
205.0
 30
0.0
 11
5.0
 21
5.0
 31
0.0
  0
LINE
  5
9B
330
1F
100
AcDbEntity
  8
SLD-0
  6
SLD-DURCHGEHEND
 62
     7
100
AcDbLine
 10
5.0
 20
5.0
 30
0.0
 11
292.0
 21
5.0
 31
0.0
  0
LINE
  5
9C
330
1F
100
AcDbEntity
  8
SLD-0
  6
SLD-DURCHGEHEND
 62
     7
100
AcDbLine
 10
174.13
 20
22.0
 30
0.0
 11
174.13
 21
34.75
 31
0.0
  0
LINE
  5
9D
330
1F
100
AcDbEntity
  8
SLD-0
  6
SLD-DURCHGEHEND
 62
     7
100
AcDbLine
 10
174.13
 20
22.0
 30
0.0
 11
159.4
 21
22.0
 31
0.0
  0
LINE
  5
9E
330
1F
100
AcDbEntity
  8
SLD-0
  6
SLD-DURCHGEHEND
 62
     7
100
AcDbLine
 10
279.0
 20
15.4949693602
 30
0.0
 11
279.0
 21
22.0
 31
0.0
  0
LINE
  5
9F
330
1F
100
AcDbEntity
  8
SLD-0
  6
SLD-DURCHGEHEND
 62
     7
100
AcDbLine
 10
159.4
 20
28.375
 30
0.0
 11
174.13
 21
28.375
 31
0.0
  0
LINE
  5
A0
330
1F
100
AcDbEntity
  8
SLD-0
  6
SLD-DURCHGEHEND
 62
     7
100
AcDbLine
 10
174.13
 20
28.375
 30
0.0
 11
188.86
 21
28.375
 31
0.0
  0
LINE
  5
A1
330
1F
100
AcDbEntity
  8
SLD-0
  6
SLD-DURCHGEHEND
 62
     7
100
AcDbLine
 10
188.86
 20
28.375
 30
0.0
 11
203.6
 21
28.375
 31
0.0
  0
LINE
  5
A2
330
1F
100
AcDbEntity
  8
SLD-0
  6
SLD-DURCHGEHEND
 62
     7
100
AcDbLine
 10
159.4
 20
22.0
 30
0.0
 11
159.4
 21
28.375
 31
0.0
  0
LINE
  5
A3
330
1F
100
AcDbEntity
  8
SLD-0
  6
SLD-DURCHGEHEND
 62
     7
100
AcDbLine
 10
159.4
 20
22.0
 30
0.0
 11
159.4
 21
9.25
 31
0.0
  0
LINE
  5
A4
330
1F
100
AcDbEntity
  8
SLD-0
  6
SLD-DURCHGEHEND
 62
     7
100
AcDbLine
 10
159.4
 20
5.0
 30
0.0
 11
159.4
 21
9.25
 31
0.0
  0
LINE
  5
A5
330
1F
100
AcDbEntity
  8
SLD-0
  6
SLD-DURCHGEHEND
 62
     7
100
AcDbLine
 10
51.7786608208
 20
139.0804610793
 30
0.0
 11
48.6586608123
 21
139.0804610793
 31
0.0
  0
LINE
  5
A6
330
1F
100
AcDbEntity
  8
SLD-0
  6
SLD-DURCHGEHEND
 62
     7
100
AcDbLine
 10
51.7786608208
 20
138.0804610318
 30
0.0
 11
48.6586608123
 21
138.0804610318
 31
0.0
  0
LINE
  5
A7
330
1F
100
AcDbEntity
  8
SLD-0
  6
SLD-DURCHGEHEND
 62
     7
100
AcDbLine
 10
51.7786608208
 20
139.0804610793
 30
0.0
 11
51.7786608208
 21
138.0804610318
 31
0.0
  0
LINE
  5
A8
330
1F
100
AcDbEntity
  8
SLD-0
  6
SLD-DURCHGEHEND
 62
     7
100
AcDbLine
 10
48.6586608123
 20
139.0804610793
 30
0.0
 11
48.6586608123
 21
138.0804610318
 31
0.0
  0
LINE
  5
A9
330
1F
100
AcDbEntity
  8
SLD-0
  6
SLD-DURCHGEHEND
 62
     7
100
AcDbLine
 10
51.7786608208
 20
175.0804615087
 30
0.0
 11
48.6586608123
 21
175.0804615087
 31
0.0
  0
LINE
  5
AA
330
1F
100
AcDbEntity
  8
SLD-0
  6
SLD-DURCHGEHEND
 62
     7
100
AcDbLine
 10
51.7786608208
 20
175.0804615087
 30
0.0
 11
51.7786608208
 21
139.0804610793
 31
0.0
  0
LINE
  5
AB
330
1F
100
AcDbEntity
  8
SLD-0
  6
SLD-DURCHGEHEND
 62
     7
100
AcDbLine
 10
48.6586608123
 20
175.0804615087
 30
0.0
 11
48.6586608123
 21
139.0804610793
 31
0.0
  0
LINE
  5
AC
330
1F
100
AcDbEntity
  8
SLD-0
  6
SLD-DURCHGEHEND
 62
     7
100
AcDbLine
 10
51.7786608208
 20
176.0804598099
 30
0.0
 11
48.6586608123
 21
176.0804598099
 31
0.0
  0
LINE
  5
AD
330
1F
100
AcDbEntity
  8
SLD-0
  6
SLD-DURCHGEHEND
 62
     7
100
AcDbLine
 10
51.7786608208
 20
176.0804598099
 30
0.0
 11
51.7786608208
 21
175.0804615087
 31
0.0
  0
LINE
  5
AE
330
1F
100
AcDbEntity
  8
SLD-0
  6
SLD-DURCHGEHEND
 62
     7
100
AcDbLine
 10
48.6586608123
 20
176.0804598099
 30
0.0
 11
48.6586608123
 21
175.0804615087
 31
0.0
  0
LINE
  5
AF
330
1F
100
AcDbEntity
  8
SLD-0
  6
SLD-DURCHGEHEND
 62
     7
100
AcDbLine
 10
44.6586606223
 20
140.880460932
 30
0.0
 11
48.6586608123
 21
140.880460932
 31
0.0
  0
LINE
  5
B0
330
1F
100
AcDbEntity
  8
SLD-0
  6
SLD-DURCHGEHEND
 62
     7
100
AcDbLine
 10
44.6586606223
 20
140.880460932
 30
0.0
 11
44.6586606223
 21
146.5804614938
 31
0.0
  0
LINE
  5
B1
330
1F
100
AcDbEntity
  8
SLD-0
  6
SLD-DURCHGEHEND
 62
     7
100
AcDbLine
 10
48.6586608123
 20
146.5804614938
 30
0.0
 11
44.6586606223
 21
146.5804614938
 31
0.0
  0
LINE
  5
B2
330
1F
100
AcDbEntity
  8
SLD-0
  6
SLD-DURCHGEHEND
 62
     7
100
AcDbLine
 10
44.6586606223
 20
147.5804607264
 30
0.0
 11
48.6586608123
 21
147.5804607264
 31
0.0
  0
LINE
  5
B3
330
1F
100
AcDbEntity
  8
SLD-0
  6
SLD-DURCHGEHEND
 62
     7
100
AcDbLine
 10
44.6586606223
 20
146.5804614938
 30
0.0
 11
44.6586606223
 21
147.5804607264
 31
0.0
  0
LINE
  5
B4
330
1F
100
AcDbEntity
  8
SLD-0
  6
SLD-DURCHGEHEND
 62
     7
100
AcDbLine
 10
48.6586608123
 20
139.8804610009
 30
0.0
 11
44.6586606223
 21
139.8804610009
 31
0.0
  0
LINE
  5
B5
330
1F
100
AcDbEntity
  8
SLD-0
  6
SLD-DURCHGEHEND
 62
     7
100
AcDbLine
 10
44.6586606223
 20
139.8804610009
 30
0.0
 11
44.6586606223
 21
140.880460932
 31
0.0
  0
LINE
  5
B6
330
1F
100
AcDbEntity
  8
SLD-0
  6
SLD-DURCHGEHEND
 62
     7
100
AcDbLine
 10
44.6586606223
 20
167.5804612106
 30
0.0
 11
48.6586608123
 21
167.5804612106
 31
0.0
  0
LINE
  5
B7
330
1F
100
AcDbEntity
  8
SLD-0
  6
SLD-DURCHGEHEND
 62
     7
100
AcDbLine
 10
48.6586608123
 20
166.5804610467
 30
0.0
 11
44.6586606223
 21
166.5804610467
 31
0.0
  0
LINE
  5
B8
330
1F
100
AcDbEntity
  8
SLD-0
  6
SLD-DURCHGEHEND
 62
     7
100
AcDbLine
 10
44.6586606223
 20
166.5804610467
 30
0.0
 11
44.6586606223
 21
167.5804612106
 31
0.0
  0
LINE
  5
B9
330
1F
100
AcDbEntity
  8
SLD-0
  6
SLD-DURCHGEHEND
 62
     7
100
AcDbLine
 10
48.6586608123
 20
173.2804608411
 30
0.0
 11
44.6586606223
 21
173.2804608411
 31
0.0
  0
LINE
  5
BA
330
1F
100
AcDbEntity
  8
SLD-0
  6
SLD-DURCHGEHEND
 62
     7
100
AcDbLine
 10
44.6586606223
 20
167.5804612106
 30
0.0
 11
44.6586606223
 21
173.2804608411
 31
0.0
  0
LINE
  5
BB
330
1F
100
AcDbEntity
  8
SLD-0
  6
SLD-DURCHGEHEND
 62
     7
100
AcDbLine
 10
44.6586606223
 20
174.2804628677
 30
0.0
 11
48.6586608123
 21
174.2804628677
 31
0.0
  0
LINE
  5
BC
330
1F
100
AcDbEntity
  8
SLD-0
  6
SLD-DURCHGEHEND
 62
     7
100
AcDbLine
 10
44.6586606223
 20
173.2804608411
 30
0.0
 11
44.6586606223
 21
174.2804628677
 31
0.0
  0
LINE
  5
BD
330
1F
100
AcDbEntity
  8
SLD-0
  6
SLD-DURCHGEHEND
 62
     7
100
AcDbLine
 10
44.6586606223
 20
154.0804617918
 30
0.0
 11
48.6586608123
 21
154.0804617918
 31
0.0
  0
LINE
  5
BE
330
1F
100
AcDbEntity
  8
SLD-0
  6
SLD-DURCHGEHEND
 62
     7
100
AcDbLine
 10
48.6586608123
 20
153.0804606966
 30
0.0
 11
44.6586606223
 21
153.0804606966
 31
0.0
  0
LINE
  5
BF
330
1F
100
AcDbEntity
  8
SLD-0
  6
SLD-DURCHGEHEND
 62
     7
100
AcDbLine
 10
44.6586606223
 20
153.0804606966
 30
0.0
 11
44.6586606223
 21
154.0804617918
 31
0.0
  0
LINE
  5
C0
330
1F
100
AcDbEntity
  8
SLD-0
  6
SLD-DURCHGEHEND
 62
     7
100
AcDbLine
 10
44.6586606223
 20
161.0804610765
 30
0.0
 11
48.6586608123
 21
161.0804610765
 31
0.0
  0
LINE
  5
C1
330
1F
100
AcDbEntity
  8
SLD-0
  6
SLD-DURCHGEHEND
 62
     7
100
AcDbLine
 10
48.6586608123
 20
160.0804609126
 30
0.0
 11
44.6586606223
 21
160.0804609126
 31
0.0
  0
LINE
  5
C2
330
1F
100
AcDbEntity
  8
SLD-0
  6
SLD-DURCHGEHEND
 62
     7
100
AcDbLine
 10
44.6586606223
 20
160.0804609126
 30
0.0
 11
44.6586606223
 21
161.0804610765
 31
0.0
  0
LINE
  5
C3
330
1F
100
AcDbEntity
  8
SLD-0
  6
SLD-DURCHGEHEND
 62
     7
100
AcDbLine
 10
44.6586606223
 20
154.0804617918
 30
0.0
 11
44.6586606223
 21
160.0804609126
 31
0.0
  0
LINE
  5
C4
330
1F
100
AcDbEntity
  8
SLD-0
  6
SLD-DURCHGEHEND
 62
     7
100
AcDbLine
 10
88.6272667314
 20
175.0804615087
 30
0.0
 11
91.7472667398
 21
175.0804615087
 31
0.0
  0
LINE
  5
C5
330
1F
100
AcDbEntity
  8
SLD-0
  6
SLD-DURCHGEHEND
 62
     7
100
AcDbLine
 10
88.6272667314
 20
176.0804598099
 30
0.0
 11
91.7472667398
 21
176.0804598099
 31
0.0
  0
LINE
  5
C6
330
1F
100
AcDbEntity
  8
SLD-0
  6
SLD-DURCHGEHEND
 62
     7
100
AcDbLine
 10
88.6272667314
 20
175.0804615087
 30
0.0
 11
88.6272667314
 21
176.0804598099
 31
0.0
  0
LINE
  5
C7
330
1F
100
AcDbEntity
  8
SLD-0
  6
SLD-DURCHGEHEND
 62
     7
100
AcDbLine
 10
91.7472667398
 20
175.0804615087
 30
0.0
 11
91.7472667398
 21
176.0804598099
 31
0.0
  0
LINE
  5
C8
330
1F
100
AcDbEntity
  8
SLD-0
  6
SLD-DURCHGEHEND
 62
     7
100
AcDbLine
 10
88.6272667314
 20
139.0804610793
 30
0.0
 11
91.7472667398
 21
139.0804610793
 31
0.0
  0
LINE
  5
C9
330
1F
100
AcDbEntity
  8
SLD-0
  6
SLD-DURCHGEHEND
 62
     7
100
AcDbLine
 10
88.6272667314
 20
139.0804610793
 30
0.0
 11
88.6272667314
 21
175.0804615087
 31
0.0
  0
LINE
  5
CA
330
1F
100
AcDbEntity
  8
SLD-0
  6
SLD-DURCHGEHEND
 62
     7
100
AcDbLine
 10
91.7472667398
 20
139.0804610793
 30
0.0
 11
91.7472667398
 21
175.0804615087
 31
0.0
  0
LINE
  5
CB
330
1F
100
AcDbEntity
  8
SLD-0
  6
SLD-DURCHGEHEND
 62
     7
100
AcDbLine
 10
88.6272667314
 20
138.0804610318
 30
0.0
 11
91.7472667398
 21
138.0804610318
 31
0.0
  0
LINE
  5
CC
330
1F
100
AcDbEntity
  8
SLD-0
  6
SLD-DURCHGEHEND
 62
     7
100
AcDbLine
 10
88.6272667314
 20
138.0804610318
 30
0.0
 11
88.6272667314
 21
139.0804610793
 31
0.0
  0
LINE
  5
CD
330
1F
100
AcDbEntity
  8
SLD-0
  6
SLD-DURCHGEHEND
 62
     7
100
AcDbLine
 10
91.7472667398
 20
138.0804610318
 30
0.0
 11
91.7472667398
 21
139.0804610793
 31
0.0
  0
LINE
  5
CE
330
1F
100
AcDbEntity
  8
SLD-0
  6
SLD-DURCHGEHEND
 62
     7
100
AcDbLine
 10
95.7472669298
 20
160.0804609126
 30
0.0
 11
91.7472667398
 21
160.0804609126
 31
0.0
  0
LINE
  5
CF
330
1F
100
AcDbEntity
  8
SLD-0
  6
SLD-DURCHGEHEND
 62
     7
100
AcDbLine
 10
91.7472667398
 20
161.0804610765
 30
0.0
 11
95.7472669298
 21
161.0804610765
 31
0.0
  0
LINE
  5
D0
330
1F
100
AcDbEntity
  8
SLD-0
  6
SLD-DURCHGEHEND
 62
     7
100
AcDbLine
 10
95.7472669298
 20
161.0804610765
 30
0.0
 11
95.7472669298
 21
160.0804609126
 31
0.0
  0
LINE
  5
D1
330
1F
100
AcDbEntity
  8
SLD-0
  6
SLD-DURCHGEHEND
 62
     7
100
AcDbLine
 10
95.7472669298
 20
153.0804606966
 30
0.0
 11
91.7472667398
 21
153.0804606966
 31
0.0
  0
LINE
  5
D2
330
1F
100
AcDbEntity
  8
SLD-0
  6
SLD-DURCHGEHEND
 62
     7
100
AcDbLine
 10
91.7472667398
 20
154.0804617918
 30
0.0
 11
95.7472669298
 21
154.0804617918
 31
0.0
  0
LINE
  5
D3
330
1F
100
AcDbEntity
  8
SLD-0
  6
SLD-DURCHGEHEND
 62
     7
100
AcDbLine
 10
95.7472669298
 20
154.0804617918
 30
0.0
 11
95.7472669298
 21
153.0804606966
 31
0.0
  0
LINE
  5
D4
330
1F
100
AcDbEntity
  8
SLD-0
  6
SLD-DURCHGEHEND
 62
     7
100
AcDbLine
 10
95.7472669298
 20
160.0804609126
 30
0.0
 11
95.7472669298
 21
154.0804617918
 31
0.0
  0
LINE
  5
D5
330
1F
100
AcDbEntity
  8
SLD-0
  6
SLD-DURCHGEHEND
 62
     7
100
AcDbLine
 10
95.7472669298
 20
173.2804608411
 30
0.0
 11
91.7472667398
 21
173.2804608411
 31
0.0
  0
LINE
  5
D6
330
1F
100
AcDbEntity
  8
SLD-0
  6
SLD-DURCHGEHEND
 62
     7
100
AcDbLine
 10
91.7472667398
 20
174.2804628677
 30
0.0
 11
95.7472669298
 21
174.2804628677
 31
0.0
  0
LINE
  5
D7
330
1F
100
AcDbEntity
  8
SLD-0
  6
SLD-DURCHGEHEND
 62
     7
100
AcDbLine
 10
95.7472669298
 20
174.2804628677
 30
0.0
 11
95.7472669298
 21
173.2804608411
 31
0.0
  0
LINE
  5
D8
330
1F
100
AcDbEntity
  8
SLD-0
  6
SLD-DURCHGEHEND
 62
     7
100
AcDbLine
 10
91.7472667398
 20
167.5804612106
 30
0.0
 11
95.7472669298
 21
167.5804612106
 31
0.0
  0
LINE
  5
D9
330
1F
100
AcDbEntity
  8
SLD-0
  6
SLD-DURCHGEHEND
 62
     7
100
AcDbLine
 10
95.7472669298
 20
173.2804608411
 30
0.0
 11
95.7472669298
 21
167.5804612106
 31
0.0
  0
LINE
  5
DA
330
1F
100
AcDbEntity
  8
SLD-0
  6
SLD-DURCHGEHEND
 62
     7
100
AcDbLine
 10
95.7472669298
 20
166.5804610467
 30
0.0
 11
91.7472667398
 21
166.5804610467
 31
0.0
  0
LINE
  5
DB
330
1F
100
AcDbEntity
  8
SLD-0
  6
SLD-DURCHGEHEND
 62
     7
100
AcDbLine
 10
95.7472669298
 20
167.5804612106
 30
0.0
 11
95.7472669298
 21
166.5804610467
 31
0.0
  0
LINE
  5
DC
330
1F
100
AcDbEntity
  8
SLD-0
  6
SLD-DURCHGEHEND
 62
     7
100
AcDbLine
 10
95.7472669298
 20
146.5804614938
 30
0.0
 11
91.7472667398
 21
146.5804614938
 31
0.0
  0
LINE
  5
DD
330
1F
100
AcDbEntity
  8
SLD-0
  6
SLD-DURCHGEHEND
 62
     7
100
AcDbLine
 10
91.7472667398
 20
147.5804607264
 30
0.0
 11
95.7472669298
 21
147.5804607264
 31
0.0
  0
LINE
  5
DE
330
1F
100
AcDbEntity
  8
SLD-0
  6
SLD-DURCHGEHEND
 62
     7
100
AcDbLine
 10
95.7472669298
 20
147.5804607264
 30
0.0
 11
95.7472669298
 21
146.5804614938
 31
0.0
  0
LINE
  5
DF
330
1F
100
AcDbEntity
  8
SLD-0
  6
SLD-DURCHGEHEND
 62
     7
100
AcDbLine
 10
91.7472667398
 20
140.880460932
 30
0.0
 11
95.7472669298
 21
140.880460932
 31
0.0
  0
LINE
  5
E0
330
1F
100
AcDbEntity
  8
SLD-0
  6
SLD-DURCHGEHEND
 62
     7
100
AcDbLine
 10
95.7472669298
 20
146.5804614938
 30
0.0
 11
95.7472669298
 21
140.880460932
 31
0.0
  0
LINE
  5
E1
330
1F
100
AcDbEntity
  8
SLD-0
  6
SLD-DURCHGEHEND
 62
     7
100
AcDbLine
 10
95.7472669298
 20
139.8804610009
 30
0.0
 11
91.7472667398
 21
139.8804610009
 31
0.0
  0
LINE
  5
E2
330
1F
100
AcDbEntity
  8
SLD-0
  6
SLD-DURCHGEHEND
 62
     7
100
AcDbLine
 10
95.7472669298
 20
140.880460932
 30
0.0
 11
95.7472669298
 21
139.8804610009
 31
0.0
  0
LINE
  5
E3
330
1F
100
AcDbEntity
  8
SLD-0
  6
SLD-DURCHGEHEND
 62
     7
100
AcDbLine
 10
151.825795799
 20
174.2804628677
 30
0.0
 11
138.8257958288
 21
174.2804610318
 31
0.0
  0
LINE
  5
E4
330
1F
100
AcDbEntity
  8
SLD-0
  6
SLD-DURCHGEHEND
 62
     7
100
AcDbLine
 10
152.8257958288
 20
167.5804610318
 30
0.0
 11
152.8257958288
 21
173.2804610318
 31
0.0
  0
LINE
  5
E5
330
1F
100
AcDbEntity
  8
SLD-0
  6
SLD-DURCHGEHEND
 62
     7
100
AcDbLine
 10
138.8257958288
 20
166.5804610318
 30
0.0
 11
151.8257958288
 21
166.5804610318
 31
0.0
  0
LINE
  5
E6
330
1F
100
AcDbEntity
  8
SLD-0
  6
SLD-DURCHGEHEND
 62
     7
100
AcDbLine
 10
137.8257958288
 20
173.2804610318
 30
0.0
 11
137.8257958288
 21
167.5804610318
 31
0.0
  0
LINE
  5
E7
330
1F
100
AcDbEntity
  8
SLD-0
  6
SLD-DURCHGEHEND
 62
     7
100
AcDbLine
 10
141.3007958288
 20
161.0804610318
 30
0.0
 11
133.3007958288
 21
161.0804610318
 31
0.0
  0
LINE
  5
E8
330
1F
100
AcDbEntity
  8
SLD-0
  6
SLD-DURCHGEHEND
 62
     7
100
AcDbLine
 10
142.3007958288
 20
154.0804610318
 30
0.0
 11
142.3007958288
 21
160.0804610318
 31
0.0
  0
LINE
  5
E9
330
1F
100
AcDbEntity
  8
SLD-0
  6
SLD-DURCHGEHEND
 62
     7
100
AcDbLine
 10
133.3007958288
 20
153.0804610318
 30
0.0
 11
141.3007958288
 21
153.0804610318
 31
0.0
  0
LINE
  5
EA
330
1F
100
AcDbEntity
  8
SLD-0
  6
SLD-DURCHGEHEND
 62
     7
100
AcDbLine
 10
132.3007958288
 20
160.0804610318
 30
0.0
 11
132.3007958288
 21
154.0804610318
 31
0.0
  0
LINE
  5
EB
330
1F
100
AcDbEntity
  8
SLD-0
  6
SLD-DURCHGEHEND
 62
     7
100
AcDbLine
 10
151.8257958288
 20
147.5804610318
 30
0.0
 11
138.8257958288
 21
147.5804610318
 31
0.0
  0
LINE
  5
EC
330
1F
100
AcDbEntity
  8
SLD-0
  6
SLD-DURCHGEHEND
 62
     7
100
AcDbLine
 10
152.8257959113
 20
140.8804610145
 30
0.0
 11
152.8257957772
 21
146.5804611143
 31
0.0
  0
LINE
  5
ED
330
1F
100
AcDbEntity
  8
SLD-0
  6
SLD-DURCHGEHEND
 62
     7
100
AcDbLine
 10
138.8257958288
 20
139.8804610318
 30
0.0
 11
151.825795799
 21
139.8804610318
 31
0.0
  0
LINE
  5
EE
330
1F
100
AcDbEntity
  8
SLD-0
  6
SLD-DURCHGEHEND
 62
     7
100
AcDbLine
 10
137.8257958288
 20
146.5804610318
 30
0.0
 11
137.8257958288
 21
140.8804610318
 31
0.0
  0
LINE
  5
EF
330
1F
100
AcDbEntity
  8
SLD-0
  6
SLD-DURCHGEHEND
 62
     7
100
AcDbLine
 10
156.1487753982
 20
164.6586061335
 30
0.0
 11
156.1487753982
 21
165.4320043391
 31
0.0
  0
LINE
  5
F0
330
1F
100
AcDbEntity
  8
SLD-0
  6
SLD-DURCHGEHEND
 62
     7
100
AcDbLine
 10
155.5178471947
 20
164.6586061335
 30
0.0
 11
156.1487753982
 21
164.6586061335
 31
0.0
  0
LINE
  5
F1
330
1F
100
AcDbEntity
  8
SLD-0
  6
SLD-DURCHGEHEND
 62
     7
100
AcDbLine
 10
155.5178471947
 20
164.4957867331
 30
0.0
 11
155.5178471947
 21
164.6586061335
 31
0.0
  0
LINE
  5
F2
330
1F
100
AcDbEntity
  8
SLD-0
  6
SLD-DURCHGEHEND
 62
     7
100
AcDbLine
 10
156.1487753982
 20
164.4957867331
 30
0.0
 11
155.5178471947
 21
164.4957867331
 31
0.0
  0
LINE
  5
F3
330
1F
100
AcDbEntity
  8
SLD-0
  6
SLD-DURCHGEHEND
 62
     7
100
AcDbLine
 10
156.1487753982
 20
164.0073248065
 30
0.0
 11
156.1487753982
 21
164.4957867331
 31
0.0
  0
LINE
  5
F4
330
1F
100
AcDbEntity
  8
SLD-0
  6
SLD-DURCHGEHEND
 62
     7
100
AcDbLine
 10
155.5178471947
 20
164.0073248065
 30
0.0
 11
156.1487753982
 21
164.0073248065
 31
0.0
  0
LINE
  5
F5
330
1F
100
AcDbEntity
  8
SLD-0
  6
SLD-DURCHGEHEND
 62
     7
100
AcDbLine
 10
155.5178471947
 20
163.8445035434
 30
0.0
 11
155.5178471947
 21
164.0073248065
 31
0.0
  0
LINE
  5
F6
330
1F
100
AcDbEntity
  8
SLD-0
  6
SLD-DURCHGEHEND
 62
     7
100
AcDbLine
 10
156.2912435377
 20
163.8445035434
 30
0.0
 11
155.5178471947
 21
163.8445035434
 31
0.0
  0
LINE
  5
F7
330
1F
100
AcDbEntity
  8
SLD-0
  6
SLD-DURCHGEHEND
 62
     7
100
AcDbLine
 10
156.2912435377
 20
165.4320043391
 30
0.0
 11
156.2912435377
 21
163.8445035434
 31
0.0
  0
LINE
  5
F8
330
1F
100
AcDbEntity
  8
SLD-0
  6
SLD-DURCHGEHEND
 62
     7
100
AcDbLine
 10
156.1487753982
 20
165.4320043391
 30
0.0
 11
156.2912435377
 21
165.4320043391
 31
0.0
  0
LINE
  5
F9
330
1F
100
AcDbEntity
  8
SLD-0
  6
SLD-DURCHGEHEND
 62
     7
100
AcDbLine
 10
153.7268207515
 20
163.803799159
 30
0.0
 11
153.7268207515
 21
165.4320043391
 31
0.0
  0
LINE
  5
FA
330
1F
100
AcDbEntity
  8
SLD-0
  6
SLD-DURCHGEHEND
 62
     7
100
AcDbLine
 10
153.869288891
 20
163.803799159
 30
0.0
 11
153.7268207515
 21
163.803799159
 31
0.0
  0
LINE
  5
FB
330
1F
100
AcDbEntity
  8
SLD-0
  6
SLD-DURCHGEHEND
 62
     7
100
AcDbLine
 10
153.869288891
 20
165.4320043391
 30
0.0
 11
153.869288891
 21
163.803799159
 31
0.0
  0
LINE
  5
FC
330
1F
100
AcDbEntity
  8
SLD-0
  6
SLD-DURCHGEHEND
 62
     7
100
AcDbLine
 10
153.7268207515
 20
165.4320043391
 30
0.0
 11
153.869288891
 21
165.4320043391
 31
0.0
  0
LINE
  5
FD
330
1F
100
AcDbEntity
  8
SLD-0
  6
SLD-DURCHGEHEND
 62
     7
100
AcDbLine
 10
151.7526226427
 20
164.9438600177
 30
0.0
 11
151.7526226427
 21
165.4320034319
 31
0.0
  0
LINE
  5
FE
330
1F
100
AcDbEntity
  8
SLD-0
  6
SLD-DURCHGEHEND
 62
     7
100
AcDbLine
 10
151.1013405914
 20
165.4320035531
 30
0.0
 11
151.1013405914
 21
164.8420971972
 31
0.0
  0
LINE
  5
FF
330
1F
100
AcDbEntity
  8
SLD-0
  6
SLD-DURCHGEHEND
 62
     7
100
AcDbLine
 10
150.9588724518
 20
165.4320035531
 30
0.0
 11
151.1013405914
 21
165.4320035531
 31
0.0
  0
LINE
  5
100
330
1F
100
AcDbEntity
  8
SLD-0
  6
SLD-DURCHGEHEND
 62
     7
100
AcDbLine
 10
150.9588724518
 20
164.9807498261
 30
0.0
 11
150.9588724518
 21
165.4320035531
 31
0.0
  0
LINE
  5
101
330
1F
100
AcDbEntity
  8
SLD-0
  6
SLD-DURCHGEHEND
 62
     7
100
AcDbLine
 10
150.3075909907
 20
165.4320043391
 30
0.0
 11
150.3075904005
 21
164.802982899
 31
0.0
  0
LINE
  5
102
330
1F
100
AcDbEntity
  8
SLD-0
  6
SLD-DURCHGEHEND
 62
     7
100
AcDbLine
 10
150.1651228512
 20
165.4320043391
 30
0.0
 11
150.3075909907
 21
165.4320043391
 31
0.0
  0
LINE
  5
103
330
1F
100
AcDbEntity
  8
SLD-0
  6
SLD-DURCHGEHEND
 62
     7
100
AcDbLine
 10
150.1651228512
 20
164.8036186463
 30
0.0
 11
150.1651228512
 21
165.4320043391
 31
0.0
  0
LINE
  5
104
330
1F
100
AcDbEntity
  8
SLD-0
  6
SLD-DURCHGEHEND
 62
     7
100
AcDbLine
 10
151.7526221837
 20
164.2719076916
 30
0.0
 11
151.7526228512
 21
164.4735254973
 31
0.0
  0
LINE
  5
105
330
1F
100
AcDbEntity
  8
SLD-0
  6
SLD-DURCHGEHEND
 62
     7
100
AcDbLine
 10
151.8950903232
 20
164.2719076916
 30
0.0
 11
151.7526221837
 21
164.2719076916
 31
0.0
  0
LINE
  5
106
330
1F
100
AcDbEntity
  8
SLD-0
  6
SLD-DURCHGEHEND
 62
     7
100
AcDbLine
 10
151.8950903232
 20
165.4320034319
 30
0.0
 11
151.8950903232
 21
164.2719076916
 31
0.0
  0
LINE
  5
107
330
1F
100
AcDbEntity
  8
SLD-0
  6
SLD-DURCHGEHEND
 62
     7
100
AcDbLine
 10
151.7526226427
 20
165.4320034319
 30
0.0
 11
151.8950903232
 21
165.4320034319
 31
0.0
  0
LINE
  5
108
330
1F
100
AcDbEntity
  8
SLD-0
  6
SLD-DURCHGEHEND
 62
     7
100
AcDbLine
 10
148.1909237339
 20
165.0125507075
 30
0.0
 11
148.1909237339
 21
165.4320034939
 31
0.0
  0
LINE
  5
109
330
1F
100
AcDbEntity
  8
SLD-0
  6
SLD-DURCHGEHEND
 62
     7
100
AcDbLine
 10
148.333392332
 20
164.2719087085
 30
0.0
 11
148.1909241925
 21
164.2719087085
 31
0.0
  0
LINE
  5
10A
330
1F
100
AcDbEntity
  8
SLD-0
  6
SLD-DURCHGEHEND
 62
     7
100
AcDbLine
 10
148.333392332
 20
165.4320034939
 30
0.0
 11
148.333392332
 21
164.2719087085
 31
0.0
  0
LINE
  5
10B
330
1F
100
AcDbEntity
  8
SLD-0
  6
SLD-DURCHGEHEND
 62
     7
100
AcDbLine
 10
148.1909237339
 20
165.4320034939
 30
0.0
 11
148.333392332
 21
165.4320034939
 31
0.0
  0
LINE
  5
10C
330
1F
100
AcDbEntity
  8
SLD-0
  6
SLD-DURCHGEHEND
 62
     7
100
AcDbLine
 10
146.8476545031
 20
165.0125507075
 30
0.0
 11
146.8476545031
 21
165.4320034939
 31
0.0
  0
LINE
  5
10D
330
1F
100
AcDbEntity
  8
SLD-0
  6
SLD-DURCHGEHEND
 62
     7
100
AcDbLine
 10
145.9724939535
 20
165.4320043391
 30
0.0
 11
146.114962093
 21
165.4320043391
 31
0.0
  0
LINE
  5
10E
330
1F
100
AcDbEntity
  8
SLD-0
  6
SLD-DURCHGEHEND
 62
     7
100
AcDbLine
 10
145.9724939535
 20
164.8395546592
 30
0.0
 11
145.9724939535
 21
165.4320043391
 31
0.0
  0
LINE
  5
10F
330
1F
100
AcDbEntity
  8
SLD-0
  6
SLD-DURCHGEHEND
 62
     7
100
AcDbLine
 10
146.8476546897
 20
164.2719087085
 30
0.0
 11
146.8476542099
 21
164.4811587257
 31
0.0
  0
LINE
  5
110
330
1F
100
AcDbEntity
  8
SLD-0
  6
SLD-DURCHGEHEND
 62
     7
100
AcDbLine
 10
146.9901228292
 20
164.2719087085
 30
0.0
 11
146.8476546897
 21
164.2719087085
 31
0.0
  0
LINE
  5
111
330
1F
100
AcDbEntity
  8
SLD-0
  6
SLD-DURCHGEHEND
 62
     7
100
AcDbLine
 10
146.9901228292
 20
165.4320034939
 30
0.0
 11
146.9901228292
 21
164.2719087085
 31
0.0
  0
LINE
  5
112
330
1F
100
AcDbEntity
  8
SLD-0
  6
SLD-DURCHGEHEND
 62
     7
100
AcDbLine
 10
146.8476545031
 20
165.4320034939
 30
0.0
 11
146.9901228292
 21
165.4320034939
 31
0.0
  0
LINE
  5
113
330
1F
100
AcDbEntity
  8
SLD-0
  6
SLD-DURCHGEHEND
 62
     7
100
AcDbLine
 10
148.8015008265
 20
164.271907962
 30
0.0
 11
148.659032687
 21
164.271907962
 31
0.0
  0
LINE
  5
114
330
1F
100
AcDbEntity
  8
SLD-0
  6
SLD-DURCHGEHEND
 62
     7
100
AcDbLine
 10
152.3631987268
 20
165.4320043391
 30
0.0
 11
152.3631993749
 21
165.2313407716
 31
0.0
  0
LINE
  5
115
330
1F
100
AcDbEntity
  8
SLD-0
  6
SLD-DURCHGEHEND
 62
     7
100
AcDbLine
 10
152.2207305873
 20
165.4320043391
 30
0.0
 11
152.3631987268
 21
165.4320043391
 31
0.0
  0
LINE
  5
116
330
1F
100
AcDbEntity
  8
SLD-0
  6
SLD-DURCHGEHEND
 62
     7
100
AcDbLine
 10
152.2207305873
 20
163.803799159
 30
0.0
 11
152.2207305873
 21
165.4320043391
 31
0.0
  0
LINE
  5
117
330
1F
100
AcDbEntity
  8
SLD-0
  6
SLD-DURCHGEHEND
 62
     7
100
AcDbLine
 10
152.3631987268
 20
163.803799159
 30
0.0
 11
152.2207305873
 21
163.803799159
 31
0.0
  0
LINE
  5
118
330
1F
100
AcDbEntity
  8
SLD-0
  6
SLD-DURCHGEHEND
 62
     7
100
AcDbLine
 10
152.3631993749
 20
164.4964224022
 30
0.0
 11
152.3631987268
 21
163.803799159
 31
0.0
  0
LINE
  5
119
330
1F
100
AcDbEntity
  8
SLD-0
  6
SLD-DURCHGEHEND
 62
     7
100
AcDbLine
 10
154.1338720465
 20
164.8824849046
 30
0.0
 11
155.1718534077
 21
164.8824849046
 31
0.0
  0
LINE
  5
11A
330
1F
100
AcDbEntity
  8
SLD-0
  6
SLD-DURCHGEHEND
 62
     7
100
AcDbLine
 10
154.3214978388
 20
165.0656579815
 30
0.0
 11
154.1949297388
 21
165.1321218237
 31
0.0
  0
LINE
  5
11B
330
1F
100
AcDbEntity
  8
SLD-0
  6
SLD-DURCHGEHEND
 62
     7
100
AcDbLine
 10
148.8015009961
 20
165.4320043391
 30
0.0
 11
148.8015008265
 21
165.2313414195
 31
0.0
  0
LINE
  5
11C
330
1F
100
AcDbEntity
  8
SLD-0
  6
SLD-DURCHGEHEND
 62
     7
100
AcDbLine
 10
148.659032687
 20
165.4320043391
 30
0.0
 11
148.8015009961
 21
165.4320043391
 31
0.0
  0
LINE
  5
11D
330
1F
100
AcDbEntity
  8
SLD-0
  6
SLD-DURCHGEHEND
 62
     7
100
AcDbLine
 10
148.659032687
 20
164.271907962
 30
0.0
 11
148.659032687
 21
165.4320043391
 31
0.0
  0
LINE
  5
11E
330
1F
100
AcDbEntity
  8
SLD-0
  6
SLD-DURCHGEHEND
 62
     7
100
AcDbLine
 10
159.9507956648
 20
175.0804613447
 30
0.0
 11
159.9507956648
 21
139.0804609153
 31
0.0
  0
LINE
  5
11F
330
1F
100
AcDbEntity
  8
SLD-0
  6
SLD-DURCHGEHEND
 62
     7
100
AcDbLine
 10
147.4582319254
 20
165.4320043391
 30
0.0
 11
147.4582314262
 21
164.8863012083
 31
0.0
  0
LINE
  5
120
330
1F
100
AcDbEntity
  8
SLD-0
  6
SLD-DURCHGEHEND
 62
     7
100
AcDbLine
 10
147.3157637859
 20
165.4320043391
 30
0.0
 11
147.4582319254
 21
165.4320043391
 31
0.0
  0
LINE
  5
121
330
1F
100
AcDbEntity
  8
SLD-0
  6
SLD-DURCHGEHEND
 62
     7
100
AcDbLine
 10
147.3157637859
 20
164.8395546592
 30
0.0
 11
147.3157637859
 21
165.4320043391
 31
0.0
  0
LINE
  5
122
330
1F
100
AcDbEntity
  8
SLD-0
  6
SLD-DURCHGEHEND
 62
     7
100
AcDbLine
 10
148.1909241925
 20
164.2719087085
 30
0.0
 11
148.1909240423
 21
164.4811587257
 31
0.0
  0
LINE
  5
123
330
1F
100
AcDbEntity
  8
SLD-0
  6
SLD-DURCHGEHEND
 62
     7
100
AcDbLine
 10
148.8015008265
 20
164.4865647769
 30
0.0
 11
148.8015008265
 21
164.271907962
 31
0.0
  0
LINE
  5
124
330
1F
100
AcDbEntity
  8
SLD-0
  6
SLD-DURCHGEHEND
 62
     7
100
AcDbLine
 10
131.7007952653
 20
176.0804604209
 30
0.0
 11
158.9507952179
 21
176.0804616428
 31
0.0
  0
LINE
  5
125
330
1F
100
AcDbEntity
  8
SLD-0
  6
SLD-DURCHGEHEND
 62
     7
100
AcDbLine
 10
158.950795337
 20
138.0804610318
 30
0.0
 11
131.7007958288
 21
138.0804610318
 31
0.0
  0
LINE
  5
126
330
1F
100
AcDbEntity
  8
SLD-0
  6
SLD-DURCHGEHEND
 62
     7
100
AcDbLine
 10
146.114962093
 20
165.4320043391
 30
0.0
 11
146.1149621954
 21
164.8863012083
 31
0.0
  0
LINE
  5
127
330
1F
100
AcDbEntity
  8
SLD-0
  6
SLD-DURCHGEHEND
 62
     7
100
AcDbLine
 10
130.7007958288
 20
139.0804610318
 30
0.0
 11
130.7007958288
 21
175.0804610318
 31
0.0
  0
LINE
  5
128
330
1F
100
AcDbEntity
  8
SLD-0
  6
SLD-DURCHGEHEND
 62
     7
100
AcDbLine
 10
155.1569068068
 20
164.7400171539
 30
0.0
 11
154.2763404005
 21
164.7400171539
 31
0.0
  0
LINE
  5
129
330
1F
100
AcDbEntity
  8
SLD-0
  6
SLD-DURCHGEHEND
 62
     7
100
AcDbLine
 10
221.5449607587
 20
142.6750459588
 30
0.0
 11
221.5449607587
 21
142.3494048296
 31
0.0
  0
LINE
  5
12A
330
1F
100
AcDbEntity
  8
SLD-0
  6
SLD-DURCHGEHEND
 62
     7
100
AcDbLine
 10
223.4445333136
 20
142.6750459588
 30
0.0
 11
221.5449607587
 21
142.6750459588
 31
0.0
  0
LINE
  5
12B
330
1F
100
AcDbEntity
  8
SLD-0
  6
SLD-DURCHGEHEND
 62
     7
100
AcDbLine
 10
223.4445333136
 20
142.8650031677
 30
0.0
 11
223.4445333136
 21
142.6750459588
 31
0.0
  0
LINE
  5
12C
330
1F
100
AcDbEntity
  8
SLD-0
  6
SLD-DURCHGEHEND
 62
     7
100
AcDbLine
 10
221.3278666726
 20
142.8650031677
 30
0.0
 11
223.4445333136
 21
142.8650031677
 31
0.0
  0
LINE
  5
12D
330
1F
100
AcDbEntity
  8
SLD-0
  6
SLD-DURCHGEHEND
 62
     7
100
AcDbLine
 10
221.3278666726
 20
142.4736400015
 30
0.0
 11
221.3278666726
 21
142.8650031677
 31
0.0
  0
LINE
  5
12E
330
1F
100
AcDbEntity
  8
SLD-0
  6
SLD-DURCHGEHEND
 62
     7
100
AcDbLine
 10
221.5449607587
 20
142.3494048296
 30
0.0
 11
221.3278666726
 21
142.4736400015
 31
0.0
  0
LINE
  5
12F
330
1F
100
AcDbEntity
  8
SLD-0
  6
SLD-DURCHGEHEND
 62
     7
100
AcDbLine
 10
223.7159006884
 20
145.5040523662
 30
0.0
 11
223.6539949784
 21
145.3615842267
 31
0.0
  0
LINE
  5
130
330
1F
100
AcDbEntity
  8
SLD-0
  6
SLD-DURCHGEHEND
 62
     7
100
AcDbLine
 10
223.1587492982
 20
145.7957723989
 30
0.0
 11
223.7159006884
 21
145.5040523662
 31
0.0
  0
LINE
  5
131
330
1F
100
AcDbEntity
  8
SLD-0
  6
SLD-DURCHGEHEND
 62
     7
100
AcDbLine
 10
223.0646186629
 20
145.6015748783
 30
0.0
 11
223.1587492982
 21
145.7957723989
 31
0.0
  0
LINE
  5
132
330
1F
100
AcDbEntity
  8
SLD-0
  6
SLD-DURCHGEHEND
 62
     7
100
AcDbLine
 10
223.6539949784
 20
145.3615842267
 30
0.0
 11
223.0646186629
 21
145.6015748783
 31
0.0
  0
LINE
  5
133
330
1F
100
AcDbEntity
  8
SLD-0
  6
SLD-DURCHGEHEND
 62
     7
100
AcDbLine
 10
221.3885004288
 20
148.845688521
 30
0.0
 11
222.2437319203
 21
148.2864173053
 31
0.0
  0
LINE
  5
134
330
1F
100
AcDbEntity
  8
SLD-0
  6
SLD-DURCHGEHEND
 62
     7
100
AcDbLine
 10
221.2735929182
 20
148.6994047529
 30
0.0
 11
221.3885004288
 21
148.845688521
 31
0.0
  0
LINE
  5
135
330
1F
100
AcDbEntity
  8
SLD-0
  6
SLD-DURCHGEHEND
 62
     7
100
AcDbLine
 10
222.2394918028
 20
148.0676272412
 30
0.0
 11
221.2735929182
 21
148.6994047529
 31
0.0
  0
LINE
  5
136
330
1F
100
AcDbEntity
  8
SLD-0
  6
SLD-DURCHGEHEND
 62
     7
100
AcDbLine
 10
223.4445333136
 20
152.4171401626
 30
0.0
 11
223.4445333136
 21
152.2271829537
 31
0.0
  0
LINE
  5
137
330
1F
100
AcDbEntity
  8
SLD-0
  6
SLD-DURCHGEHEND
 62
     7
100
AcDbLine
 10
222.7936752727
 20
152.4171401626
 30
0.0
 11
223.4445333136
 21
152.4171401626
 31
0.0
  0
LINE
  5
138
330
1F
100
AcDbEntity
  8
SLD-0
  6
SLD-DURCHGEHEND
 62
     7
100
AcDbLine
 10
223.4445334235
 20
153.2855159437
 30
0.0
 11
222.657991512
 21
153.285516231
 31
0.0
  0
LINE
  5
139
330
1F
100
AcDbEntity
  8
SLD-0
  6
SLD-DURCHGEHEND
 62
     7
100
AcDbLine
 10
223.4445334235
 20
153.4754731527
 30
0.0
 11
223.4445334235
 21
153.2855159437
 31
0.0
  0
LINE
  5
13A
330
1F
100
AcDbEntity
  8
SLD-0
  6
SLD-DURCHGEHEND
 62
     7
100
AcDbLine
 10
222.8428606233
 20
153.4754731527
 30
0.0
 11
223.4445334235
 21
153.4754731527
 31
0.0
  0
LINE
  5
13B
330
1F
100
AcDbEntity
  8
SLD-0
  6
SLD-DURCHGEHEND
 62
     7
100
AcDbLine
 10
223.4445334108
 20
154.3438492211
 30
0.0
 11
222.6058380538
 21
154.3438492211
 31
0.0
  0
LINE
  5
13C
330
1F
100
AcDbEntity
  8
SLD-0
  6
SLD-DURCHGEHEND
 62
     7
100
AcDbLine
 10
223.4445334108
 20
154.5338064613
 30
0.0
 11
223.4445334108
 21
154.3438492211
 31
0.0
  0
LINE
  5
13D
330
1F
100
AcDbEntity
  8
SLD-0
  6
SLD-DURCHGEHEND
 62
     7
100
AcDbLine
 10
222.6066859802
 20
154.5338064613
 30
0.0
 11
223.4445334108
 21
154.5338064613
 31
0.0
  0
LINE
  5
13E
330
1F
100
AcDbEntity
  8
SLD-0
  6
SLD-DURCHGEHEND
 62
     7
100
AcDbLine
 10
221.8977382993
 20
152.4171401626
 30
0.0
 11
222.1665617814
 21
152.4171397946
 31
0.0
  0
LINE
  5
13F
330
1F
100
AcDbEntity
  8
SLD-0
  6
SLD-DURCHGEHEND
 62
     7
100
AcDbLine
 10
221.8977382993
 20
152.2271829537
 30
0.0
 11
221.8977382993
 21
152.4171401626
 31
0.0
  0
LINE
  5
140
330
1F
100
AcDbEntity
  8
SLD-0
  6
SLD-DURCHGEHEND
 62
     7
100
AcDbLine
 10
223.4445333136
 20
152.2271829537
 30
0.0
 11
221.8977382993
 21
152.2271829537
 31
0.0
  0
LINE
  5
141
330
1F
100
AcDbEntity
  8
SLD-0
  6
SLD-DURCHGEHEND
 62
     7
100
AcDbLine
 10
197.0063944003
 20
175.0804615087
 30
0.0
 11
197.0063944003
 21
139.0804610793
 31
0.0
  0
LINE
  5
142
330
1F
100
AcDbEntity
  8
SLD-0
  6
SLD-DURCHGEHEND
 62
     7
100
AcDbLine
 10
225.2563941889
 20
176.0804596459
 30
0.0
 11
198.0063942363
 21
176.0804608679
 31
0.0
  0
LINE
  5
143
330
1F
100
AcDbEntity
  8
SLD-0
  6
SLD-DURCHGEHEND
 62
     7
100
AcDbLine
 10
226.2563942363
 20
139.0804612433
 30
0.0
 11
226.2563942363
 21
175.0804611958
 31
0.0
  0
LINE
  5
144
330
1F
100
AcDbEntity
  8
SLD-0
  6
SLD-DURCHGEHEND
 62
     7
100
AcDbLine
 10
198.0063947281
 20
138.0804611958
 30
0.0
 11
225.2563942363
 21
138.0804611958
 31
0.0
  0
LINE
  5
145
330
1F
100
AcDbEntity
  8
SLD-0
  6
SLD-DURCHGEHEND
 62
     7
100
AcDbLine
 10
223.4445333136
 20
149.6763276747
 30
0.0
 11
223.4445333136
 21
149.4863704658
 31
0.0
  0
LINE
  5
146
330
1F
100
AcDbEntity
  8
SLD-0
  6
SLD-DURCHGEHEND
 62
     7
100
AcDbLine
 10
222.7936752727
 20
149.6763276747
 30
0.0
 11
223.4445333136
 21
149.6763276747
 31
0.0
  0
LINE
  5
147
330
1F
100
AcDbEntity
  8
SLD-0
  6
SLD-DURCHGEHEND
 62
     7
100
AcDbLine
 10
223.4445334235
 20
150.5447038651
 30
0.0
 11
222.657991512
 21
150.5447037431
 31
0.0
  0
LINE
  5
148
330
1F
100
AcDbEntity
  8
SLD-0
  6
SLD-DURCHGEHEND
 62
     7
100
AcDbLine
 10
223.4445334235
 20
150.734661074
 30
0.0
 11
223.4445334235
 21
150.5447038651
 31
0.0
  0
LINE
  5
149
330
1F
100
AcDbEntity
  8
SLD-0
  6
SLD-DURCHGEHEND
 62
     7
100
AcDbLine
 10
222.8428606233
 20
150.734661074
 30
0.0
 11
223.4445334235
 21
150.734661074
 31
0.0
  0
LINE
  5
14A
330
1F
100
AcDbEntity
  8
SLD-0
  6
SLD-DURCHGEHEND
 62
     7
100
AcDbLine
 10
223.4445334108
 20
151.6030374843
 30
0.0
 11
222.6058380538
 21
151.6030371424
 31
0.0
  0
LINE
  5
14B
330
1F
100
AcDbEntity
  8
SLD-0
  6
SLD-DURCHGEHEND
 62
     7
100
AcDbLine
 10
223.4445334108
 20
151.7929944955
 30
0.0
 11
223.4445334108
 21
151.6030374843
 31
0.0
  0
LINE
  5
14C
330
1F
100
AcDbEntity
  8
SLD-0
  6
SLD-DURCHGEHEND
 62
     7
100
AcDbLine
 10
222.6066859802
 20
151.7929944955
 30
0.0
 11
223.4445334108
 21
151.7929944955
 31
0.0
  0
LINE
  5
14D
330
1F
100
AcDbEntity
  8
SLD-0
  6
SLD-DURCHGEHEND
 62
     7
100
AcDbLine
 10
221.8977382993
 20
149.6763276747
 30
0.0
 11
222.1665617814
 21
149.6763278288
 31
0.0
  0
LINE
  5
14E
330
1F
100
AcDbEntity
  8
SLD-0
  6
SLD-DURCHGEHEND
 62
     7
100
AcDbLine
 10
221.8977382993
 20
149.4863704658
 30
0.0
 11
221.8977382993
 21
149.6763276747
 31
0.0
  0
LINE
  5
14F
330
1F
100
AcDbEntity
  8
SLD-0
  6
SLD-DURCHGEHEND
 62
     7
100
AcDbLine
 10
223.4445333136
 20
149.4863704658
 30
0.0
 11
221.8977382993
 21
149.4863704658
 31
0.0
  0
LINE
  5
150
330
1F
100
AcDbEntity
  8
SLD-0
  6
SLD-DURCHGEHEND
 62
     7
100
AcDbLine
 10
221.5449607587
 20
147.211123339
 30
0.0
 11
221.5449607587
 21
146.2299601055
 31
0.0
  0
LINE
  5
151
330
1F
100
AcDbEntity
  8
SLD-0
  6
SLD-DURCHGEHEND
 62
     7
100
AcDbLine
 10
223.4084922942
 20
146.255824796
 30
0.0
 11
221.5449607587
 21
147.211123339
 31
0.0
  0
LINE
  5
152
330
1F
100
AcDbEntity
  8
SLD-0
  6
SLD-DURCHGEHEND
 62
     7
100
AcDbLine
 10
223.4988066023
 20
146.4199173144
 30
0.0
 11
223.4084922942
 21
146.255824796
 31
0.0
  0
LINE
  5
153
330
1F
100
AcDbEntity
  8
SLD-0
  6
SLD-DURCHGEHEND
 62
     7
100
AcDbLine
 10
221.3278666726
 20
147.5325246221
 30
0.0
 11
223.4988066023
 21
146.4199173144
 31
0.0
  0
LINE
  5
154
330
1F
100
AcDbEntity
  8
SLD-0
  6
SLD-DURCHGEHEND
 62
     7
100
AcDbLine
 10
221.3278666726
 20
146.2299601055
 30
0.0
 11
221.3278666726
 21
147.5325246221
 31
0.0
  0
LINE
  5
155
330
1F
100
AcDbEntity
  8
SLD-0
  6
SLD-DURCHGEHEND
 62
     7
100
AcDbLine
 10
221.5449607587
 20
146.2299601055
 30
0.0
 11
221.3278666726
 21
146.2299601055
 31
0.0
  0
LINE
  5
156
330
1F
100
AcDbEntity
  8
SLD-0
  6
SLD-DURCHGEHEND
 62
     7
100
AcDbLine
 10
88.6272667314
 20
79.6767566396
 30
0.0
 11
91.7472667398
 21
79.6767566396
 31
0.0
  0
LINE
  5
157
330
1F
100
AcDbEntity
  8
SLD-0
  6
SLD-DURCHGEHEND
 62
     7
100
AcDbLine
 10
88.6272667314
 20
80.6767568035
 30
0.0
 11
91.7472667398
 21
80.6767568035
 31
0.0
  0
LINE
  5
158
330
1F
100
AcDbEntity
  8
SLD-0
  6
SLD-DURCHGEHEND
 62
     7
100
AcDbLine
 10
88.6272667314
 20
79.6767566396
 30
0.0
 11
88.6272667314
 21
80.6767568035
 31
0.0
  0
LINE
  5
159
330
1F
100
AcDbEntity
  8
SLD-0
  6
SLD-DURCHGEHEND
 62
     7
100
AcDbLine
 10
91.7472667398
 20
79.6767566396
 30
0.0
 11
91.7472667398
 21
80.6767568035
 31
0.0
  0
LINE
  5
15A
330
1F
100
AcDbEntity
  8
SLD-0
  6
SLD-DURCHGEHEND
 62
     7
100
AcDbLine
 10
88.6272667314
 20
107.9267562642
 30
0.0
 11
91.7472667398
 21
107.9267562642
 31
0.0
  0
LINE
  5
15B
330
1F
100
AcDbEntity
  8
SLD-0
  6
SLD-DURCHGEHEND
 62
     7
100
AcDbLine
 10
88.6272667314
 20
80.6767568035
 30
0.0
 11
88.6272667314
 21
107.9267562642
 31
0.0
  0
LINE
  5
15C
330
1F
100
AcDbEntity
  8
SLD-0
  6
SLD-DURCHGEHEND
 62
     7
100
AcDbLine
 10
91.7472667398
 20
80.6767568035
 30
0.0
 11
91.7472667398
 21
107.9267562642
 31
0.0
  0
LINE
  5
15D
330
1F
100
AcDbEntity
  8
SLD-0
  6
SLD-DURCHGEHEND
 62
     7
100
AcDbLine
 10
88.6272667314
 20
108.9267563117
 30
0.0
 11
91.7472667398
 21
108.9267563117
 31
0.0
  0
LINE
  5
15E
330
1F
100
AcDbEntity
  8
SLD-0
  6
SLD-DURCHGEHEND
 62
     7
100
AcDbLine
 10
88.6272667314
 20
107.9267562642
 30
0.0
 11
88.6272667314
 21
108.9267563117
 31
0.0
  0
LINE
  5
15F
330
1F
100
AcDbEntity
  8
SLD-0
  6
SLD-DURCHGEHEND
 62
     7
100
AcDbLine
 10
91.7472667398
 20
107.9267562642
 30
0.0
 11
91.7472667398
 21
108.9267563117
 31
0.0
  0
LINE
  5
160
330
1F
100
AcDbEntity
  8
SLD-0
  6
SLD-DURCHGEHEND
 62
     7
100
AcDbLine
 10
95.7472669298
 20
100.8017566098
 30
0.0
 11
91.7472667398
 21
100.8017566098
 31
0.0
  0
LINE
  5
161
330
1F
100
AcDbEntity
  8
SLD-0
  6
SLD-DURCHGEHEND
 62
     7
100
AcDbLine
 10
91.7472667398
 20
101.801756308
 30
0.0
 11
95.7472669298
 21
101.801756308
 31
0.0
  0
LINE
  5
162
330
1F
100
AcDbEntity
  8
SLD-0
  6
SLD-DURCHGEHEND
 62
     7
100
AcDbLine
 10
95.7472669298
 20
101.801756308
 30
0.0
 11
95.7472669298
 21
100.8017566098
 31
0.0
  0
LINE
  5
163
330
1F
100
AcDbEntity
  8
SLD-0
  6
SLD-DURCHGEHEND
 62
     7
100
AcDbLine
 10
91.7472667398
 20
87.8017563415
 30
0.0
 11
95.7472669298
 21
87.8017563415
 31
0.0
  0
LINE
  5
164
330
1F
100
AcDbEntity
  8
SLD-0
  6
SLD-DURCHGEHEND
 62
     7
100
AcDbLine
 10
95.7472669298
 20
100.8017566098
 30
0.0
 11
95.7472669298
 21
87.8017563415
 31
0.0
  0
LINE
  5
165
330
1F
100
AcDbEntity
  8
SLD-0
  6
SLD-DURCHGEHEND
 62
     7
100
AcDbLine
 10
95.7472669298
 20
86.8017561776
 30
0.0
 11
91.7472667398
 21
86.8017561776
 31
0.0
  0
LINE
  5
166
330
1F
100
AcDbEntity
  8
SLD-0
  6
SLD-DURCHGEHEND
 62
     7
100
AcDbLine
 10
95.7472669298
 20
87.8017563415
 30
0.0
 11
95.7472669298
 21
86.8017561776
 31
0.0
  0
LINE
  5
167
330
1F
100
AcDbEntity
  8
SLD-0
  6
SLD-DURCHGEHEND
 62
     7
100
AcDbLine
 10
95.7472669298
 20
106.3267563047
 30
0.0
 11
91.7472667398
 21
106.3267563047
 31
0.0
  0
LINE
  5
168
330
1F
100
AcDbEntity
  8
SLD-0
  6
SLD-DURCHGEHEND
 62
     7
100
AcDbLine
 10
95.7472669298
 20
106.3267563047
 30
0.0
 11
95.7472669298
 21
101.801756308
 31
0.0
  0
LINE
  5
169
330
1F
100
AcDbEntity
  8
SLD-0
  6
SLD-DURCHGEHEND
 62
     7
100
AcDbLine
 10
91.7472667398
 20
107.3267563522
 30
0.0
 11
95.7472669298
 21
107.3267563522
 31
0.0
  0
LINE
  5
16A
330
1F
100
AcDbEntity
  8
SLD-0
  6
SLD-DURCHGEHEND
 62
     7
100
AcDbLine
 10
95.7472669298
 20
107.3267563522
 30
0.0
 11
95.7472669298
 21
106.3267563047
 31
0.0
  0
LINE
  5
16B
330
1F
100
AcDbEntity
  8
SLD-0
  6
SLD-DURCHGEHEND
 62
     7
100
AcDbLine
 10
127.2541822258
 20
108.9267563117
 30
0.0
 11
124.1341822173
 21
108.9267563117
 31
0.0
  0
LINE
  5
16C
330
1F
100
AcDbEntity
  8
SLD-0
  6
SLD-DURCHGEHEND
 62
     7
100
AcDbLine
 10
127.2541822258
 20
107.9267562642
 30
0.0
 11
124.1341822173
 21
107.9267562642
 31
0.0
  0
LINE
  5
16D
330
1F
100
AcDbEntity
  8
SLD-0
  6
SLD-DURCHGEHEND
 62
     7
100
AcDbLine
 10
127.2541822258
 20
108.9267563117
 30
0.0
 11
127.2541822258
 21
107.9267562642
 31
0.0
  0
LINE
  5
16E
330
1F
100
AcDbEntity
  8
SLD-0
  6
SLD-DURCHGEHEND
 62
     7
100
AcDbLine
 10
124.1341822173
 20
108.9267563117
 30
0.0
 11
124.1341822173
 21
107.9267562642
 31
0.0
  0
LINE
  5
16F
330
1F
100
AcDbEntity
  8
SLD-0
  6
SLD-DURCHGEHEND
 62
     7
100
AcDbLine
 10
127.2541822258
 20
80.6767568035
 30
0.0
 11
124.1341822173
 21
80.6767568035
 31
0.0
  0
LINE
  5
170
330
1F
100
AcDbEntity
  8
SLD-0
  6
SLD-DURCHGEHEND
 62
     7
100
AcDbLine
 10
127.2541822258
 20
107.9267562642
 30
0.0
 11
127.2541822258
 21
80.6767568035
 31
0.0
  0
LINE
  5
171
330
1F
100
AcDbEntity
  8
SLD-0
  6
SLD-DURCHGEHEND
 62
     7
100
AcDbLine
 10
124.1341822173
 20
107.9267562642
 30
0.0
 11
124.1341822173
 21
80.6767568035
 31
0.0
  0
LINE
  5
172
330
1F
100
AcDbEntity
  8
SLD-0
  6
SLD-DURCHGEHEND
 62
     7
100
AcDbLine
 10
127.2541822258
 20
79.6767566396
 30
0.0
 11
124.1341822173
 21
79.6767566396
 31
0.0
  0
LINE
  5
173
330
1F
100
AcDbEntity
  8
SLD-0
  6
SLD-DURCHGEHEND
 62
     7
100
AcDbLine
 10
127.2541822258
 20
80.6767568035
 30
0.0
 11
127.2541822258
 21
79.6767566396
 31
0.0
  0
LINE
  5
174
330
1F
100
AcDbEntity
  8
SLD-0
  6
SLD-DURCHGEHEND
 62
     7
100
AcDbLine
 10
124.1341822173
 20
80.6767568035
 30
0.0
 11
124.1341822173
 21
79.6767566396
 31
0.0
  0
LINE
  5
175
330
1F
100
AcDbEntity
  8
SLD-0
  6
SLD-DURCHGEHEND
 62
     7
100
AcDbLine
 10
120.1341820274
 20
101.801756308
 30
0.0
 11
124.1341822173
 21
101.801756308
 31
0.0
  0
LINE
  5
176
330
1F
100
AcDbEntity
  8
SLD-0
  6
SLD-DURCHGEHEND
 62
     7
100
AcDbLine
 10
124.1341822173
 20
100.8017566098
 30
0.0
 11
120.1341820274
 21
100.8017566098
 31
0.0
  0
LINE
  5
177
330
1F
100
AcDbEntity
  8
SLD-0
  6
SLD-DURCHGEHEND
 62
     7
100
AcDbLine
 10
120.1341820274
 20
100.8017566098
 30
0.0
 11
120.1341820274
 21
101.801756308
 31
0.0
  0
LINE
  5
178
330
1F
100
AcDbEntity
  8
SLD-0
  6
SLD-DURCHGEHEND
 62
     7
100
AcDbLine
 10
120.1341820274
 20
87.8017563415
 30
0.0
 11
124.1341822173
 21
87.8017563415
 31
0.0
  0
LINE
  5
179
330
1F
100
AcDbEntity
  8
SLD-0
  6
SLD-DURCHGEHEND
 62
     7
100
AcDbLine
 10
124.1341822173
 20
86.8017561776
 30
0.0
 11
120.1341820274
 21
86.8017561776
 31
0.0
  0
LINE
  5
17A
330
1F
100
AcDbEntity
  8
SLD-0
  6
SLD-DURCHGEHEND
 62
     7
100
AcDbLine
 10
120.1341820274
 20
86.8017561776
 30
0.0
 11
120.1341820274
 21
87.8017563415
 31
0.0
  0
LINE
  5
17B
330
1F
100
AcDbEntity
  8
SLD-0
  6
SLD-DURCHGEHEND
 62
     7
100
AcDbLine
 10
120.1341820274
 20
87.8017563415
 30
0.0
 11
120.1341820274
 21
100.8017566098
 31
0.0
  0
LINE
  5
17C
330
1F
100
AcDbEntity
  8
SLD-0
  6
SLD-DURCHGEHEND
 62
     7
100
AcDbLine
 10
120.1341820274
 20
107.3267563522
 30
0.0
 11
124.1341822173
 21
107.3267563522
 31
0.0
  0
LINE
  5
17D
330
1F
100
AcDbEntity
  8
SLD-0
  6
SLD-DURCHGEHEND
 62
     7
100
AcDbLine
 10
124.1341822173
 20
106.3267563047
 30
0.0
 11
120.1341820274
 21
106.3267563047
 31
0.0
  0
LINE
  5
17E
330
1F
100
AcDbEntity
  8
SLD-0
  6
SLD-DURCHGEHEND
 62
     7
100
AcDbLine
 10
120.1341820274
 20
106.3267563047
 30
0.0
 11
120.1341820274
 21
107.3267563522
 31
0.0
  0
LINE
  5
17F
330
1F
100
AcDbEntity
  8
SLD-0
  6
SLD-DURCHGEHEND
 62
     7
100
AcDbLine
 10
120.1341820274
 20
101.801756308
 30
0.0
 11
120.1341820274
 21
106.3267563047
 31
0.0
  0
LINE
  5
180
330
1F
100
AcDbEntity
  8
SLD-0
  6
SLD-DURCHGEHEND
 62
     7
100
AcDbLine
 10
205.5952027063
 20
81.8475020392
 30
0.0
 11
209.132875361
 21
80.8860384148
 31
0.0
  0
LINE
  5
181
330
1F
100
AcDbEntity
  8
SLD-0
  6
SLD-DURCHGEHEND
 62
     7
100
AcDbLine
 10
215.7244456011
 20
93.6235006785
 30
0.0
 11
212.1867729464
 21
94.5849643029
 31
0.0
  0
LINE
  5
182
330
1F
100
AcDbEntity
  8
SLD-0
  6
SLD-DURCHGEHEND
 62
     7
100
AcDbLine
 10
204.2430192714
 20
65.4162375481
 30
0.0
 11
204.3832797615
 21
65.3781177524
 31
0.0
  0
LINE
  5
183
330
1F
100
AcDbEntity
  8
SLD-0
  6
SLD-DURCHGEHEND
 62
     7
100
AcDbLine
 10
204.6332704457
 20
66.2782943646
 30
0.0
 11
204.4842713439
 21
66.3187891278
 31
0.0
  0
LINE
  5
184
330
1F
100
AcDbEntity
  8
SLD-0
  6
SLD-DURCHGEHEND
 62
     7
100
AcDbLine
 10
205.115758088
 20
66.2894477171
 30
0.0
 11
205.2640596499
 21
66.2491425303
 31
0.0
  0
LINE
  5
185
330
1F
100
AcDbEntity
  8
SLD-0
  6
SLD-DURCHGEHEND
 62
     7
100
AcDbLine
 10
205.5127646573
 20
67.1403654845
 30
0.0
 11
205.3666053032
 21
67.1800884651
 31
0.0
  0
LINE
  5
186
330
1F
100
AcDbEntity
  8
SLD-0
  6
SLD-DURCHGEHEND
 62
     7
100
AcDbLine
 10
199.5106137286
 20
54.9226732885
 30
0.0
 11
202.2699982757
 21
54.1727316951
 31
0.0
  0
LINE
  5
187
330
1F
100
AcDbEntity
  8
SLD-0
  6
SLD-DURCHGEHEND
 62
     7
100
AcDbLine
 10
206.1399524017
 20
67.7807094937
 30
0.0
 11
206.0221763416
 21
67.8127185032
 31
0.0
  0
LINE
  5
188
330
1F
100
AcDbEntity
  8
SLD-0
  6
SLD-DURCHGEHEND
 62
     7
100
AcDbLine
 10
206.51272044
 20
68.1437122956
 30
0.0
 11
206.3944184997
 21
68.175864228
 31
0.0
  0
LINE
  5
189
330
1F
100
AcDbEntity
  8
SLD-0
  6
SLD-DURCHGEHEND
 62
     7
100
AcDbLine
 10
215.5119776214
 20
99.3733671567
 30
0.0
 11
212.7525930743
 21
100.1233087502
 31
0.0
  0
LINE
  5
18A
330
1F
100
AcDbEntity
  8
SLD-0
  6
SLD-DURCHGEHEND
 62
     7
100
AcDbLine
 10
206.7779869441
 20
67.9118340386
 30
0.0
 11
206.926288506
 21
67.8715288518
 31
0.0
  0
LINE
  5
18B
330
1F
100
AcDbEntity
  8
SLD-0
  6
SLD-DURCHGEHEND
 62
     7
100
AcDbLine
 10
207.1749926442
 20
68.7627509576
 30
0.0
 11
207.02883329
 21
68.8024739382
 31
0.0
  0
LINE
  5
18C
330
1F
100
AcDbEntity
  8
SLD-0
  6
SLD-DURCHGEHEND
 62
     7
100
AcDbLine
 10
205.5952027063
 20
58.9611348716
 30
0.0
 11
209.132875361
 21
57.9996712472
 31
0.0
  0
LINE
  5
18D
330
1F
100
AcDbEntity
  8
SLD-0
  6
SLD-DURCHGEHEND
 62
     7
100
AcDbLine
 10
207.835343722
 20
69.4312164449
 30
0.0
 11
207.7165728512
 21
69.4634958226
 31
0.0
  0
LINE
  5
18E
330
1F
100
AcDbEntity
  8
SLD-0
  6
SLD-DURCHGEHEND
 62
     7
100
AcDbLine
 10
210.5071713715
 20
75.0699751803
 30
0.0
 11
214.0448440262
 21
74.1085115558
 31
0.0
  0
LINE
  5
18F
330
1F
100
AcDbEntity
  8
SLD-0
  6
SLD-DURCHGEHEND
 62
     7
100
AcDbLine
 10
208.4622411243
 20
70.0430875279
 30
0.0
 11
208.3434702535
 21
70.0753669056
 31
0.0
  0
LINE
  5
190
330
1F
100
AcDbEntity
  8
SLD-0
  6
SLD-DURCHGEHEND
 62
     7
100
AcDbLine
 10
218.3029376999
 20
84.8255795067
 30
0.0
 11
214.7652650452
 21
85.7870431311
 31
0.0
  0
LINE
  5
191
330
1F
100
AcDbEntity
  8
SLD-0
  6
SLD-DURCHGEHEND
 62
     7
100
AcDbLine
 10
215.7244456011
 20
70.7371341096
 30
0.0
 11
212.1867729464
 21
71.698597734
 31
0.0
  0
LINE
  5
192
330
1F
100
AcDbEntity
  8
SLD-0
  6
SLD-DURCHGEHEND
 62
     7
100
AcDbLine
 10
203.8399530903
 20
65.3473468319
 30
0.0
 11
203.8399530903
 21
64.6844151796
 31
0.0
  0
LINE
  5
193
330
1F
100
AcDbEntity
  8
SLD-0
  6
SLD-DURCHGEHEND
 62
     7
100
AcDbLine
 10
204.1344043736
 20
65.6347403113
 30
0.0
 11
203.8399530903
 21
65.3473468319
 31
0.0
  0
LINE
  5
194
330
1F
100
AcDbEntity
  8
SLD-0
  6
SLD-DURCHGEHEND
 62
     7
100
AcDbLine
 10
204.1344043736
 20
65.7743037772
 30
0.0
 11
204.1344043736
 21
65.6347403113
 31
0.0
  0
LINE
  5
195
330
1F
100
AcDbEntity
  8
SLD-0
  6
SLD-DURCHGEHEND
 62
     7
100
AcDbLine
 10
203.8399530903
 20
65.4869102979
 30
0.0
 11
204.1344043736
 21
65.7743037772
 31
0.0
  0
LINE
  5
196
330
1F
100
AcDbEntity
  8
SLD-0
  6
SLD-DURCHGEHEND
 62
     7
100
AcDbLine
 10
203.8399530903
 20
65.905603889
 30
0.0
 11
203.8399530903
 21
65.4869102979
 31
0.0
  0
LINE
  5
197
330
1F
100
AcDbEntity
  8
SLD-0
  6
SLD-DURCHGEHEND
 62
     7
100
AcDbLine
 10
204.1344043736
 20
66.1929973683
 30
0.0
 11
203.8399530903
 21
65.905603889
 31
0.0
  0
LINE
  5
198
330
1F
100
AcDbEntity
  8
SLD-0
  6
SLD-DURCHGEHEND
 62
     7
100
AcDbLine
 10
204.1344043736
 20
66.3325624309
 30
0.0
 11
204.1344043736
 21
66.1929973683
 31
0.0
  0
LINE
  5
199
330
1F
100
AcDbEntity
  8
SLD-0
  6
SLD-DURCHGEHEND
 62
     7
100
AcDbLine
 10
203.7734638665
 20
65.9802734308
 30
0.0
 11
204.1344043736
 21
66.3325624309
 31
0.0
  0
LINE
  5
19A
330
1F
100
AcDbEntity
  8
SLD-0
  6
SLD-DURCHGEHEND
 62
     7
100
AcDbLine
 10
203.7734638665
 20
64.6195196589
 30
0.0
 11
203.7734638665
 21
65.9802734308
 31
0.0
  0
LINE
  5
19B
330
1F
100
AcDbEntity
  8
SLD-0
  6
SLD-DURCHGEHEND
 62
     7
100
AcDbLine
 10
203.8399530903
 20
64.6844151796
 30
0.0
 11
203.7734638665
 21
64.6195196589
 31
0.0
  0
LINE
  5
19C
330
1F
100
AcDbEntity
  8
SLD-0
  6
SLD-DURCHGEHEND
 62
     7
100
AcDbLine
 10
204.9702681561
 20
67.1832815746
 30
0.0
 11
204.9702681561
 21
65.7876373353
 31
0.0
  0
LINE
  5
19D
330
1F
100
AcDbEntity
  8
SLD-0
  6
SLD-DURCHGEHEND
 62
     7
100
AcDbLine
 10
204.9037789323
 20
67.1183860538
 30
0.0
 11
204.9702681561
 21
67.1832815746
 31
0.0
  0
LINE
  5
19E
330
1F
100
AcDbEntity
  8
SLD-0
  6
SLD-DURCHGEHEND
 62
     7
100
AcDbLine
 10
204.9037789323
 20
65.7227418146
 30
0.0
 11
204.9037789323
 21
67.1183860538
 31
0.0
  0
LINE
  5
19F
330
1F
100
AcDbEntity
  8
SLD-0
  6
SLD-DURCHGEHEND
 62
     7
100
AcDbLine
 10
204.9702681561
 20
65.7876373353
 30
0.0
 11
204.9037789323
 21
65.7227418146
 31
0.0
  0
LINE
  5
1A0
330
1F
100
AcDbEntity
  8
SLD-0
  6
SLD-DURCHGEHEND
 62
     7
100
AcDbLine
 10
205.891617711
 20
67.1053233188
 30
0.0
 11
205.891617711
 21
66.6869027461
 31
0.0
  0
LINE
  5
1A1
330
1F
100
AcDbEntity
  8
SLD-0
  6
SLD-DURCHGEHEND
 62
     7
100
AcDbLine
 10
206.1955680412
 20
66.9835674566
 30
0.0
 11
206.1955680412
 21
67.4892159213
 31
0.0
  0
LINE
  5
1A2
330
1F
100
AcDbEntity
  8
SLD-0
  6
SLD-DURCHGEHEND
 62
     7
100
AcDbLine
 10
206.2620572649
 20
67.0484629773
 30
0.0
 11
206.1955680412
 21
66.9835674566
 31
0.0
  0
LINE
  5
1A3
330
1F
100
AcDbEntity
  8
SLD-0
  6
SLD-DURCHGEHEND
 62
     7
100
AcDbLine
 10
206.2620572649
 20
67.4352629165
 30
0.0
 11
206.2620572649
 21
67.0484629773
 31
0.0
  0
LINE
  5
1A4
330
1F
100
AcDbEntity
  8
SLD-0
  6
SLD-DURCHGEHEND
 62
     7
100
AcDbLine
 10
206.5660073197
 20
67.3451268752
 30
0.0
 11
206.5660075952
 21
67.8843037539
 31
0.0
  0
LINE
  5
1A5
330
1F
100
AcDbEntity
  8
SLD-0
  6
SLD-DURCHGEHEND
 62
     7
100
AcDbLine
 10
206.6324965434
 20
67.4100223959
 30
0.0
 11
206.5660073197
 21
67.3451268752
 31
0.0
  0
LINE
  5
1A6
330
1F
100
AcDbEntity
  8
SLD-0
  6
SLD-DURCHGEHEND
 62
     7
100
AcDbLine
 10
206.6324963293
 20
67.9486544267
 30
0.0
 11
206.6324965434
 21
67.4100223959
 31
0.0
  0
LINE
  5
1A7
330
1F
100
AcDbEntity
  8
SLD-0
  6
SLD-DURCHGEHEND
 62
     7
100
AcDbLine
 10
205.891617711
 20
67.6812994262
 30
0.0
 11
205.8916173994
 21
67.5084789319
 31
0.0
  0
LINE
  5
1A8
330
1F
100
AcDbEntity
  8
SLD-0
  6
SLD-DURCHGEHEND
 62
     7
100
AcDbLine
 10
205.8251284872
 20
67.6164039055
 30
0.0
 11
205.891617711
 21
67.6812994262
 31
0.0
  0
LINE
  5
1A9
330
1F
100
AcDbEntity
  8
SLD-0
  6
SLD-DURCHGEHEND
 62
     7
100
AcDbLine
 10
205.8251284872
 20
66.6220072253
 30
0.0
 11
205.8251284872
 21
67.6164039055
 31
0.0
  0
LINE
  5
1AA
330
1F
100
AcDbEntity
  8
SLD-0
  6
SLD-DURCHGEHEND
 62
     7
100
AcDbLine
 10
205.891617711
 20
66.6869027461
 30
0.0
 11
205.8251284872
 21
66.6220072253
 31
0.0
  0
LINE
  5
1AB
330
1F
100
AcDbEntity
  8
SLD-0
  6
SLD-DURCHGEHEND
 62
     7
100
AcDbLine
 10
207.5538456978
 20
68.6688294319
 30
0.0
 11
207.5538456978
 21
68.3092882192
 31
0.0
  0
LINE
  5
1AC
330
1F
100
AcDbEntity
  8
SLD-0
  6
SLD-DURCHGEHEND
 62
     7
100
AcDbLine
 10
207.8957895863
 20
68.6430352127
 30
0.0
 11
207.8957898193
 21
69.1107943197
 31
0.0
  0
LINE
  5
1AD
330
1F
100
AcDbEntity
  8
SLD-0
  6
SLD-DURCHGEHEND
 62
     7
100
AcDbLine
 10
207.9622788101
 20
68.7079307335
 30
0.0
 11
207.8957895863
 21
68.6430352127
 31
0.0
  0
LINE
  5
1AE
330
1F
100
AcDbEntity
  8
SLD-0
  6
SLD-DURCHGEHEND
 62
     7
100
AcDbLine
 10
207.962278954
 20
69.2157607996
 30
0.0
 11
207.9622788101
 21
68.7079307335
 31
0.0
  0
LINE
  5
1AF
330
1F
100
AcDbEntity
  8
SLD-0
  6
SLD-DURCHGEHEND
 62
     7
100
AcDbLine
 10
207.5538456978
 20
69.3036848993
 30
0.0
 11
207.5538456978
 21
69.1243226953
 31
0.0
  0
LINE
  5
1B0
330
1F
100
AcDbEntity
  8
SLD-0
  6
SLD-DURCHGEHEND
 62
     7
100
AcDbLine
 10
207.487356474
 20
69.2387893786
 30
0.0
 11
207.5538456978
 21
69.3036848993
 31
0.0
  0
LINE
  5
1B1
330
1F
100
AcDbEntity
  8
SLD-0
  6
SLD-DURCHGEHEND
 62
     7
100
AcDbLine
 10
207.487356474
 20
68.2443926984
 30
0.0
 11
207.487356474
 21
69.2387893786
 31
0.0
  0
LINE
  5
1B2
330
1F
100
AcDbEntity
  8
SLD-0
  6
SLD-DURCHGEHEND
 62
     7
100
AcDbLine
 10
207.5538456978
 20
68.3092882192
 30
0.0
 11
207.487356474
 21
68.2443926984
 31
0.0
  0
LINE
  5
1B3
330
1F
100
AcDbEntity
  8
SLD-0
  6
SLD-DURCHGEHEND
 62
     7
100
AcDbLine
 10
205.3907722703
 20
87.2428424322
 30
0.0
 11
205.3907722703
 21
82.3569883367
 31
0.0
  0
LINE
  5
1B4
330
1F
100
AcDbEntity
  8
SLD-0
  6
SLD-DURCHGEHEND
 62
     7
100
AcDbLine
 10
211.9245079169
 20
94.477135966
 30
0.0
 11
205.8574677357
 21
88.5555187553
 31
0.0
  0
LINE
  5
1B5
330
1F
100
AcDbEntity
  8
SLD-0
  6
SLD-DURCHGEHEND
 62
     7
100
AcDbLine
 10
210.3027413702
 20
80.7224657509
 30
0.0
 11
210.3027413702
 21
75.5794627003
 31
0.0
  0
LINE
  5
1B6
330
1F
100
AcDbEntity
  8
SLD-0
  6
SLD-DURCHGEHEND
 62
     7
100
AcDbLine
 10
214.5029997984
 20
85.6792149812
 30
0.0
 11
210.7694368357
 21
82.0351430719
 31
0.0
  0
LINE
  5
1B7
330
1F
100
AcDbEntity
  8
SLD-0
  6
SLD-DURCHGEHEND
 62
     7
100
AcDbLine
 10
202.5322633052
 20
86.852918407
 30
0.0
 11
215.2497124018
 21
99.2655385968
 31
0.0
  0
LINE
  5
1B8
330
1F
100
AcDbEntity
  8
SLD-0
  6
SLD-DURCHGEHEND
 62
     7
100
AcDbLine
 10
215.2497124018
 20
99.2655385968
 30
0.0
 11
215.340760177
 21
99.3379337869
 31
0.0
  0
LINE
  5
1B9
330
1F
100
AcDbEntity
  8
SLD-0
  6
SLD-DURCHGEHEND
 62
     7
100
AcDbLine
 10
215.340760177
 20
99.3379337869
 30
0.0
 11
215.428309014
 21
99.3746063922
 31
0.0
  0
LINE
  5
1BA
330
1F
100
AcDbEntity
  8
SLD-0
  6
SLD-DURCHGEHEND
 62
     7
100
AcDbLine
 10
215.428309014
 20
99.3746063922
 30
0.0
 11
215.5089944834
 21
99.3741471203
 31
0.0
  0
LINE
  5
1BB
330
1F
100
AcDbEntity
  8
SLD-0
  6
SLD-DURCHGEHEND
 62
     7
100
AcDbLine
 10
215.5089944834
 20
99.3741471203
 30
0.0
 11
215.5797159033
 21
99.3365736504
 31
0.0
  0
LINE
  5
1BC
330
1F
100
AcDbEntity
  8
SLD-0
  6
SLD-DURCHGEHEND
 62
     7
100
AcDbLine
 10
215.5797159033
 20
99.3365736504
 30
0.0
 11
215.6377554585
 21
99.2633298403
 31
0.0
  0
LINE
  5
1BD
330
1F
100
AcDbEntity
  8
SLD-0
  6
SLD-DURCHGEHEND
 62
     7
100
AcDbLine
 10
215.6377554585
 20
99.2633298403
 30
0.0
 11
215.6808827431
 21
99.1572304859
 31
0.0
  0
LINE
  5
1BE
330
1F
100
AcDbEntity
  8
SLD-0
  6
SLD-DURCHGEHEND
 62
     7
100
AcDbLine
 10
215.6808827431
 20
99.1572304859
 30
0.0
 11
215.7074403917
 21
99.0223528899
 31
0.0
  0
LINE
  5
1BF
330
1F
100
AcDbEntity
  8
SLD-0
  6
SLD-DURCHGEHEND
 62
     7
100
AcDbLine
 10
215.7074403917
 20
99.0223528899
 30
0.0
 11
215.7164078129
 21
98.8638802838
 31
0.0
  0
LINE
  5
1C0
330
1F
100
AcDbEntity
  8
SLD-0
  6
SLD-DURCHGEHEND
 62
     7
100
AcDbLine
 10
215.7164078129
 20
98.8638802838
 30
0.0
 11
215.7164078129
 21
93.6256851359
 31
0.0
  0
LINE
  5
1C1
330
1F
100
AcDbEntity
  8
SLD-0
  6
SLD-DURCHGEHEND
 62
     7
100
AcDbLine
 10
215.7164078129
 20
87.3019603628
 30
0.0
 11
215.7164078129
 21
85.5285433523
 31
0.0
  0
LINE
  5
1C2
330
1F
100
AcDbEntity
  8
SLD-0
  6
SLD-DURCHGEHEND
 62
     7
100
AcDbLine
 10
215.7164078129
 20
75.5918586367
 30
0.0
 11
215.7164078129
 21
70.7393167709
 31
0.0
  0
LINE
  5
1C3
330
1F
100
AcDbEntity
  8
SLD-0
  6
SLD-DURCHGEHEND
 62
     7
100
AcDbLine
 10
206.9504190689
 20
58.592817498
 30
0.0
 11
202.5322633052
 21
54.2805620277
 31
0.0
  0
LINE
  5
1C4
330
1F
100
AcDbEntity
  8
SLD-0
  6
SLD-DURCHGEHEND
 62
     7
100
AcDbLine
 10
202.5322633052
 20
54.2805620277
 30
0.0
 11
202.4412149596
 21
54.2081665615
 31
0.0
  0
LINE
  5
1C5
330
1F
100
AcDbEntity
  8
SLD-0
  6
SLD-DURCHGEHEND
 62
     7
100
AcDbLine
 10
202.4412149596
 20
54.2081665615
 30
0.0
 11
202.353666367
 21
54.1714925359
 31
0.0
  0
LINE
  5
1C6
330
1F
100
AcDbEntity
  8
SLD-0
  6
SLD-DURCHGEHEND
 62
     7
100
AcDbLine
 10
202.353666367
 20
54.1714925359
 30
0.0
 11
202.2729808025
 21
54.1719513969
 31
0.0
  0
LINE
  5
1C7
330
1F
100
AcDbEntity
  8
SLD-0
  6
SLD-DURCHGEHEND
 62
     7
100
AcDbLine
 10
202.2729808025
 20
54.1719513969
 30
0.0
 11
202.2022598852
 21
54.2095273032
 31
0.0
  0
LINE
  5
1C8
330
1F
100
AcDbEntity
  8
SLD-0
  6
SLD-DURCHGEHEND
 62
     7
100
AcDbLine
 10
202.2022598852
 20
54.2095273032
 30
0.0
 11
202.1442201399
 21
54.282768408
 31
0.0
  0
LINE
  5
1C9
330
1F
100
AcDbEntity
  8
SLD-0
  6
SLD-DURCHGEHEND
 62
     7
100
AcDbLine
 10
202.1442201399
 20
54.282768408
 30
0.0
 11
202.1010930284
 21
54.3888681061
 31
0.0
  0
LINE
  5
1CA
330
1F
100
AcDbEntity
  8
SLD-0
  6
SLD-DURCHGEHEND
 62
     7
100
AcDbLine
 10
202.1010930284
 20
54.3888681061
 30
0.0
 11
202.0745354137
 21
54.5237468828
 31
0.0
  0
LINE
  5
1CB
330
1F
100
AcDbEntity
  8
SLD-0
  6
SLD-DURCHGEHEND
 62
     7
100
AcDbLine
 10
202.0745354137
 20
54.5237468828
 30
0.0
 11
202.0655678397
 21
54.6822187909
 31
0.0
  0
LINE
  5
1CC
330
1F
100
AcDbEntity
  8
SLD-0
  6
SLD-DURCHGEHEND
 62
     7
100
AcDbLine
 10
202.0655678397
 20
54.6822187909
 30
0.0
 11
202.0655678397
 21
85.5402419841
 31
0.0
  0
LINE
  5
1CD
330
1F
100
AcDbEntity
  8
SLD-0
  6
SLD-DURCHGEHEND
 62
     7
100
AcDbLine
 10
208.7159771355
 20
76.6022344863
 30
0.0
 11
208.7080644423
 21
76.2246210909
 31
0.0
  0
LINE
  5
1CE
330
1F
100
AcDbEntity
  8
SLD-0
  6
SLD-DURCHGEHEND
 62
     7
100
AcDbLine
 10
208.7080644423
 20
76.2246210909
 30
0.0
 11
208.6843750431
 21
75.8338922825
 31
0.0
  0
LINE
  5
1CF
330
1F
100
AcDbEntity
  8
SLD-0
  6
SLD-DURCHGEHEND
 62
     7
100
AcDbLine
 10
208.6843750431
 20
75.8338922825
 30
0.0
 11
208.6450554127
 21
75.4324534054
 31
0.0
  0
LINE
  5
1D0
330
1F
100
AcDbEntity
  8
SLD-0
  6
SLD-DURCHGEHEND
 62
     7
100
AcDbLine
 10
208.6450554127
 20
75.4324534054
 30
0.0
 11
208.5903476478
 21
75.0227791844
 31
0.0
  0
LINE
  5
1D1
330
1F
100
AcDbEntity
  8
SLD-0
  6
SLD-DURCHGEHEND
 62
     7
100
AcDbLine
 10
208.5903476478
 20
75.0227791844
 30
0.0
 11
208.5205890322
 21
74.6073989315
 31
0.0
  0
LINE
  5
1D2
330
1F
100
AcDbEntity
  8
SLD-0
  6
SLD-DURCHGEHEND
 62
     7
100
AcDbLine
 10
208.5205890322
 20
74.6073989315
 30
0.0
 11
208.4362098634
 21
74.1888704757
 31
0.0
  0
LINE
  5
1D3
330
1F
100
AcDbEntity
  8
SLD-0
  6
SLD-DURCHGEHEND
 62
     7
100
AcDbLine
 10
208.4362098634
 20
74.1888704757
 30
0.0
 11
208.3377304102
 21
73.7697755968
 31
0.0
  0
LINE
  5
1D4
330
1F
100
AcDbEntity
  8
SLD-0
  6
SLD-DURCHGEHEND
 62
     7
100
AcDbLine
 10
208.3377304102
 20
73.7697755968
 30
0.0
 11
208.2257574355
 21
73.3526974723
 31
0.0
  0
LINE
  5
1D5
330
1F
100
AcDbEntity
  8
SLD-0
  6
SLD-DURCHGEHEND
 62
     7
100
AcDbLine
 10
208.2257574355
 20
73.3526974723
 30
0.0
 11
208.1009807193
 21
72.9402077043
 31
0.0
  0
LINE
  5
1D6
330
1F
100
AcDbEntity
  8
SLD-0
  6
SLD-DURCHGEHEND
 62
     7
100
AcDbLine
 10
208.1009807193
 20
72.9402077043
 30
0.0
 11
207.9641713199
 21
72.5348502529
 31
0.0
  0
LINE
  5
1D7
330
1F
100
AcDbEntity
  8
SLD-0
  6
SLD-DURCHGEHEND
 62
     7
100
AcDbLine
 10
207.9641713199
 20
72.5348502529
 30
0.0
 11
207.8161715774
 21
72.1391236962
 31
0.0
  0
LINE
  5
1D8
330
1F
100
AcDbEntity
  8
SLD-0
  6
SLD-DURCHGEHEND
 62
     7
100
AcDbLine
 10
207.8161715774
 20
72.1391236962
 30
0.0
 11
207.657894244
 21
71.7554660124
 31
0.0
  0
LINE
  5
1D9
330
1F
100
AcDbEntity
  8
SLD-0
  6
SLD-DURCHGEHEND
 62
     7
100
AcDbLine
 10
207.657894244
 20
71.7554660124
 30
0.0
 11
207.4903146607
 21
71.3862453471
 31
0.0
  0
LINE
  5
1DA
330
1F
100
AcDbEntity
  8
SLD-0
  6
SLD-DURCHGEHEND
 62
     7
100
AcDbLine
 10
207.4903146607
 20
71.3862453471
 30
0.0
 11
207.314466411
 21
71.0337382085
 31
0.0
  0
LINE
  5
1DB
330
1F
100
AcDbEntity
  8
SLD-0
  6
SLD-DURCHGEHEND
 62
     7
100
AcDbLine
 10
207.314466411
 20
71.0337382085
 30
0.0
 11
207.1314334967
 21
70.7001138484
 31
0.0
  0
LINE
  5
1DC
330
1F
100
AcDbEntity
  8
SLD-0
  6
SLD-DURCHGEHEND
 62
     7
100
AcDbLine
 10
207.1314334967
 20
70.7001138484
 30
0.0
 11
206.9423451229
 21
70.3874339612
 31
0.0
  0
LINE
  5
1DD
330
1F
100
AcDbEntity
  8
SLD-0
  6
SLD-DURCHGEHEND
 62
     7
100
AcDbLine
 10
206.9423451229
 20
70.3874339612
 30
0.0
 11
206.748365266
 21
70.0976233433
 31
0.0
  0
LINE
  5
1DE
330
1F
100
AcDbEntity
  8
SLD-0
  6
SLD-DURCHGEHEND
 62
     7
100
AcDbLine
 10
206.748365266
 20
70.0976233433
 30
0.0
 11
206.5506918049
 21
69.8324706412
 31
0.0
  0
LINE
  5
1DF
330
1F
100
AcDbEntity
  8
SLD-0
  6
SLD-DURCHGEHEND
 62
     7
100
AcDbLine
 10
206.5506918049
 20
69.8324706412
 30
0.0
 11
206.3505434811
 21
69.5936108352
 31
0.0
  0
LINE
  5
1E0
330
1F
100
AcDbEntity
  8
SLD-0
  6
SLD-DURCHGEHEND
 62
     7
100
AcDbLine
 10
206.3505434811
 20
69.5936108352
 30
0.0
 11
206.1491520756
 21
69.3825144099
 31
0.0
  0
LINE
  5
1E1
330
1F
100
AcDbEntity
  8
SLD-0
  6
SLD-DURCHGEHEND
 62
     7
100
AcDbLine
 10
206.1491520756
 20
69.3825144099
 30
0.0
 11
205.9477615394
 21
69.2004833123
 31
0.0
  0
LINE
  5
1E2
330
1F
100
AcDbEntity
  8
SLD-0
  6
SLD-DURCHGEHEND
 62
     7
100
AcDbLine
 10
205.9477615394
 20
69.2004833123
 30
0.0
 11
205.7476123463
 21
69.0486404701
 31
0.0
  0
LINE
  5
1E3
330
1F
100
AcDbEntity
  8
SLD-0
  6
SLD-DURCHGEHEND
 62
     7
100
AcDbLine
 10
205.7476123463
 20
69.0486404701
 30
0.0
 11
205.5499388852
 21
68.9279224561
 31
0.0
  0
LINE
  5
1E4
330
1F
100
AcDbEntity
  8
SLD-0
  6
SLD-DURCHGEHEND
 62
     7
100
AcDbLine
 10
205.5499388852
 20
68.9279224561
 30
0.0
 11
205.3559598977
 21
68.8390733485
 31
0.0
  0
LINE
  5
1E5
330
1F
100
AcDbEntity
  8
SLD-0
  6
SLD-DURCHGEHEND
 62
     7
100
AcDbLine
 10
205.3559598977
 20
68.8390733485
 30
0.0
 11
205.1668706546
 21
68.782640288
 31
0.0
  0
LINE
  5
1E6
330
1F
100
AcDbEntity
  8
SLD-0
  6
SLD-DURCHGEHEND
 62
     7
100
AcDbLine
 10
205.1668706546
 20
68.782640288
 30
0.0
 11
204.9838386096
 21
68.7589740257
 31
0.0
  0
LINE
  5
1E7
330
1F
100
AcDbEntity
  8
SLD-0
  6
SLD-DURCHGEHEND
 62
     7
100
AcDbLine
 10
204.9838386096
 20
68.7589740257
 30
0.0
 11
204.8079903598
 21
68.7682145989
 31
0.0
  0
LINE
  5
1E8
330
1F
100
AcDbEntity
  8
SLD-0
  6
SLD-DURCHGEHEND
 62
     7
100
AcDbLine
 10
204.8079903598
 20
68.7682145989
 30
0.0
 11
204.6404107766
 21
68.810309643
 31
0.0
  0
LINE
  5
1E9
330
1F
100
AcDbEntity
  8
SLD-0
  6
SLD-DURCHGEHEND
 62
     7
100
AcDbLine
 10
204.6404107766
 20
68.810309643
 30
0.0
 11
204.4821334432
 21
68.8850002676
 31
0.0
  0
LINE
  5
1EA
330
1F
100
AcDbEntity
  8
SLD-0
  6
SLD-DURCHGEHEND
 62
     7
100
AcDbLine
 10
204.4821334432
 20
68.8850002676
 30
0.0
 11
204.3341328313
 21
68.9918214041
 31
0.0
  0
LINE
  5
1EB
330
1F
100
AcDbEntity
  8
SLD-0
  6
SLD-DURCHGEHEND
 62
     7
100
AcDbLine
 10
204.3341328313
 20
68.9918214041
 30
0.0
 11
204.197323432
 21
69.1301185198
 31
0.0
  0
LINE
  5
1EC
330
1F
100
AcDbEntity
  8
SLD-0
  6
SLD-DURCHGEHEND
 62
     7
100
AcDbLine
 10
204.197323432
 20
69.1301185198
 30
0.0
 11
204.072547585
 21
69.2990373358
 31
0.0
  0
LINE
  5
1ED
330
1F
100
AcDbEntity
  8
SLD-0
  6
SLD-DURCHGEHEND
 62
     7
100
AcDbLine
 10
204.072547585
 20
69.2990373358
 30
0.0
 11
203.9605746103
 21
69.4975373483
 31
0.0
  0
LINE
  5
1EE
330
1F
100
AcDbEntity
  8
SLD-0
  6
SLD-DURCHGEHEND
 62
     7
100
AcDbLine
 10
203.9605746103
 20
69.4975373483
 30
0.0
 11
203.8620947225
 21
69.7243938722
 31
0.0
  0
LINE
  5
1EF
330
1F
100
AcDbEntity
  8
SLD-0
  6
SLD-DURCHGEHEND
 62
     7
100
AcDbLine
 10
203.8620947225
 20
69.7243938722
 30
0.0
 11
203.7777155536
 21
69.9782090169
 31
0.0
  0
LINE
  5
1F0
330
1F
100
AcDbEntity
  8
SLD-0
  6
SLD-DURCHGEHEND
 62
     7
100
AcDbLine
 10
203.7777155536
 20
69.9782090169
 30
0.0
 11
203.7079569381
 21
70.2574161751
 31
0.0
  0
LINE
  5
1F1
330
1F
100
AcDbEntity
  8
SLD-0
  6
SLD-DURCHGEHEND
 62
     7
100
AcDbLine
 10
203.7079569381
 20
70.2574161751
 30
0.0
 11
203.6532491732
 21
70.5602974848
 31
0.0
  0
LINE
  5
1F2
330
1F
100
AcDbEntity
  8
SLD-0
  6
SLD-DURCHGEHEND
 62
     7
100
AcDbLine
 10
203.6532491732
 20
70.5602974848
 30
0.0
 11
203.6139295428
 21
70.8849820326
 31
0.0
  0
LINE
  5
1F3
330
1F
100
AcDbEntity
  8
SLD-0
  6
SLD-DURCHGEHEND
 62
     7
100
AcDbLine
 10
203.6139295428
 20
70.8849820326
 30
0.0
 11
203.5902405782
 21
71.2294681053
 31
0.0
  0
LINE
  5
1F4
330
1F
100
AcDbEntity
  8
SLD-0
  6
SLD-DURCHGEHEND
 62
     7
100
AcDbLine
 10
203.5902405782
 20
71.2294681053
 30
0.0
 11
203.5823274504
 21
71.5916350143
 31
0.0
  0
LINE
  5
1F5
330
1F
100
AcDbEntity
  8
SLD-0
  6
SLD-DURCHGEHEND
 62
     7
100
AcDbLine
 10
203.5823274504
 20
71.5916350143
 30
0.0
 11
203.5902405782
 21
71.9692472373
 31
0.0
  0
LINE
  5
1F6
330
1F
100
AcDbEntity
  8
SLD-0
  6
SLD-DURCHGEHEND
 62
     7
100
AcDbLine
 10
203.5902405782
 20
71.9692472373
 30
0.0
 11
203.6139295428
 21
72.3599772181
 31
0.0
  0
LINE
  5
1F7
330
1F
100
AcDbEntity
  8
SLD-0
  6
SLD-DURCHGEHEND
 62
     7
100
AcDbLine
 10
203.6139295428
 20
72.3599772181
 30
0.0
 11
203.6532491732
 21
72.7614160952
 31
0.0
  0
LINE
  5
1F8
330
1F
100
AcDbEntity
  8
SLD-0
  6
SLD-DURCHGEHEND
 62
     7
100
AcDbLine
 10
203.6532491732
 20
72.7614160952
 30
0.0
 11
203.7079569381
 21
73.1710887196
 31
0.0
  0
LINE
  5
1F9
330
1F
100
AcDbEntity
  8
SLD-0
  6
SLD-DURCHGEHEND
 62
     7
100
AcDbLine
 10
203.7079569381
 20
73.1710887196
 30
0.0
 11
203.7777155536
 21
73.5864689725
 31
0.0
  0
LINE
  5
1FA
330
1F
100
AcDbEntity
  8
SLD-0
  6
SLD-DURCHGEHEND
 62
     7
100
AcDbLine
 10
203.7777155536
 20
73.5864689725
 30
0.0
 11
203.8620947225
 21
74.0049974283
 31
0.0
  0
LINE
  5
1FB
330
1F
100
AcDbEntity
  8
SLD-0
  6
SLD-DURCHGEHEND
 62
     7
100
AcDbLine
 10
203.8620947225
 20
74.0049974283
 30
0.0
 11
203.9605746103
 21
74.4240927314
 31
0.0
  0
LINE
  5
1FC
330
1F
100
AcDbEntity
  8
SLD-0
  6
SLD-DURCHGEHEND
 62
     7
100
AcDbLine
 10
203.9605746103
 20
74.4240927314
 30
0.0
 11
204.072547585
 21
74.8411708559
 31
0.0
  0
LINE
  5
1FD
330
1F
100
AcDbEntity
  8
SLD-0
  6
SLD-DURCHGEHEND
 62
     7
100
AcDbLine
 10
204.072547585
 20
74.8411708559
 30
0.0
 11
204.197323432
 21
75.2536605737
 31
0.0
  0
LINE
  5
1FE
330
1F
100
AcDbEntity
  8
SLD-0
  6
SLD-DURCHGEHEND
 62
     7
100
AcDbLine
 10
204.197323432
 20
75.2536605737
 30
0.0
 11
204.3341328313
 21
75.6590180251
 31
0.0
  0
LINE
  5
1FF
330
1F
100
AcDbEntity
  8
SLD-0
  6
SLD-DURCHGEHEND
 62
     7
100
AcDbLine
 10
204.3341328313
 20
75.6590180251
 30
0.0
 11
204.4821334432
 21
76.0547462286
 31
0.0
  0
LINE
  5
200
330
1F
100
AcDbEntity
  8
SLD-0
  6
SLD-DURCHGEHEND
 62
     7
100
AcDbLine
 10
204.4821334432
 20
76.0547462286
 30
0.0
 11
204.6404107766
 21
76.4384023158
 31
0.0
  0
LINE
  5
201
330
1F
100
AcDbEntity
  8
SLD-0
  6
SLD-DURCHGEHEND
 62
     7
100
AcDbLine
 10
204.6404107766
 20
76.4384023158
 30
0.0
 11
204.8079903598
 21
76.8076229811
 31
0.0
  0
LINE
  5
202
330
1F
100
AcDbEntity
  8
SLD-0
  6
SLD-DURCHGEHEND
 62
     7
100
AcDbLine
 10
204.8079903598
 20
76.8076229811
 30
0.0
 11
204.9838386096
 21
77.1601317163
 31
0.0
  0
LINE
  5
203
330
1F
100
AcDbEntity
  8
SLD-0
  6
SLD-DURCHGEHEND
 62
     7
100
AcDbLine
 10
204.9838386096
 20
77.1601317163
 30
0.0
 11
205.1668706546
 21
77.4937536314
 31
0.0
  0
LINE
  5
204
330
1F
100
AcDbEntity
  8
SLD-0
  6
SLD-DURCHGEHEND
 62
     7
100
AcDbLine
 10
205.1668706546
 20
77.4937536314
 30
0.0
 11
205.3559598977
 21
77.806434367
 31
0.0
  0
LINE
  5
205
330
1F
100
AcDbEntity
  8
SLD-0
  6
SLD-DURCHGEHEND
 62
     7
100
AcDbLine
 10
205.3559598977
 20
77.806434367
 30
0.0
 11
205.5499388852
 21
78.0962441365
 31
0.0
  0
LINE
  5
206
330
1F
100
AcDbEntity
  8
SLD-0
  6
SLD-DURCHGEHEND
 62
     7
100
AcDbLine
 10
205.5499388852
 20
78.0962441365
 30
0.0
 11
205.7476123463
 21
78.3613968385
 31
0.0
  0
LINE
  5
207
330
1F
100
AcDbEntity
  8
SLD-0
  6
SLD-DURCHGEHEND
 62
     7
100
AcDbLine
 10
205.7476123463
 20
78.3613968385
 30
0.0
 11
205.9477615394
 21
78.600257493
 31
0.0
  0
LINE
  5
208
330
1F
100
AcDbEntity
  8
SLD-0
  6
SLD-DURCHGEHEND
 62
     7
100
AcDbLine
 10
205.9477615394
 20
78.600257493
 30
0.0
 11
206.1491520756
 21
78.8113538682
 31
0.0
  0
LINE
  5
209
330
1F
100
AcDbEntity
  8
SLD-0
  6
SLD-DURCHGEHEND
 62
     7
100
AcDbLine
 10
206.1491520756
 20
78.8113538682
 30
0.0
 11
206.3505434811
 21
78.9933850159
 31
0.0
  0
LINE
  5
20A
330
1F
100
AcDbEntity
  8
SLD-0
  6
SLD-DURCHGEHEND
 62
     7
100
AcDbLine
 10
206.3505434811
 20
78.9933850159
 30
0.0
 11
206.5506918049
 21
79.1452270096
 31
0.0
  0
LINE
  5
20B
330
1F
100
AcDbEntity
  8
SLD-0
  6
SLD-DURCHGEHEND
 62
     7
100
AcDbLine
 10
206.5506918049
 20
79.1452270096
 30
0.0
 11
206.748365266
 21
79.2659450237
 31
0.0
  0
LINE
  5
20C
330
1F
100
AcDbEntity
  8
SLD-0
  6
SLD-DURCHGEHEND
 62
     7
100
AcDbLine
 10
206.748365266
 20
79.2659450237
 30
0.0
 11
206.9423451229
 21
79.3547949797
 31
0.0
  0
LINE
  5
20D
330
1F
100
AcDbEntity
  8
SLD-0
  6
SLD-DURCHGEHEND
 62
     7
100
AcDbLine
 10
206.9423451229
 20
79.3547949797
 30
0.0
 11
207.1314334967
 21
79.4112271917
 31
0.0
  0
LINE
  5
20E
330
1F
100
AcDbEntity
  8
SLD-0
  6
SLD-DURCHGEHEND
 62
     7
100
AcDbLine
 10
207.1314334967
 20
79.4112271917
 30
0.0
 11
207.314466411
 21
79.4348958992
 31
0.0
  0
LINE
  5
20F
330
1F
100
AcDbEntity
  8
SLD-0
  6
SLD-DURCHGEHEND
 62
     7
100
AcDbLine
 10
207.314466411
 20
79.4348958992
 30
0.0
 11
207.4903146607
 21
79.4256537293
 31
0.0
  0
LINE
  5
210
330
1F
100
AcDbEntity
  8
SLD-0
  6
SLD-DURCHGEHEND
 62
     7
100
AcDbLine
 10
207.4903146607
 20
79.4256537293
 30
0.0
 11
207.657894244
 21
79.3835586852
 31
0.0
  0
LINE
  5
211
330
1F
100
AcDbEntity
  8
SLD-0
  6
SLD-DURCHGEHEND
 62
     7
100
AcDbLine
 10
207.657894244
 20
79.3835586852
 30
0.0
 11
207.8161715774
 21
79.3088696572
 31
0.0
  0
LINE
  5
212
330
1F
100
AcDbEntity
  8
SLD-0
  6
SLD-DURCHGEHEND
 62
     7
100
AcDbLine
 10
207.8161715774
 20
79.3088696572
 30
0.0
 11
207.9641713199
 21
79.2020468739
 31
0.0
  0
LINE
  5
213
330
1F
100
AcDbEntity
  8
SLD-0
  6
SLD-DURCHGEHEND
 62
     7
100
AcDbLine
 10
207.9641713199
 20
79.2020468739
 30
0.0
 11
208.1009807193
 21
79.0637497583
 31
0.0
  0
LINE
  5
214
330
1F
100
AcDbEntity
  8
SLD-0
  6
SLD-DURCHGEHEND
 62
     7
100
AcDbLine
 10
208.1009807193
 20
79.0637497583
 30
0.0
 11
208.2257574355
 21
78.8948309924
 31
0.0
  0
LINE
  5
215
330
1F
100
AcDbEntity
  8
SLD-0
  6
SLD-DURCHGEHEND
 62
     7
100
AcDbLine
 10
208.2257574355
 20
78.8948309924
 30
0.0
 11
208.3377304102
 21
78.69633098
 31
0.0
  0
LINE
  5
216
330
1F
100
AcDbEntity
  8
SLD-0
  6
SLD-DURCHGEHEND
 62
     7
100
AcDbLine
 10
208.3377304102
 20
78.69633098
 30
0.0
 11
208.4362098634
 21
78.4694740318
 31
0.0
  0
LINE
  5
217
330
1F
100
AcDbEntity
  8
SLD-0
  6
SLD-DURCHGEHEND
 62
     7
100
AcDbLine
 10
208.4362098634
 20
78.4694740318
 30
0.0
 11
208.5205890322
 21
78.2156588871
 31
0.0
  0
LINE
  5
218
330
1F
100
AcDbEntity
  8
SLD-0
  6
SLD-DURCHGEHEND
 62
     7
100
AcDbLine
 10
208.5205890322
 20
78.2156588871
 30
0.0
 11
208.5903476478
 21
77.9364517289
 31
0.0
  0
LINE
  5
219
330
1F
100
AcDbEntity
  8
SLD-0
  6
SLD-DURCHGEHEND
 62
     7
100
AcDbLine
 10
208.5903476478
 20
77.9364517289
 30
0.0
 11
208.6450554127
 21
77.6335720158
 31
0.0
  0
LINE
  5
21A
330
1F
100
AcDbEntity
  8
SLD-0
  6
SLD-DURCHGEHEND
 62
     7
100
AcDbLine
 10
208.6450554127
 20
77.6335720158
 30
0.0
 11
208.6843750431
 21
77.308887468
 31
0.0
  0
LINE
  5
21B
330
1F
100
AcDbEntity
  8
SLD-0
  6
SLD-DURCHGEHEND
 62
     7
100
AcDbLine
 10
208.6843750431
 20
77.308887468
 30
0.0
 11
208.7080644423
 21
76.9644002229
 31
0.0
  0
LINE
  5
21C
330
1F
100
AcDbEntity
  8
SLD-0
  6
SLD-DURCHGEHEND
 62
     7
100
AcDbLine
 10
208.7080644423
 20
76.9644002229
 30
0.0
 11
208.7159771355
 21
76.6022344863
 31
0.0
  0
LINE
  5
21D
330
1F
100
AcDbEntity
  8
SLD-0
  6
SLD-DURCHGEHEND
 62
     7
100
AcDbLine
 10
211.924507917
 20
71.5907689979
 30
0.0
 11
205.8574677357
 21
65.6691517873
 31
0.0
  0
LINE
  5
21E
330
1F
100
AcDbEntity
  8
SLD-0
  6
SLD-DURCHGEHEND
 62
     7
100
AcDbLine
 10
205.3907722703
 20
64.3564752647
 30
0.0
 11
205.3907722703
 21
59.4706219674
 31
0.0
  0
LINE
  5
21F
330
1F
100
AcDbEntity
  8
SLD-0
  6
SLD-DURCHGEHEND
 62
     7
100
AcDbLine
 10
208.1807431
 20
69.2807005149
 30
0.0
 11
208.1807431
 21
68.9211593022
 31
0.0
  0
LINE
  5
220
330
1F
100
AcDbEntity
  8
SLD-0
  6
SLD-DURCHGEHEND
 62
     7
100
AcDbLine
 10
208.5226872215
 20
69.2549065698
 30
0.0
 11
208.5226872215
 21
69.7226654027
 31
0.0
  0
LINE
  5
221
330
1F
100
AcDbEntity
  8
SLD-0
  6
SLD-DURCHGEHEND
 62
     7
100
AcDbLine
 10
208.5891764453
 20
69.3198020905
 30
0.0
 11
208.5226872215
 21
69.2549065698
 31
0.0
  0
LINE
  5
222
330
1F
100
AcDbEntity
  8
SLD-0
  6
SLD-DURCHGEHEND
 62
     7
100
AcDbLine
 10
208.5891765802
 20
69.8276320328
 30
0.0
 11
208.5891764453
 21
69.3198020905
 31
0.0
  0
LINE
  5
223
330
1F
100
AcDbEntity
  8
SLD-0
  6
SLD-DURCHGEHEND
 62
     7
100
AcDbLine
 10
208.1807431
 20
69.9155559823
 30
0.0
 11
208.1807433239
 21
69.7361939285
 31
0.0
  0
LINE
  5
224
330
1F
100
AcDbEntity
  8
SLD-0
  6
SLD-DURCHGEHEND
 62
     7
100
AcDbLine
 10
208.1142538762
 20
69.8506604616
 30
0.0
 11
208.1807431
 21
69.9155559823
 31
0.0
  0
LINE
  5
225
330
1F
100
AcDbEntity
  8
SLD-0
  6
SLD-DURCHGEHEND
 62
     7
100
AcDbLine
 10
208.1142538762
 20
68.8562637815
 30
0.0
 11
208.1142538762
 21
69.8506604616
 31
0.0
  0
LINE
  5
226
330
1F
100
AcDbEntity
  8
SLD-0
  6
SLD-DURCHGEHEND
 62
     7
100
AcDbLine
 10
208.1807431
 20
68.9211593022
 30
0.0
 11
208.1142538762
 21
68.8562637815
 31
0.0
  0
LINE
  5
227
330
1F
100
AcDbEntity
  8
SLD-0
  6
SLD-DURCHGEHEND
 62
     7
100
AcDbLine
 10
207.2688922541
 20
68.0311649225
 30
0.0
 11
207.2688922541
 21
68.2031672483
 31
0.0
  0
LINE
  5
228
330
1F
100
AcDbEntity
  8
SLD-0
  6
SLD-DURCHGEHEND
 62
     7
100
AcDbLine
 10
207.3353814779
 20
68.0960604432
 30
0.0
 11
207.2688922541
 21
68.0311649225
 31
0.0
  0
LINE
  5
229
330
1F
100
AcDbEntity
  8
SLD-0
  6
SLD-DURCHGEHEND
 62
     7
100
AcDbLine
 10
207.3353814779
 20
69.0904571234
 30
0.0
 11
207.3353814779
 21
68.0960604432
 31
0.0
  0
LINE
  5
22A
330
1F
100
AcDbEntity
  8
SLD-0
  6
SLD-DURCHGEHEND
 62
     7
100
AcDbLine
 10
207.2688922541
 20
69.0255616026
 30
0.0
 11
207.3353814779
 21
69.0904571234
 31
0.0
  0
LINE
  5
22B
330
1F
100
AcDbEntity
  8
SLD-0
  6
SLD-DURCHGEHEND
 62
     7
100
AcDbLine
 10
207.2688922541
 20
68.8415654326
 30
0.0
 11
207.2688922541
 21
69.0255616026
 31
0.0
  0
LINE
  5
22C
330
1F
100
AcDbEntity
  8
SLD-0
  6
SLD-DURCHGEHEND
 62
     7
100
AcDbLine
 10
205.6066642673
 20
66.4087794494
 30
0.0
 11
205.6066639648
 21
66.5807814027
 31
0.0
  0
LINE
  5
22D
330
1F
100
AcDbEntity
  8
SLD-0
  6
SLD-DURCHGEHEND
 62
     7
100
AcDbLine
 10
205.6731534911
 20
66.4736749701
 30
0.0
 11
205.6066642673
 21
66.4087794494
 31
0.0
  0
LINE
  5
22E
330
1F
100
AcDbEntity
  8
SLD-0
  6
SLD-DURCHGEHEND
 62
     7
100
AcDbLine
 10
205.6731534911
 20
67.8693192094
 30
0.0
 11
205.6731534911
 21
66.4736749701
 31
0.0
  0
LINE
  5
22F
330
1F
100
AcDbEntity
  8
SLD-0
  6
SLD-DURCHGEHEND
 62
     7
100
AcDbLine
 10
205.6066642673
 20
67.8044236887
 30
0.0
 11
205.6731534911
 21
67.8693192094
 31
0.0
  0
LINE
  5
230
330
1F
100
AcDbEntity
  8
SLD-0
  6
SLD-DURCHGEHEND
 62
     7
100
AcDbLine
 10
205.6066639648
 20
67.2107293976
 30
0.0
 11
205.6066642673
 21
67.8044236887
 31
0.0
  0
LINE
  5
231
330
1F
100
AcDbEntity
  8
SLD-0
  6
SLD-DURCHGEHEND
 62
     7
100
AcDbLine
 10
204.7802990045
 20
66.0732515403
 30
0.0
 11
204.295877931
 21
65.6004423656
 31
0.0
  0
LINE
  5
232
330
1F
100
AcDbEntity
  8
SLD-0
  6
SLD-DURCHGEHEND
 62
     7
100
AcDbLine
 10
204.692734954
 20
65.8307770143
 30
0.0
 11
204.7518036611
 21
65.8314586074
 31
0.0
  0
LINE
  5
233
330
1F
100
AcDbEntity
  8
SLD-0
  6
SLD-DURCHGEHEND
 62
     7
100
AcDbLine
 10
199.3061832926
 20
86.2901835776
 30
0.0
 11
202.0655678397
 21
85.5402419841
 31
0.0
  0
LINE
  5
234
330
1F
100
AcDbEntity
  8
SLD-0
  6
SLD-DURCHGEHEND
 62
     7
100
AcDbLine
 10
199.772878758
 20
87.6028600005
 30
0.0
 11
202.5322633052
 21
86.852918407
 31
0.0
  0
LINE
  5
235
330
1F
100
AcDbEntity
  8
SLD-0
  6
SLD-DURCHGEHEND
 62
     7
100
AcDbLine
 10
199.3061832926
 20
55.4321603843
 30
0.0
 11
202.0655678397
 21
54.6822187909
 31
0.0
  0
LINE
  5
236
330
1F
100
AcDbEntity
  8
SLD-0
  6
SLD-DURCHGEHEND
 62
     7
100
AcDbLine
 10
199.3061832926
 20
55.4321603843
 30
0.0
 11
199.3061832926
 21
86.2901835776
 31
0.0
  0
LINE
  5
237
330
1F
100
AcDbEntity
  8
SLD-0
  6
SLD-DURCHGEHEND
 62
     7
100
AcDbLine
 10
199.772878758
 20
87.6028600005
 30
0.0
 11
212.4903278547
 21
100.0154801903
 31
0.0
  0
LINE
  5
238
330
1F
100
AcDbEntity
  8
SLD-0
  6
SLD-DURCHGEHEND
 62
     7
100
AcDbLine
 10
212.4903278547
 20
100.0154801903
 30
0.0
 11
215.2497124018
 21
99.2655385968
 31
0.0
  0
LINE
  5
239
330
1F
100
AcDbEntity
  8
SLD-0
  6
SLD-DURCHGEHEND
 62
     7
100
AcDbLine
 10
208.928444925
 20
86.2813788078
 30
0.0
 11
205.3907722703
 21
87.2428424322
 31
0.0
  0
LINE
  5
23A
330
1F
100
AcDbEntity
  8
SLD-0
  6
SLD-DURCHGEHEND
 62
     7
100
AcDbLine
 10
205.8574677357
 20
88.5555187553
 30
0.0
 11
209.3951403904
 21
87.5940551309
 31
0.0
  0
LINE
  5
23B
330
1F
100
AcDbEntity
  8
SLD-0
  6
SLD-DURCHGEHEND
 62
     7
100
AcDbLine
 10
208.928444925
 20
81.3955247123
 30
0.0
 11
208.937412499
 21
81.2370528042
 31
0.0
  0
LINE
  5
23C
330
1F
100
AcDbEntity
  8
SLD-0
  6
SLD-DURCHGEHEND
 62
     7
100
AcDbLine
 10
208.937412499
 20
81.2370528042
 30
0.0
 11
208.9639701137
 21
81.1021748258
 31
0.0
  0
LINE
  5
23D
330
1F
100
AcDbEntity
  8
SLD-0
  6
SLD-DURCHGEHEND
 62
     7
100
AcDbLine
 10
208.9639701137
 20
81.1021748258
 30
0.0
 11
209.0070972251
 21
80.996075926
 31
0.0
  0
LINE
  5
23E
330
1F
100
AcDbEntity
  8
SLD-0
  6
SLD-DURCHGEHEND
 62
     7
100
AcDbLine
 10
209.0070972251
 20
80.996075926
 30
0.0
 11
209.0651369705
 21
80.922831628
 31
0.0
  0
LINE
  5
23F
330
1F
100
AcDbEntity
  8
SLD-0
  6
SLD-DURCHGEHEND
 62
     7
100
AcDbLine
 10
209.0651369705
 20
80.922831628
 30
0.0
 11
209.1358578878
 21
80.8852581166
 31
0.0
  0
LINE
  5
240
330
1F
100
AcDbEntity
  8
SLD-0
  6
SLD-DURCHGEHEND
 62
     7
100
AcDbLine
 10
209.1358578878
 20
80.8852581166
 30
0.0
 11
209.2165434523
 21
80.8847984573
 31
0.0
  0
LINE
  5
241
330
1F
100
AcDbEntity
  8
SLD-0
  6
SLD-DURCHGEHEND
 62
     7
100
AcDbLine
 10
209.2165434523
 20
80.8847984573
 30
0.0
 11
209.3040929141
 21
80.9214717348
 31
0.0
  0
LINE
  5
242
330
1F
100
AcDbEntity
  8
SLD-0
  6
SLD-DURCHGEHEND
 62
     7
100
AcDbLine
 10
209.3040929141
 20
80.9214717348
 30
0.0
 11
209.3951403904
 21
80.9938671509
 31
0.0
  0
LINE
  5
243
330
1F
100
AcDbEntity
  8
SLD-0
  6
SLD-DURCHGEHEND
 62
     7
100
AcDbLine
 10
208.928444925
 20
86.2813788078
 30
0.0
 11
208.928444925
 21
81.3955247123
 31
0.0
  0
LINE
  5
244
330
1F
100
AcDbEntity
  8
SLD-0
  6
SLD-DURCHGEHEND
 62
     7
100
AcDbLine
 10
215.4621805717
 20
93.5156723416
 30
0.0
 11
209.3951403904
 21
87.5940551309
 31
0.0
  0
LINE
  5
245
330
1F
100
AcDbEntity
  8
SLD-0
  6
SLD-DURCHGEHEND
 62
     7
100
AcDbLine
 10
215.9288758198
 20
93.1140139693
 30
0.0
 11
215.9199084631
 21
93.2724864886
 31
0.0
  0
LINE
  5
246
330
1F
100
AcDbEntity
  8
SLD-0
  6
SLD-DURCHGEHEND
 62
     7
100
AcDbLine
 10
215.9199084631
 20
93.2724864886
 30
0.0
 11
215.8933508484
 21
93.4073640679
 31
0.0
  0
LINE
  5
247
330
1F
100
AcDbEntity
  8
SLD-0
  6
SLD-DURCHGEHEND
 62
     7
100
AcDbLine
 10
215.8933508484
 20
93.4073640679
 30
0.0
 11
215.8502235197
 21
93.5134635539
 31
0.0
  0
LINE
  5
248
330
1F
100
AcDbEntity
  8
SLD-0
  6
SLD-DURCHGEHEND
 62
     7
100
AcDbLine
 10
215.8502235197
 20
93.5134635539
 30
0.0
 11
215.7921839916
 21
93.5867072657
 31
0.0
  0
LINE
  5
249
330
1F
100
AcDbEntity
  8
SLD-0
  6
SLD-DURCHGEHEND
 62
     7
100
AcDbLine
 10
215.7921839916
 20
93.5867072657
 30
0.0
 11
215.7214624224
 21
93.6242805399
 31
0.0
  0
LINE
  5
24A
330
1F
100
AcDbEntity
  8
SLD-0
  6
SLD-DURCHGEHEND
 62
     7
100
AcDbLine
 10
215.7214624224
 20
93.6242805399
 30
0.0
 11
215.6407770752
 21
93.6247400122
 31
0.0
  0
LINE
  5
24B
330
1F
100
AcDbEntity
  8
SLD-0
  6
SLD-DURCHGEHEND
 62
     7
100
AcDbLine
 10
215.6407770752
 20
93.6247400122
 30
0.0
 11
215.553228048
 21
93.5880672587
 31
0.0
  0
LINE
  5
24C
330
1F
100
AcDbEntity
  8
SLD-0
  6
SLD-DURCHGEHEND
 62
     7
100
AcDbLine
 10
215.553228048
 20
93.5880672587
 30
0.0
 11
215.4621805717
 21
93.5156723416
 31
0.0
  0
LINE
  5
24D
330
1F
100
AcDbEntity
  8
SLD-0
  6
SLD-DURCHGEHEND
 62
     7
100
AcDbLine
 10
215.9288758198
 20
88.2281598738
 30
0.0
 11
215.9288758198
 21
93.1140139693
 31
0.0
  0
LINE
  5
24E
330
1F
100
AcDbEntity
  8
SLD-0
  6
SLD-DURCHGEHEND
 62
     7
100
AcDbLine
 10
209.3951403904
 20
80.9938671509
 30
0.0
 11
215.4621805718
 21
86.9154843615
 31
0.0
  0
LINE
  5
24F
330
1F
100
AcDbEntity
  8
SLD-0
  6
SLD-DURCHGEHEND
 62
     7
100
AcDbLine
 10
205.3907722703
 20
82.3569883367
 30
0.0
 11
208.928444925
 21
81.3955247123
 31
0.0
  0
LINE
  5
250
330
1F
100
AcDbEntity
  8
SLD-0
  6
SLD-DURCHGEHEND
 62
     7
100
AcDbLine
 10
215.4621805717
 20
93.5156723416
 30
0.0
 11
211.9245079169
 21
94.477135966
 31
0.0
  0
LINE
  5
251
330
1F
100
AcDbEntity
  8
SLD-0
  6
SLD-DURCHGEHEND
 62
     7
100
AcDbLine
 10
203.773463955
 20
65.9236742113
 30
0.0
 11
203.8399530903
 21
65.905603889
 31
0.0
  0
LINE
  5
252
330
1F
100
AcDbEntity
  8
SLD-0
  6
SLD-DURCHGEHEND
 62
     7
100
AcDbLine
 10
204.0225568171
 20
66.2233951376
 30
0.0
 11
204.1344043736
 21
66.1929973683
 31
0.0
  0
LINE
  5
253
330
1F
100
AcDbEntity
  8
SLD-0
  6
SLD-DURCHGEHEND
 62
     7
100
AcDbLine
 10
203.773463955
 20
65.5049806202
 30
0.0
 11
203.8399530903
 21
65.4869102979
 31
0.0
  0
LINE
  5
254
330
1F
100
AcDbEntity
  8
SLD-0
  6
SLD-DURCHGEHEND
 62
     7
100
AcDbLine
 10
203.773463955
 20
64.7024855019
 30
0.0
 11
203.8399530903
 21
64.6844151796
 31
0.0
  0
LINE
  5
255
330
1F
100
AcDbEntity
  8
SLD-0
  6
SLD-DURCHGEHEND
 62
     7
100
AcDbLine
 10
203.773463955
 20
65.3654171542
 30
0.0
 11
203.8399530903
 21
65.3473468319
 31
0.0
  0
LINE
  5
256
330
1F
100
AcDbEntity
  8
SLD-0
  6
SLD-DURCHGEHEND
 62
     7
100
AcDbLine
 10
204.0225568171
 20
65.6651380805
 30
0.0
 11
204.1344043736
 21
65.6347403113
 31
0.0
  0
LINE
  5
257
330
1F
100
AcDbEntity
  8
SLD-0
  6
SLD-DURCHGEHEND
 62
     7
100
AcDbLine
 10
204.3028535883
 20
65.7293690443
 30
0.0
 11
204.7138098698
 21
66.1304749735
 31
0.0
  0
LINE
  5
258
330
1F
100
AcDbEntity
  8
SLD-0
  6
SLD-DURCHGEHEND
 62
     7
100
AcDbLine
 10
204.2462937951
 20
65.7447407841
 30
0.0
 11
204.3028535883
 21
65.7293690443
 31
0.0
  0
LINE
  5
259
330
1F
100
AcDbEntity
  8
SLD-0
  6
SLD-DURCHGEHEND
 62
     7
100
AcDbLine
 10
204.3125222087
 20
66.0104638193
 30
0.0
 11
204.3672649376
 21
65.9955862164
 31
0.0
  0
LINE
  5
25A
330
1F
100
AcDbEntity
  8
SLD-0
  6
SLD-DURCHGEHEND
 62
     7
100
AcDbLine
 10
204.4287682368
 20
66.2461760686
 30
0.0
 11
204.50677339
 21
66.2249754136
 31
0.0
  0
LINE
  5
25B
330
1F
100
AcDbEntity
  8
SLD-0
  6
SLD-DURCHGEHEND
 62
     7
100
AcDbLine
 10
204.2526915056
 20
65.3805635225
 30
0.0
 11
204.5017273396
 21
65.3128815871
 31
0.0
  0
LINE
  5
25C
330
1F
100
AcDbEntity
  8
SLD-0
  6
SLD-DURCHGEHEND
 62
     7
100
AcDbLine
 10
204.2346751004
 20
65.6170759835
 30
0.0
 11
204.295877931
 21
65.6004423656
 31
0.0
  0
LINE
  5
25D
330
1F
100
AcDbEntity
  8
SLD-0
  6
SLD-DURCHGEHEND
 62
     7
100
AcDbLine
 10
204.6824323877
 20
66.0998495897
 30
0.0
 11
204.7802990045
 21
66.0732515403
 31
0.0
  0
LINE
  5
25E
330
1F
100
AcDbEntity
  8
SLD-0
  6
SLD-DURCHGEHEND
 62
     7
100
AcDbLine
 10
204.5797472537
 20
66.3993314674
 30
0.0
 11
204.7213789454
 21
66.3608385904
 31
0.0
  0
LINE
  5
25F
330
1F
100
AcDbEntity
  8
SLD-0
  6
SLD-DURCHGEHEND
 62
     7
100
AcDbLine
 10
204.9037790208
 20
65.8057076576
 30
0.0
 11
204.9702681561
 21
65.7876373353
 31
0.0
  0
LINE
  5
260
330
1F
100
AcDbEntity
  8
SLD-0
  6
SLD-DURCHGEHEND
 62
     7
100
AcDbLine
 10
208.928444925
 20
63.3950116402
 30
0.0
 11
205.3907722703
 21
64.3564752647
 31
0.0
  0
LINE
  5
261
330
1F
100
AcDbEntity
  8
SLD-0
  6
SLD-DURCHGEHEND
 62
     7
100
AcDbLine
 10
205.8574677357
 20
65.6691517873
 30
0.0
 11
209.3951403904
 21
64.7076881629
 31
0.0
  0
LINE
  5
262
330
1F
100
AcDbEntity
  8
SLD-0
  6
SLD-DURCHGEHEND
 62
     7
100
AcDbLine
 10
209.3951403904
 20
58.1074983867
 30
0.0
 11
215.4621805717
 21
64.0291155973
 31
0.0
  0
LINE
  5
263
330
1F
100
AcDbEntity
  8
SLD-0
  6
SLD-DURCHGEHEND
 62
     7
100
AcDbLine
 10
208.928444925
 20
58.509158343
 30
0.0
 11
208.937412499
 21
58.3506864349
 31
0.0
  0
LINE
  5
264
330
1F
100
AcDbEntity
  8
SLD-0
  6
SLD-DURCHGEHEND
 62
     7
100
AcDbLine
 10
208.937412499
 20
58.3506864349
 30
0.0
 11
208.9639701137
 21
58.2158076582
 31
0.0
  0
LINE
  5
265
330
1F
100
AcDbEntity
  8
SLD-0
  6
SLD-DURCHGEHEND
 62
     7
100
AcDbLine
 10
208.9639701137
 20
58.2158076582
 30
0.0
 11
209.0070972251
 21
58.1097079601
 31
0.0
  0
LINE
  5
266
330
1F
100
AcDbEntity
  8
SLD-0
  6
SLD-DURCHGEHEND
 62
     7
100
AcDbLine
 10
209.0070972251
 20
58.1097079601
 30
0.0
 11
209.0651369705
 21
58.0364636621
 31
0.0
  0
LINE
  5
267
330
1F
100
AcDbEntity
  8
SLD-0
  6
SLD-DURCHGEHEND
 62
     7
100
AcDbLine
 10
209.0651369705
 20
58.0364636621
 30
0.0
 11
209.1358578878
 21
57.998890949
 31
0.0
  0
LINE
  5
268
330
1F
100
AcDbEntity
  8
SLD-0
  6
SLD-DURCHGEHEND
 62
     7
100
AcDbLine
 10
209.1358578878
 20
57.998890949
 30
0.0
 11
209.2165434523
 21
57.998432088
 31
0.0
  0
LINE
  5
269
330
1F
100
AcDbEntity
  8
SLD-0
  6
SLD-DURCHGEHEND
 62
     7
100
AcDbLine
 10
209.2165434523
 20
57.998432088
 30
0.0
 11
209.3040929141
 21
58.0351037689
 31
0.0
  0
LINE
  5
26A
330
1F
100
AcDbEntity
  8
SLD-0
  6
SLD-DURCHGEHEND
 62
     7
100
AcDbLine
 10
209.3040929141
 20
58.0351037689
 30
0.0
 11
209.3951403904
 21
58.1074983867
 31
0.0
  0
LINE
  5
26B
330
1F
100
AcDbEntity
  8
SLD-0
  6
SLD-DURCHGEHEND
 62
     7
100
AcDbLine
 10
208.928444925
 20
63.3950116402
 30
0.0
 11
208.928444925
 21
58.509158343
 31
0.0
  0
LINE
  5
26C
330
1F
100
AcDbEntity
  8
SLD-0
  6
SLD-DURCHGEHEND
 62
     7
100
AcDbLine
 10
215.4621805717
 20
70.6293053735
 30
0.0
 11
209.3951403904
 21
64.7076881629
 31
0.0
  0
LINE
  5
26D
330
1F
100
AcDbEntity
  8
SLD-0
  6
SLD-DURCHGEHEND
 62
     7
100
AcDbLine
 10
215.9288758198
 20
70.2276468017
 30
0.0
 11
215.9199084631
 21
70.3861189219
 31
0.0
  0
LINE
  5
26E
330
1F
100
AcDbEntity
  8
SLD-0
  6
SLD-DURCHGEHEND
 62
     7
100
AcDbLine
 10
215.9199084631
 20
70.3861189219
 30
0.0
 11
215.8933508484
 21
70.5209976986
 31
0.0
  0
LINE
  5
26F
330
1F
100
AcDbEntity
  8
SLD-0
  6
SLD-DURCHGEHEND
 62
     7
100
AcDbLine
 10
215.8933508484
 20
70.5209976986
 30
0.0
 11
215.8502235197
 21
70.6270971846
 31
0.0
  0
LINE
  5
270
330
1F
100
AcDbEntity
  8
SLD-0
  6
SLD-DURCHGEHEND
 62
     7
100
AcDbLine
 10
215.8502235197
 20
70.6270971846
 30
0.0
 11
215.7921839916
 21
70.7003400981
 31
0.0
  0
LINE
  5
271
330
1F
100
AcDbEntity
  8
SLD-0
  6
SLD-DURCHGEHEND
 62
     7
100
AcDbLine
 10
215.7921839916
 20
70.7003400981
 30
0.0
 11
215.7214624224
 21
70.7379137714
 31
0.0
  0
LINE
  5
272
330
1F
100
AcDbEntity
  8
SLD-0
  6
SLD-DURCHGEHEND
 62
     7
100
AcDbLine
 10
215.7214624224
 20
70.7379137714
 30
0.0
 11
215.6407770752
 21
70.7383728446
 31
0.0
  0
LINE
  5
273
330
1F
100
AcDbEntity
  8
SLD-0
  6
SLD-DURCHGEHEND
 62
     7
100
AcDbLine
 10
215.6407770752
 20
70.7383728446
 30
0.0
 11
215.553228048
 21
70.7016999913
 31
0.0
  0
LINE
  5
274
330
1F
100
AcDbEntity
  8
SLD-0
  6
SLD-DURCHGEHEND
 62
     7
100
AcDbLine
 10
215.553228048
 20
70.7016999913
 30
0.0
 11
215.4621805717
 21
70.6293053735
 31
0.0
  0
LINE
  5
275
330
1F
100
AcDbEntity
  8
SLD-0
  6
SLD-DURCHGEHEND
 62
     7
100
AcDbLine
 10
215.9288758198
 20
65.3417935045
 30
0.0
 11
215.9288758198
 21
70.2276468017
 31
0.0
  0
LINE
  5
276
330
1F
100
AcDbEntity
  8
SLD-0
  6
SLD-DURCHGEHEND
 62
     7
100
AcDbLine
 10
205.109052533
 20
66.4973769228
 30
0.0
 11
205.1697353651
 21
66.4808846294
 31
0.0
  0
LINE
  5
277
330
1F
100
AcDbEntity
  8
SLD-0
  6
SLD-DURCHGEHEND
 62
     7
100
AcDbLine
 10
205.3092519471
 20
67.1071011602
 30
0.0
 11
205.3884964915
 21
67.0855641911
 31
0.0
  0
LINE
  5
278
330
1F
100
AcDbEntity
  8
SLD-0
  6
SLD-DURCHGEHEND
 62
     7
100
AcDbLine
 10
205.123475294
 20
66.2467177725
 30
0.0
 11
205.3855282265
 21
66.1754983469
 31
0.0
  0
LINE
  5
279
330
1F
100
AcDbEntity
  8
SLD-0
  6
SLD-DURCHGEHEND
 62
     7
100
AcDbLine
 10
205.4497330894
 20
67.2533806591
 30
0.0
 11
205.6066639648
 21
67.2107293976
 31
0.0
  0
LINE
  5
27A
330
1F
100
AcDbEntity
  8
SLD-0
  6
SLD-DURCHGEHEND
 62
     7
100
AcDbLine
 10
205.3907722703
 20
59.4706219674
 30
0.0
 11
208.928444925
 21
58.509158343
 31
0.0
  0
LINE
  5
27B
330
1F
100
AcDbEntity
  8
SLD-0
  6
SLD-DURCHGEHEND
 62
     7
100
AcDbLine
 10
205.6066643557
 20
66.4917452924
 30
0.0
 11
205.6731534911
 21
66.4736749701
 31
0.0
  0
LINE
  5
27C
330
1F
100
AcDbEntity
  8
SLD-0
  6
SLD-DURCHGEHEND
 62
     7
100
AcDbLine
 10
215.4621805717
 20
70.6293053735
 30
0.0
 11
211.924507917
 21
71.5907689979
 31
0.0
  0
LINE
  5
27D
330
1F
100
AcDbEntity
  8
SLD-0
  6
SLD-DURCHGEHEND
 62
     7
100
AcDbLine
 10
205.5541481566
 20
66.595053761
 30
0.0
 11
205.6066639648
 21
66.5807814027
 31
0.0
  0
LINE
  5
27E
330
1F
100
AcDbEntity
  8
SLD-0
  6
SLD-DURCHGEHEND
 62
     7
100
AcDbLine
 10
213.8404140249
 20
74.6179990759
 30
0.0
 11
213.8493811643
 21
74.4595267435
 31
0.0
  0
LINE
  5
27F
330
1F
100
AcDbEntity
  8
SLD-0
  6
SLD-DURCHGEHEND
 62
     7
100
AcDbLine
 10
213.8493811643
 20
74.4595267435
 30
0.0
 11
213.8759392136
 21
74.3246483911
 31
0.0
  0
LINE
  5
280
330
1F
100
AcDbEntity
  8
SLD-0
  6
SLD-DURCHGEHEND
 62
     7
100
AcDbLine
 10
213.8759392136
 20
74.3246483911
 30
0.0
 11
213.9190663251
 21
74.218548693
 31
0.0
  0
LINE
  5
281
330
1F
100
AcDbEntity
  8
SLD-0
  6
SLD-DURCHGEHEND
 62
     7
100
AcDbLine
 10
213.9190663251
 20
74.218548693
 30
0.0
 11
213.9771060704
 21
74.1453059916
 31
0.0
  0
LINE
  5
282
330
1F
100
AcDbEntity
  8
SLD-0
  6
SLD-DURCHGEHEND
 62
     7
100
AcDbLine
 10
213.9771060704
 20
74.1453059916
 30
0.0
 11
214.0478274224
 21
74.1077321061
 31
0.0
  0
LINE
  5
283
330
1F
100
AcDbEntity
  8
SLD-0
  6
SLD-DURCHGEHEND
 62
     7
100
AcDbLine
 10
214.0478274224
 20
74.1077321061
 30
0.0
 11
214.1285125523
 21
74.1072728209
 31
0.0
  0
LINE
  5
284
330
1F
100
AcDbEntity
  8
SLD-0
  6
SLD-DURCHGEHEND
 62
     7
100
AcDbLine
 10
214.1285125523
 20
74.1072728209
 30
0.0
 11
214.2160615794
 21
74.1439456741
 31
0.0
  0
LINE
  5
285
330
1F
100
AcDbEntity
  8
SLD-0
  6
SLD-DURCHGEHEND
 62
     7
100
AcDbLine
 10
214.2160615794
 20
74.1439456741
 30
0.0
 11
214.3071094904
 21
74.2163407161
 31
0.0
  0
LINE
  5
286
330
1F
100
AcDbEntity
  8
SLD-0
  6
SLD-DURCHGEHEND
 62
     7
100
AcDbLine
 10
213.8404140249
 20
79.7610021265
 30
0.0
 11
213.8404140249
 21
74.6179990759
 31
0.0
  0
LINE
  5
287
330
1F
100
AcDbEntity
  8
SLD-0
  6
SLD-DURCHGEHEND
 62
     7
100
AcDbLine
 10
218.0406724532
 20
84.7177513568
 30
0.0
 11
214.3071094904
 21
81.0736794475
 31
0.0
  0
LINE
  5
288
330
1F
100
AcDbEntity
  8
SLD-0
  6
SLD-DURCHGEHEND
 62
     7
100
AcDbLine
 10
218.5073678643
 20
84.3160921457
 30
0.0
 11
218.4984003989
 21
84.4745657565
 31
0.0
  0
LINE
  5
289
330
1F
100
AcDbEntity
  8
SLD-0
  6
SLD-DURCHGEHEND
 62
     7
100
AcDbLine
 10
218.4984003989
 20
84.4745657565
 30
0.0
 11
218.4718427842
 21
84.6094429366
 31
0.0
  0
LINE
  5
28A
330
1F
100
AcDbEntity
  8
SLD-0
  6
SLD-DURCHGEHEND
 62
     7
100
AcDbLine
 10
218.4718427842
 20
84.6094429366
 30
0.0
 11
218.4287155098
 21
84.7155424756
 31
0.0
  0
LINE
  5
28B
330
1F
100
AcDbEntity
  8
SLD-0
  6
SLD-DURCHGEHEND
 62
     7
100
AcDbLine
 10
218.4287155098
 20
84.7155424756
 30
0.0
 11
218.3706759274
 21
84.7887861344
 31
0.0
  0
LINE
  5
28C
330
1F
100
AcDbEntity
  8
SLD-0
  6
SLD-DURCHGEHEND
 62
     7
100
AcDbLine
 10
218.3706759274
 20
84.7887861344
 30
0.0
 11
218.2999545212
 21
84.8263599668
 31
0.0
  0
LINE
  5
28D
330
1F
100
AcDbEntity
  8
SLD-0
  6
SLD-DURCHGEHEND
 62
     7
100
AcDbLine
 10
218.2999545212
 20
84.8263599668
 30
0.0
 11
218.2192690653
 21
84.8268189339
 31
0.0
  0
LINE
  5
28E
330
1F
100
AcDbEntity
  8
SLD-0
  6
SLD-DURCHGEHEND
 62
     7
100
AcDbLine
 10
218.2192690653
 20
84.8268189339
 30
0.0
 11
218.1317202555
 21
84.7901462928
 31
0.0
  0
LINE
  5
28F
330
1F
100
AcDbEntity
  8
SLD-0
  6
SLD-DURCHGEHEND
 62
     7
100
AcDbLine
 10
218.1317202555
 20
84.7901462928
 30
0.0
 11
218.0406724532
 21
84.7177513568
 31
0.0
  0
LINE
  5
290
330
1F
100
AcDbEntity
  8
SLD-0
  6
SLD-DURCHGEHEND
 62
     7
100
AcDbLine
 10
218.5073678643
 20
79.1730890951
 30
0.0
 11
218.5073678643
 21
84.3160921457
 31
0.0
  0
LINE
  5
291
330
1F
100
AcDbEntity
  8
SLD-0
  6
SLD-DURCHGEHEND
 62
     7
100
AcDbLine
 10
214.3071094904
 20
74.2163407161
 30
0.0
 11
218.0406724532
 21
77.8604126255
 31
0.0
  0
LINE
  5
292
330
1F
100
AcDbEntity
  8
SLD-0
  6
SLD-DURCHGEHEND
 62
     7
100
AcDbLine
 10
213.8404140249
 20
79.7610021265
 30
0.0
 11
210.3027413702
 21
80.7224657509
 31
0.0
  0
LINE
  5
293
330
1F
100
AcDbEntity
  8
SLD-0
  6
SLD-DURCHGEHEND
 62
     7
100
AcDbLine
 10
210.7694368357
 20
82.0351430719
 30
0.0
 11
214.3071094904
 21
81.0736794475
 31
0.0
  0
LINE
  5
294
330
1F
100
AcDbEntity
  8
SLD-0
  6
SLD-DURCHGEHEND
 62
     7
100
AcDbLine
 10
205.8251285756
 20
67.5265491355
 30
0.0
 11
205.8916173994
 21
67.5084789319
 31
0.0
  0
LINE
  5
295
330
1F
100
AcDbEntity
  8
SLD-0
  6
SLD-DURCHGEHEND
 62
     7
100
AcDbLine
 10
205.8251285756
 20
67.1233936411
 30
0.0
 11
205.891617711
 21
67.1053233188
 31
0.0
  0
LINE
  5
296
330
1F
100
AcDbEntity
  8
SLD-0
  6
SLD-DURCHGEHEND
 62
     7
100
AcDbLine
 10
205.9944665647
 20
67.7672004459
 30
0.0
 11
206.0667453427
 21
67.7475557586
 31
0.0
  0
LINE
  5
297
330
1F
100
AcDbEntity
  8
SLD-0
  6
SLD-DURCHGEHEND
 62
     7
100
AcDbLine
 10
206.0608803941
 20
67.8605722498
 30
0.0
 11
206.2506290443
 21
67.8090019269
 31
0.0
  0
LINE
  5
298
330
1F
100
AcDbEntity
  8
SLD-0
  6
SLD-DURCHGEHEND
 62
     7
100
AcDbLine
 10
210.3027413702
 20
75.5794627003
 30
0.0
 11
213.8404140249
 21
74.6179990759
 31
0.0
  0
LINE
  5
299
330
1F
100
AcDbEntity
  8
SLD-0
  6
SLD-DURCHGEHEND
 62
     7
100
AcDbLine
 10
205.8251285756
 20
66.7049730684
 30
0.0
 11
205.891617711
 21
66.6869027461
 31
0.0
  0
LINE
  5
29A
330
1F
100
AcDbEntity
  8
SLD-0
  6
SLD-DURCHGEHEND
 62
     7
100
AcDbLine
 10
218.0406724532
 20
84.7177513568
 30
0.0
 11
214.5029997984
 21
85.6792149812
 31
0.0
  0
LINE
  5
29B
330
1F
100
AcDbEntity
  8
SLD-0
  6
SLD-DURCHGEHEND
 62
     7
100
AcDbLine
 10
206.1955681296
 20
67.4533332388
 30
0.0
 11
206.2620572649
 21
67.4352629165
 31
0.0
  0
LINE
  5
29C
330
1F
100
AcDbEntity
  8
SLD-0
  6
SLD-DURCHGEHEND
 62
     7
100
AcDbLine
 10
206.3676218911
 20
68.1285770772
 30
0.0
 11
206.4376301363
 21
68.1095499878
 31
0.0
  0
LINE
  5
29D
330
1F
100
AcDbEntity
  8
SLD-0
  6
SLD-DURCHGEHEND
 62
     7
100
AcDbLine
 10
206.564282913
 20
67.9671933716
 30
0.0
 11
206.6324963293
 21
67.9486544267
 31
0.0
  0
LINE
  5
29E
330
1F
100
AcDbEntity
  8
SLD-0
  6
SLD-DURCHGEHEND
 62
     7
100
AcDbLine
 10
206.1955681296
 20
67.0665332996
 30
0.0
 11
206.2620572649
 21
67.0484629773
 31
0.0
  0
LINE
  5
29F
330
1F
100
AcDbEntity
  8
SLD-0
  6
SLD-DURCHGEHEND
 62
     7
100
AcDbLine
 10
206.5660074081
 20
67.4280927182
 30
0.0
 11
206.6324965434
 21
67.4100223959
 31
0.0
  0
LINE
  5
2A0
330
1F
100
AcDbEntity
  8
SLD-0
  6
SLD-DURCHGEHEND
 62
     7
100
AcDbLine
 10
206.7712809822
 20
68.1197634993
 30
0.0
 11
206.8319637336
 21
68.1032704749
 31
0.0
  0
LINE
  5
2A1
330
1F
100
AcDbEntity
  8
SLD-0
  6
SLD-DURCHGEHEND
 62
     7
100
AcDbLine
 10
206.9714799171
 20
68.7294871192
 30
0.0
 11
207.0507248599
 21
68.7079500366
 31
0.0
  0
LINE
  5
2A2
330
1F
100
AcDbEntity
  8
SLD-0
  6
SLD-DURCHGEHEND
 62
     7
100
AcDbLine
 10
206.7857040709
 20
67.869104094
 30
0.0
 11
207.0477565158
 21
67.7978841925
 31
0.0
  0
LINE
  5
2A3
330
1F
100
AcDbEntity
  8
SLD-0
  6
SLD-DURCHGEHEND
 62
     7
100
AcDbLine
 10
207.1189046717
 20
68.8823281895
 30
0.0
 11
207.2688922541
 21
68.8415654326
 31
0.0
  0
LINE
  5
2A4
330
1F
100
AcDbEntity
  8
SLD-0
  6
SLD-DURCHGEHEND
 62
     7
100
AcDbLine
 10
207.2688923426
 20
68.1141307655
 30
0.0
 11
207.3353814779
 21
68.0960604432
 31
0.0
  0
LINE
  5
2A5
330
1F
100
AcDbEntity
  8
SLD-0
  6
SLD-DURCHGEHEND
 62
     7
100
AcDbLine
 10
207.2163760643
 20
68.2174392341
 30
0.0
 11
207.2688922541
 21
68.2031672483
 31
0.0
  0
LINE
  5
2A6
330
1F
100
AcDbEntity
  8
SLD-0
  6
SLD-DURCHGEHEND
 62
     7
100
AcDbLine
 10
207.4873564924
 20
69.1423933445
 30
0.0
 11
207.5538456978
 21
69.1243226953
 31
0.0
  0
LINE
  5
2A7
330
1F
100
AcDbEntity
  8
SLD-0
  6
SLD-DURCHGEHEND
 62
     7
100
AcDbLine
 10
207.4873561915
 20
68.9665403323
 30
0.0
 11
207.5640862119
 21
68.9456869224
 31
0.0
  0
LINE
  5
2A8
330
1F
100
AcDbEntity
  8
SLD-0
  6
SLD-DURCHGEHEND
 62
     7
100
AcDbLine
 10
207.6759715607
 20
69.4084207822
 30
0.0
 11
207.7482670516
 21
69.3887718754
 31
0.0
  0
LINE
  5
2A9
330
1F
100
AcDbEntity
  8
SLD-0
  6
SLD-DURCHGEHEND
 62
     7
100
AcDbLine
 10
207.4873565624
 20
68.6868997542
 30
0.0
 11
207.5538456978
 21
68.6688294319
 31
0.0
  0
LINE
  5
2AA
330
1F
100
AcDbEntity
  8
SLD-0
  6
SLD-DURCHGEHEND
 62
     7
100
AcDbLine
 10
207.8943573966
 20
69.2342204236
 30
0.0
 11
207.962278954
 21
69.2157607996
 31
0.0
  0
LINE
  5
2AB
330
1F
100
AcDbEntity
  8
SLD-0
  6
SLD-DURCHGEHEND
 62
     7
100
AcDbLine
 10
207.4873565624
 20
68.3273585415
 30
0.0
 11
207.5538456978
 21
68.3092882192
 31
0.0
  0
LINE
  5
2AC
330
1F
100
AcDbEntity
  8
SLD-0
  6
SLD-DURCHGEHEND
 62
     7
100
AcDbLine
 10
207.8957896748
 20
68.7260010557
 30
0.0
 11
207.9622788101
 21
68.7079307335
 31
0.0
  0
LINE
  5
2AD
330
1F
100
AcDbEntity
  8
SLD-0
  6
SLD-DURCHGEHEND
 62
     7
100
AcDbLine
 10
208.1142539647
 20
69.7542644275
 30
0.0
 11
208.1807433239
 21
69.7361939285
 31
0.0
  0
LINE
  5
2AE
330
1F
100
AcDbEntity
  8
SLD-0
  6
SLD-DURCHGEHEND
 62
     7
100
AcDbLine
 10
208.1142543091
 20
69.5784121136
 30
0.0
 11
208.1909836141
 21
69.5575580054
 31
0.0
  0
LINE
  5
2AF
330
1F
100
AcDbEntity
  8
SLD-0
  6
SLD-DURCHGEHEND
 62
     7
100
AcDbLine
 10
208.302868809
 20
70.020291715
 30
0.0
 11
208.3751644538
 21
70.0006429584
 31
0.0
  0
LINE
  5
2B0
330
1F
100
AcDbEntity
  8
SLD-0
  6
SLD-DURCHGEHEND
 62
     7
100
AcDbLine
 10
208.1142539647
 20
69.2987708372
 30
0.0
 11
208.1807431
 21
69.2807005149
 31
0.0
  0
LINE
  5
2B1
330
1F
100
AcDbEntity
  8
SLD-0
  6
SLD-DURCHGEHEND
 62
     7
100
AcDbLine
 10
208.5212550228
 20
69.8460916567
 30
0.0
 11
208.5891765802
 21
69.8276320328
 31
0.0
  0
LINE
  5
2B2
330
1F
100
AcDbEntity
  8
SLD-0
  6
SLD-DURCHGEHEND
 62
     7
100
AcDbLine
 10
208.1142539647
 20
68.9392296245
 30
0.0
 11
208.1807431
 21
68.9211593022
 31
0.0
  0
LINE
  5
2B3
330
1F
100
AcDbEntity
  8
SLD-0
  6
SLD-DURCHGEHEND
 62
     7
100
AcDbLine
 10
208.52268731
 20
69.3378724128
 30
0.0
 11
208.5891764453
 21
69.3198020905
 31
0.0
  0
ARC
  5
2B4
330
1F
100
AcDbEntity
  8
SLD-0
  6
SLD-DURCHGEHEND
 62
     7
100
AcDbCircle
 10
138.8257958288
 20
173.2804610318
 30
0.0
 40
1.0
100
AcDbArc
 50
90.0
 51
180.0
  0
ARC
  5
2B5
330
1F
100
AcDbEntity
  8
SLD-0
  6
SLD-DURCHGEHEND
 62
     7
100
AcDbCircle
 10
151.8257949109
 20
173.2804619498
 30
0.0
 40
1.000000917950015
100
AcDbArc
 50
359.9999474054
 51
89.9999491128
  0
ARC
  5
2B6
330
1F
100
AcDbEntity
  8
SLD-0
  6
SLD-DURCHGEHEND
 62
     7
100
AcDbCircle
 10
151.8257958288
 20
167.5804610318
 30
0.0
 40
1.0
100
AcDbArc
 50
270.0
 51
0.0
  0
ARC
  5
2B7
330
1F
100
AcDbEntity
  8
SLD-0
  6
SLD-DURCHGEHEND
 62
     7
100
AcDbCircle
 10
138.8257958288
 20
167.5804610318
 30
0.0
 40
1.0
100
AcDbArc
 50
180.0
 51
270.0
  0
ARC
  5
2B8
330
1F
100
AcDbEntity
  8
SLD-0
  6
SLD-DURCHGEHEND
 62
     7
100
AcDbCircle
 10
141.3007958288
 20
160.0804610318
 30
0.0
 40
1.0
100
AcDbArc
 50
0.0
 51
90.0
  0
ARC
  5
2B9
330
1F
100
AcDbEntity
  8
SLD-0
  6
SLD-DURCHGEHEND
 62
     7
100
AcDbCircle
 10
141.3007958288
 20
154.0804610318
 30
0.0
 40
1.0
100
AcDbArc
 50
270.0
 51
0.0
  0
ARC
  5
2BA
330
1F
100
AcDbEntity
  8
SLD-0
  6
SLD-DURCHGEHEND
 62
     7
100
AcDbCircle
 10
133.3007958288
 20
154.0804610318
 30
0.0
 40
1.0
100
AcDbArc
 50
180.0
 51
270.0
  0
ARC
  5
2BB
330
1F
100
AcDbEntity
  8
SLD-0
  6
SLD-DURCHGEHEND
 62
     7
100
AcDbCircle
 10
133.3007958288
 20
160.0804610318
 30
0.0
 40
1.0
100
AcDbArc
 50
90.0
 51
180.0
  0
ARC
  5
2BC
330
1F
100
AcDbEntity
  8
SLD-0
  6
SLD-DURCHGEHEND
 62
     7
100
AcDbCircle
 10
138.8257958288
 20
140.8804610318
 30
0.0
 40
1.0
100
AcDbArc
 50
180.0
 51
270.0
  0
ARC
  5
2BD
330
1F
100
AcDbEntity
  8
SLD-0
  6
SLD-DURCHGEHEND
 62
     7
100
AcDbCircle
 10
138.8257958288
 20
146.5804610318
 30
0.0
 40
1.0
100
AcDbArc
 50
90.0
 51
180.0
  0
ARC
  5
2BE
330
1F
100
AcDbEntity
  8
SLD-0
  6
SLD-DURCHGEHEND
 62
     7
100
AcDbCircle
 10
151.8257957772
 20
146.5804610318
 30
0.0
 40
1.000000000000003
100
AcDbArc
 50
0.0000047269
 51
89.9999970435
  0
ARC
  5
2BF
330
1F
100
AcDbEntity
  8
SLD-0
  6
SLD-DURCHGEHEND
 62
     7
100
AcDbCircle
 10
151.8257958288
 20
140.8804611143
 30
0.0
 40
1.000000082499985
100
AcDbArc
 50
269.9999982926
 51
359.9999942819
  0
CIRCLE
  5
2C0
330
1F
100
AcDbEntity
  8
SLD-0
  6
SLD-DURCHGEHEND
 62
     7
100
AcDbCircle
 10
151.2007958288
 20
157.0804610318
 30
0.0
 40
5.499999999999972
  0
ARC
  5
2C1
330
1F
100
AcDbEntity
  8
SLD-0
  6
SLD-DURCHGEHEND
 62
     7
100
AcDbCircle
 10
158.9507958288
 20
175.0804618067
 30
0.0
 40
0.9999998360500443
100
AcDbArc
 50
359.9999735322
 51
90.0000350049
  0
ARC
  5
2C2
330
1F
100
AcDbEntity
  8
SLD-0
  6
SLD-DURCHGEHEND
 62
     7
100
AcDbCircle
 10
131.7007958288
 20
139.0804610318
 30
0.0
 40
1.0
100
AcDbArc
 50
180.0
 51
270.0
  0
ARC
  5
2C3
330
1F
100
AcDbEntity
  8
SLD-0
  6
SLD-DURCHGEHEND
 62
     7
100
AcDbCircle
 10
158.9507958288
 20
139.0804608678
 30
0.0
 40
0.9999998360500585
100
AcDbArc
 50
269.9999718219
 51
0.0000027216
  0
ARC
  5
2C4
330
1F
100
AcDbEntity
  8
SLD-0
  6
SLD-DURCHGEHEND
 62
     7
100
AcDbCircle
 10
131.7007952178
 20
175.0804610318
 30
0.0
 40
0.9999993890499763
100
AcDbArc
 50
89.9999972784
 51
180.0
  0
ARC
  5
2C5
330
1F
100
AcDbEntity
  8
SLD-0
  6
SLD-DURCHGEHEND
 62
     7
100
AcDbCircle
 10
198.0063942363
 20
175.0804610318
 30
0.0
 40
0.9999998360500513
100
AcDbArc
 50
90.0
 51
179.9999726756
  0
ARC
  5
2C6
330
1F
100
AcDbEntity
  8
SLD-0
  6
SLD-DURCHGEHEND
 62
     7
100
AcDbCircle
 10
225.2563948473
 20
175.0804602569
 30
0.0
 40
0.9999993890500214
100
AcDbArc
 50
0.0000537922
 51
90.0000377207
  0
ARC
  5
2C7
330
1F
100
AcDbEntity
  8
SLD-0
  6
SLD-DURCHGEHEND
 62
     7
100
AcDbCircle
 10
225.2563942363
 20
139.0804611958
 30
0.0
 40
1.000000000000001
100
AcDbArc
 50
270.0
 51
0.0000027215
  0
ARC
  5
2C8
330
1F
100
AcDbEntity
  8
SLD-0
  6
SLD-DURCHGEHEND
 62
     7
100
AcDbCircle
 10
198.0063942364
 20
139.0804610318
 30
0.0
 40
0.9999998360500585
100
AcDbArc
 50
179.9999972785
 51
270.0000281781
  0
CIRCLE
  5
2C9
330
1F
100
AcDbEntity
  8
SLD-0
  6
SLD-DURCHGEHEND
 62
     7
100
AcDbCircle
 10
205.7563940724
 20
157.0804610318
 30
0.0
 40
5.499999999999972
  0
ARC
  5
2CA
330
1F
100
AcDbEntity
  8
SLD-0
  6
SLD-DURCHGEHEND
 62
     7
100
AcDbCircle
 10
207.4357284581
 20
87.2550999197
 30
0.0
 40
2.044992923187503
100
AcDbArc
 50
140.5129477478
 51
180.3434273528
  0
ARC
  5
2CB
330
1F
100
AcDbEntity
  8
SLD-0
  6
SLD-DURCHGEHEND
 62
     7
100
AcDbCircle
 10
205.8926779312
 20
82.2626202401
 30
0.0
 40
0.5107001371877653
100
AcDbArc
 50
169.3515881838
 51
234.3744775596
  0
ARC
  5
2CC
330
1F
100
AcDbEntity
  8
SLD-0
  6
SLD-DURCHGEHEND
 62
     7
100
AcDbCircle
 10
212.143217389
 20
94.3180414397
 30
0.0
 40
0.2704531409824061
100
AcDbArc
 50
80.7323504674
 51
143.9669569043
  0
ARC
  5
2CD
330
1F
100
AcDbEntity
  8
SLD-0
  6
SLD-DURCHGEHEND
 62
     7
100
AcDbCircle
 10
212.3476989103
 20
80.734723746
 30
0.0
 40
2.04499427849712
100
AcDbArc
 50
140.5129612386
 51
180.3434413484
  0
ARC
  5
2CE
330
1F
100
AcDbEntity
  8
SLD-0
  6
SLD-DURCHGEHEND
 62
     7
100
AcDbCircle
 10
210.804650303
 20
75.4850946666
 30
0.0
 40
0.5107033411392461
100
AcDbArc
 50
169.3516629497
 51
234.3742235445
  0
ARC
  5
2CF
330
1F
100
AcDbEntity
  8
SLD-0
  6
SLD-DURCHGEHEND
 62
     7
100
AcDbCircle
 10
214.7217000419
 20
85.520142526
 30
0.0
 40
0.2704326949755536
100
AcDbArc
 50
80.7296158586
 51
143.9695882135
  0
ARC
  5
2D0
330
1F
100
AcDbEntity
  8
SLD-0
  6
SLD-DURCHGEHEND
 62
     7
100
AcDbCircle
 10
204.11052372
 20
85.5524996796
 30
0.0
 40
2.044992616944167
100
AcDbArc
 50
140.5129446068
 51
180.3434332327
  0
ARC
  5
2D1
330
1F
100
AcDbEntity
  8
SLD-0
  6
SLD-DURCHGEHEND
 62
     7
100
AcDbCircle
 10
212.1432217619
 20
71.431664824
 30
0.0
 40
0.2704623524905134
100
AcDbArc
 50
80.7336075111
 51
143.9658490569
  0
ARC
  5
2D2
330
1F
100
AcDbEntity
  8
SLD-0
  6
SLD-DURCHGEHEND
 62
     7
100
AcDbCircle
 10
207.4357287227
 20
64.3687328557
 30
0.0
 40
2.044993188428011
100
AcDbArc
 50
140.512950386
 51
180.3434302096
  0
ARC
  5
2D3
330
1F
100
AcDbEntity
  8
SLD-0
  6
SLD-DURCHGEHEND
 62
     7
100
AcDbCircle
 10
205.8926772078
 20
59.3762529301
 30
0.0
 40
0.5106996000699998
100
AcDbArc
 50
169.3514694667
 51
234.374534223
  0
ARC
  5
2D4
330
1F
100
AcDbEntity
  8
SLD-0
  6
SLD-DURCHGEHEND
 62
     7
100
AcDbCircle
 10
201.3511391728
 20
86.3024412733
 30
0.0
 40
2.044992616894555
100
AcDbArc
 50
140.5129446114
 51
180.3434332367
  0
ARC
  5
2D5
330
1F
100
AcDbEntity
  8
SLD-0
  6
SLD-DURCHGEHEND
 62
     7
100
AcDbCircle
 10
210.9734011128
 20
86.2936362952
 30
0.0
 40
2.044992923231382
100
AcDbArc
 50
140.5129477464
 51
180.3434273511
  0
ARC
  5
2D6
330
1F
100
AcDbEntity
  8
SLD-0
  6
SLD-DURCHGEHEND
 62
     7
100
AcDbCircle
 10
213.8839250242
 20
88.2159010112
 30
0.0
 40
2.044987539388261
100
AcDbArc
 50
320.5129028166
 51
0.3434667844
  0
ARC
  5
2D7
330
1F
100
AcDbEntity
  8
SLD-0
  6
SLD-DURCHGEHEND
 62
     7
100
AcDbCircle
 10
194.3142585819
 20
77.3628477415
 30
0.0
 40
11.6423388973848
100
AcDbArc
 50
323.5002896465
 51
359.9474812346
  0
ARC
  5
2D8
330
1F
100
AcDbEntity
  8
SLD-0
  6
SLD-DURCHGEHEND
 62
     7
100
AcDbCircle
 10
199.2808803605
 20
77.4076954059
 30
0.0
 40
6.675943090243453
100
AcDbArc
 50
359.5235040658
 51
9.4695284538
  0
ARC
  5
2D9
330
1F
100
AcDbEntity
  8
SLD-0
  6
SLD-DURCHGEHEND
 62
     7
100
AcDbCircle
 10
210.9734013774
 20
63.4072692313
 30
0.0
 40
2.044993188436557
100
AcDbArc
 50
140.5129503861
 51
180.3434302111
  0
ARC
  5
2DA
330
1F
100
AcDbEntity
  8
SLD-0
  6
SLD-DURCHGEHEND
 62
     7
100
AcDbCircle
 10
213.8839127299
 20
65.3295366404
 30
0.0
 40
2.044999821490089
100
AcDbArc
 50
320.5130268588
 51
0.3434087277
  0
ARC
  5
2DB
330
1F
100
AcDbEntity
  8
SLD-0
  6
SLD-DURCHGEHEND
 62
     7
100
AcDbCircle
 10
199.8080946373
 20
55.3377939178
 30
0.0
 40
0.5107054218674905
100
AcDbArc
 50
169.351885743
 51
234.3741179338
  0
ARC
  5
2DC
330
1F
100
AcDbEntity
  8
SLD-0
  6
SLD-DURCHGEHEND
 62
     7
100
AcDbCircle
 10
215.885371565
 20
79.7732601216
 30
0.0
 40
2.044994278518084
100
AcDbArc
 50
140.5129612388
 51
180.3434413485
  0
ARC
  5
2DD
330
1F
100
AcDbEntity
  8
SLD-0
  6
SLD-DURCHGEHEND
 62
     7
100
AcDbCircle
 10
216.4624117617
 20
79.1608313669
 30
0.0
 40
2.04499283944704
100
AcDbArc
 50
320.5129492312
 51
0.3434341097
  0
ARC
  5
2DE
330
1F
100
AcDbEntity
  8
SLD-0
  6
SLD-DURCHGEHEND
 62
     7
100
AcDbCircle
 10
212.7090358661
 20
99.8563898457
 30
0.0
 40
0.2704494998711816
100
AcDbArc
 50
80.7318702398
 51
143.9674912803
  0
SPLINE
  5
2DF
330
1F
100
AcDbEntity
  8
SLD-0
  6
SLD-DURCHGEHEND
 62
     7
100
AcDbSpline
210
0.0
220
0.0
230
1.0
 70
     8
 71
     3
 72
    23
 73
    19
 74
     0
 42
0.000000001
 43
0.00000001
 40
0.0
 40
0.0
 40
0.0
 40
0.0
 40
0.0686739183917647
 40
0.1368646806285657
 40
0.2061049032675444
 40
0.2775254520848126
 40
0.3497559345117782
 40
0.421231514581051
 40
0.4928881485126501
 40
0.5666222165247115
 40
0.6062079650046314
 40
0.6497024328398633
 40
0.6972994465661421
 40
0.7491468421890999
 40
0.8048895970275664
 40
0.865491175521515
 40
0.930240326977164
 40
1.0
 40
1.0
 40
1.0
 40
1.0
 10
151.3773722420458
 20
164.3940227781367
 30
0.0
 10
151.394615304922
 20
164.3947169533256
 30
0.0
 10
151.4289801169041
 20
164.3961004198258
 30
0.0
 10
151.479463576949
 20
164.4085528603757
 30
0.0
 10
151.528215752587
 20
164.4280584109876
 30
0.0
 10
151.5744604970542
 20
164.4551178923766
 30
0.0
 10
151.6169446076546
 20
164.4886383250477
 30
0.0
 10
151.6541553188841
 20
164.5280533171053
 30
0.0
 10
151.6853180630758
 20
164.5728371650169
 30
0.0
 10
151.7062060177661
 20
164.6144588473966
 30
0.0
 10
151.7195840026804
 20
164.6514712688993
 30
0.0
 10
151.7283985347995
 20
164.6830572416945
 30
0.0
 10
151.7359488212595
 20
164.7181104307219
 30
0.0
 10
151.7422786211636
 20
164.7565190125682
 30
0.0
 10
151.747056115725
 20
164.7984416071355
 30
0.0
 10
151.7499107664617
 20
164.8437660354096
 30
0.0
 10
151.7524214943081
 20
164.8926335542052
 30
0.0
 10
151.7525539485646
 20
164.9263656836028
 30
0.0
 10
151.7526226426869
 20
164.9438600177201
 30
0.0
  0
SPLINE
  5
2E0
330
1F
100
AcDbEntity
  8
SLD-0
  6
SLD-DURCHGEHEND
 62
     7
100
AcDbSpline
210
0.0
220
0.0
230
1.0
 70
     8
 71
     3
 72
    23
 73
    19
 74
     0
 42
0.000000001
 43
0.00000001
 40
0.0
 40
0.0
 40
0.0
 40
0.0
 40
0.0825023125334676
 40
0.1587261568314579
 40
0.227662476735663
 40
0.2898494209590874
 40
0.3453269589521894
 40
0.3937910809625437
 40
0.4362544307123193
 40
0.4718400628811477
 40
0.5362924968382342
 40
0.5989659750684696
 40
0.6614607608870726
 40
0.7261291881442951
 40
0.7920242677856649
 40
0.8586942182094853
 40
0.9273294608854423
 40
0.9999999999999999
 40
0.9999999999999999
 40
0.9999999999999999
 40
0.9999999999999999
 10
151.1013405914048
 20
164.8420971972073
 30
0.0
 10
151.1013750047808
 20
164.8254539678538
 30
0.0
 10
151.1014412126573
 20
164.793434067424
 30
0.0
 10
151.1026763690566
 20
164.7475198446601
 30
0.0
 10
151.104913688983
 20
164.7057463506272
 30
0.0
 10
151.1078033615349
 20
164.6682184613267
 30
0.0
 10
151.1109396696988
 20
164.6348342358163
 30
0.0
 10
151.1159028718171
 20
164.6057030609263
 30
0.0
 10
151.121076761366
 20
164.580704098909
 30
0.0
 10
151.1289716101051
 20
164.5530198962137
 30
0.0
 10
151.1426519486641
 20
164.5229956068708
 30
0.0
 10
151.1634357333449
 20
164.4907159091096
 30
0.0
 10
151.1893912710612
 20
164.4623193158053
 30
0.0
 10
151.2198916970458
 20
164.4378675588805
 30
0.0
 10
151.2546107862672
 20
164.4180539187463
 30
0.0
 10
151.2928811628299
 20
164.4040686103571
 30
0.0
 10
151.3341784791018
 20
164.3956132336028
 30
0.0
 10
151.3627027962574
 20
164.3945629278863
 30
0.0
 10
151.3773722420458
 20
164.3940227781367
 30
0.0
  0
SPLINE
  5
2E1
330
1F
100
AcDbEntity
  8
SLD-0
  6
SLD-DURCHGEHEND
 62
     7
100
AcDbSpline
210
0.0
220
0.0
230
1.0
 70
     8
 71
     3
 72
    23
 73
    19
 74
     0
 42
0.000000001
 43
0.00000001
 40
0.0
 40
0.0
 40
0.0
 40
0.0
 40
0.0681947041710859
 40
0.1350505877983526
 40
0.2019935769531585
 40
0.2707179199564292
 40
0.339960838345468
 40
0.4080260561526856
 40
0.4767633523490706
 40
0.5473032407644537
 40
0.5856007828382508
 40
0.6288302423201686
 40
0.6771232981085654
 40
0.7311765018655215
 40
0.7897856972796747
 40
0.8543105113005016
 40
0.9243576069450613
 40
1.0
 40
1.0
 40
1.0
 40
1.0
 10
150.5826680247215
 20
164.3940235641087
 30
0.0
 10
150.6006428227473
 20
164.3948588763186
 30
0.0
 10
150.636239531736
 20
164.3965131016181
 30
0.0
 10
150.6884199480197
 20
164.4085379938838
 30
0.0
 10
150.7378969027116
 20
164.4290284715771
 30
0.0
 10
150.7844867573643
 20
164.4566481945479
 30
0.0
 10
150.8270029102238
 20
164.4907207700493
 30
0.0
 10
150.8637203362422
 20
164.5310193039741
 30
0.0
 10
150.8940272095524
 20
164.576674774996
 30
0.0
 10
150.9145542322772
 20
164.6189203663129
 30
0.0
 10
150.9275224192829
 20
164.6568707458102
 30
0.0
 10
150.9360802895601
 20
164.6900260897834
 30
0.0
 10
150.9427772863247
 20
164.7278103535646
 30
0.0
 10
150.9489365031515
 20
164.7697804736935
 30
0.0
 10
150.9530932418423
 20
164.816293831899
 30
0.0
 10
150.9567652643823
 20
164.8670632206389
 30
0.0
 10
150.958505834511
 20
164.9224361851272
 30
0.0
 10
150.9587471566633
 20
164.9608205537698
 30
0.0
 10
150.9588724518048
 20
164.980749826128
 30
0.0
  0
SPLINE
  5
2E2
330
1F
100
AcDbEntity
  8
SLD-0
  6
SLD-DURCHGEHEND
 62
     7
100
AcDbSpline
210
0.0
220
0.0
230
1.0
 70
     8
 71
     3
 72
    23
 73
    19
 74
     0
 42
0.000000001
 43
0.00000001
 40
0.0
 40
0.0
 40
0.0
 40
0.0
 40
0.0783389356318479
 40
0.150555520237408
 40
0.2161398837761309
 40
0.2756655425173862
 40
0.3292451513510076
 40
0.3764400961771467
 40
0.4178354192432738
 40
0.4532244401979189
 40
0.5177936461318938
 40
0.5812821809636853
 40
0.6453841932592864
 40
0.7120833447978593
 40
0.7806778212162335
 40
0.8502354798028285
 40
0.923211124910322
 40
1.0
 40
1.0
 40
1.0
 40
1.0
 10
150.3075904005228
 20
164.8029828990447
 30
0.0
 10
150.3076255545305
 20
164.7881417597336
 30
0.0
 10
150.307693115187
 20
164.7596193470679
 30
0.0
 10
150.3089171242399
 20
164.7186837010867
 30
0.0
 10
150.3112116958787
 20
164.6813681761971
 30
0.0
 10
150.3139358966471
 20
164.6476240633863
 30
0.0
 10
150.3176182359519
 20
164.6174619598084
 30
0.0
 10
150.3224800622968
 20
164.5909663072676
 30
0.0
 10
150.3275898137438
 20
164.568016289146
 30
0.0
 10
150.3360987924746
 20
164.5425842427514
 30
0.0
 10
150.3495760705782
 20
164.5145541366584
 30
0.0
 10
150.3704756776944
 20
164.4845398705114
 30
0.0
 10
150.3964237014305
 20
164.4582298120566
 30
0.0
 10
150.4265828467762
 20
164.4352515960945
 30
0.0
 10
150.4609782002094
 20
164.4169320742439
 30
0.0
 10
150.4987345601637
 20
164.4033577304948
 30
0.0
 10
150.5397161817339
 20
164.3953323725892
 30
0.0
 10
150.5681097626311
 20
164.3944671766655
 30
0.0
 10
150.5826680247215
 20
164.3940235641087
 30
0.0
  0
SPLINE
  5
2E3
330
1F
100
AcDbEntity
  8
SLD-0
  6
SLD-DURCHGEHEND
 62
     7
100
AcDbSpline
210
0.0
220
0.0
230
1.0
 70
     8
 71
     3
 72
    23
 73
    19
 74
     0
 42
0.000000001
 43
0.00000001
 40
0.0
 40
0.0
 40
0.0
 40
0.0
 40
0.0755870098959698
 40
0.147931117387253
 40
0.2186039988489584
 40
0.2892612546893332
 40
0.3594989326435167
 40
0.4294664204106213
 40
0.50057781413446
 40
0.5741235861930853
 40
0.6136328091008552
 40
0.6568308839529097
 40
0.7040405881798165
 40
0.754995127153321
 40
0.8097502066180159
 40
0.8688630034575786
 40
0.9324009641054118
 40
0.9999999999999999
 40
0.9999999999999999
 40
0.9999999999999999
 40
0.9999999999999999
 10
150.5578637366167
 20
164.2515553450179
 30
0.0
 10
150.5384105504822
 20
164.2522796810801
 30
0.0
 10
150.5003387764354
 20
164.2536972770823
 30
0.0
 10
150.4450064694997
 20
164.2650921975676
 30
0.0
 10
150.3931825268677
 20
164.2839518333097
 30
0.0
 10
150.345416229706
 20
164.3104743545881
 30
0.0
 10
150.3022626264366
 20
164.3436451808795
 30
0.0
 10
150.2646093807648
 20
164.3831587656599
 30
0.0
 10
150.233284377576
 20
164.4288707934042
 30
0.0
 10
150.2123427564779
 20
164.4715303624876
 30
0.0
 10
150.1984016141418
 20
164.5092631599695
 30
0.0
 10
150.1896948056847
 20
164.5415593405203
 30
0.0
 10
150.1821515401913
 20
164.5771340484523
 30
0.0
 10
150.1757559886141
 20
164.6159586708025
 30
0.0
 10
150.171132297886
 20
164.6581118155671
 30
0.0
 10
150.1676951003442
 20
164.7036128504928
 30
0.0
 10
150.1653719443669
 20
164.7525013145414
 30
0.0
 10
150.1652075789554
 20
164.7862313496834
 30
0.0
 10
150.1651228512
 20
164.8036186463
 30
0.0
  0
SPLINE
  5
2E4
330
1F
100
AcDbEntity
  8
SLD-0
  6
SLD-DURCHGEHEND
 62
     7
100
AcDbSpline
210
0.0
220
0.0
230
1.0
 70
     8
 71
     3
 72
    19
 73
    15
 74
     0
 42
0.000000001
 43
0.00000001
 40
0.0
 40
0.0
 40
0.0
 40
0.0
 40
0.0717504136809243
 40
0.1411947378246875
 40
0.209070249287009
 40
0.2747797174550263
 40
0.3394088971953608
 40
0.40279242107395
 40
0.4652444212383343
 40
0.5271216758075818
 40
0.6476775551078984
 40
0.7650331089201898
 40
0.8816409039825998
 40
1.0
 40
1.0
 40
1.0
 40
1.0
 10
150.983359529886
 20
164.5317211102424
 30
0.0
 10
150.9771403842599
 20
164.520506942262
 30
0.0
 10
150.9649019790563
 20
164.4984390345433
 30
0.0
 10
150.9443542619808
 20
164.4672051482649
 30
0.0
 10
150.9228182885012
 20
164.4379984448566
 30
0.0
 10
150.9001453612342
 20
164.4107583784322
 30
0.0
 10
150.8762402043079
 20
164.385701945876
 30
0.0
 10
150.851488185302
 20
164.3623173867901
 30
0.0
 10
150.8253342504918
 20
164.3412544804351
 30
0.0
 10
150.7891612293191
 20
164.3166010653807
 30
0.0
 10
150.7422139443673
 20
164.2904324544633
 30
0.0
 10
150.6827729837619
 20
164.2680252019086
 30
0.0
 10
150.6210523236158
 20
164.2540517175445
 30
0.0
 10
150.5790309994532
 20
164.2523915937128
 30
0.0
 10
150.5578637366167
 20
164.2515553450179
 30
0.0
  0
SPLINE
  5
2E5
330
1F
100
AcDbEntity
  8
SLD-0
  6
SLD-DURCHGEHEND
 62
     7
100
AcDbSpline
210
0.0
220
0.0
230
1.0
 70
     8
 71
     3
 72
    19
 73
    15
 74
     0
 42
0.000000001
 43
0.00000001
 40
0.0
 40
0.0
 40
0.0
 40
0.0
 40
0.0841421131422533
 40
0.1665127174467231
 40
0.2488070401254429
 40
0.3318024620130215
 40
0.4129339673470686
 40
0.4904620089401796
 40
0.5661146169846996
 40
0.6394832547472901
 40
0.7162523706230061
 40
0.8021671947458945
 40
0.8958454623920019
 40
1.0
 40
1.0
 40
1.0
 40
1.0
 10
151.352567763059
 20
164.2515553450179
 30
0.0
 10
151.3385561002184
 20
164.252030724649
 30
0.0
 10
151.3108277728875
 20
164.2529714753771
 30
0.0
 10
151.2697338596031
 20
164.259058087348
 30
0.0
 10
151.2298163325495
 20
164.2697064163058
 30
0.0
 10
151.1913316611392
 20
164.2841601952063
 30
0.0
 10
151.1552999092621
 20
164.3022310832197
 30
0.0
 10
151.1221797487802
 20
164.3229847025895
 30
0.0
 10
151.0925513517176
 20
164.3464718021604
 30
0.0
 10
151.0659729566026
 20
164.3732160384978
 30
0.0
 10
151.0422857310489
 20
164.4047275077997
 30
0.0
 10
151.0206488413339
 20
164.4416035647031
 30
0.0
 10
151.0003908479876
 20
164.4843777540981
 30
0.0
 10
150.9892335809138
 20
164.5153925273247
 30
0.0
 10
150.983359529886
 20
164.5317211102424
 30
0.0
  0
SPLINE
  5
2E6
330
1F
100
AcDbEntity
  8
SLD-0
  6
SLD-DURCHGEHEND
 62
     7
100
AcDbSpline
210
0.0
220
0.0
230
1.0
 70
     8
 71
     3
 72
    11
 73
     7
 74
     0
 42
0.000000001
 43
0.00000001
 40
0.0
 40
0.0
 40
0.0
 40
0.0
 40
0.2537340756906597
 40
0.5030351201318622
 40
0.7500135973308872
 40
1.0
 40
1.0
 40
1.0
 40
1.0
 10
151.5917103912642
 20
164.310386975627
 30
0.0
 10
151.5727217766301
 20
164.3013131135336
 30
0.0
 10
151.5350763006823
 20
164.2833239203368
 30
0.0
 10
151.4754682950927
 20
164.2650751275211
 30
0.0
 10
151.4144744271244
 20
164.2538605279989
 30
0.0
 10
151.3732864158183
 20
164.2523268336203
 30
0.0
 10
151.352567763059
 20
164.2515553450179
 30
0.0
  0
SPLINE
  5
2E7
330
1F
100
AcDbEntity
  8
SLD-0
  6
SLD-DURCHGEHEND
 62
     7
100
AcDbSpline
210
0.0
220
0.0
230
1.0
 70
     8
 71
     3
 72
    11
 73
     7
 74
     0
 42
0.000000001
 43
0.00000001
 40
0.0
 40
0.0
 40
0.0
 40
0.0
 40
0.2835665747343445
 40
0.5424201335549561
 40
0.7806674670942623
 40
1.0
 40
1.0
 40
1.0
 40
1.0
 10
151.7526228512001
 20
164.4735254972615
 30
0.0
 10
151.7397662327607
 20
164.4559132884563
 30
0.0
 10
151.7151734587446
 20
164.4222237865773
 30
0.0
 10
151.6752328703147
 20
164.3773345575707
 30
0.0
 10
151.6346456841784
 20
164.3398654938806
 30
0.0
 10
151.6056222453755
 20
164.3199385779924
 30
0.0
 10
151.5917103912642
 20
164.310386975627
 30
0.0
  0
SPLINE
  5
2E8
330
1F
100
AcDbEntity
  8
SLD-0
  6
SLD-DURCHGEHEND
 62
     7
100
AcDbSpline
210
0.0
220
0.0
230
1.0
 70
     8
 71
     3
 72
    15
 73
    11
 74
     0
 42
0.000000001
 43
0.00000001
 40
0.0
 40
0.0
 40
0.0
 40
0.0
 40
0.0769954547170661
 40
0.1676150771831809
 40
0.2710523936342354
 40
0.3894595025720781
 40
0.5208428024655786
 40
0.6663987586080764
 40
0.8260936125153212
 40
1.0
 40
1.0
 40
1.0
 40
1.0
 10
148.168981125683
 20
164.7012200785318
 30
0.0
 10
148.1707680377156
 20
164.7090465456313
 30
0.0
 10
148.1746580517347
 20
164.7260843550937
 30
0.0
 10
148.1788595654564
 20
164.7540445024574
 30
0.0
 10
148.1826730014421
 20
164.7863886696861
 30
0.0
 10
148.1858647648155
 20
164.8230791134935
 30
0.0
 10
148.1878175787147
 20
164.8642442925647
 30
0.0
 10
148.1899468229656
 20
164.9097084047115
 30
0.0
 10
148.190722004235
 20
164.9596527369301
 30
0.0
 10
148.1908546076644
 20
164.994424290416
 30
0.0
 10
148.1909237338561
 20
165.0125507075383
 30
0.0
  0
SPLINE
  5
2E9
330
1F
100
AcDbEntity
  8
SLD-0
  6
SLD-DURCHGEHEND
 62
     7
100
AcDbSpline
210
0.0
220
0.0
230
1.0
 70
     8
 71
     3
 72
    15
 73
    11
 74
     0
 42
0.000000001
 43
0.00000001
 40
0.0
 40
0.0
 40
0.0
 40
0.0
 40
0.0769954547170661
 40
0.1676150771831809
 40
0.2710523936342354
 40
0.3894595025720781
 40
0.5208428024655786
 40
0.6663987586080764
 40
0.8260936125153214
 40
1.0
 40
1.0
 40
1.0
 40
1.0
 10
146.8257118949138
 20
164.7012200785318
 30
0.0
 10
146.8274988069464
 20
164.7090465456313
 30
0.0
 10
146.8313888209654
 20
164.7260843550937
 30
0.0
 10
146.8355903346871
 20
164.7540445024574
 30
0.0
 10
146.8394037706729
 20
164.7863886696861
 30
0.0
 10
146.8425955340463
 20
164.8230791134935
 30
0.0
 10
146.8445483479455
 20
164.8642442925647
 30
0.0
 10
146.8466775921964
 20
164.9097084047115
 30
0.0
 10
146.8474527734658
 20
164.9596527369302
 30
0.0
 10
146.8475853768952
 20
164.994424290416
 30
0.0
 10
146.8476545030869
 20
165.0125507075383
 30
0.0
  0
SPLINE
  5
2EA
330
1F
100
AcDbEntity
  8
SLD-0
  6
SLD-DURCHGEHEND
 62
     7
100
AcDbSpline
210
0.0
220
0.0
230
1.0
 70
     8
 71
     3
 72
    23
 73
    19
 74
     0
 42
0.000000001
 43
0.00000001
 40
0.0
 40
0.0
 40
0.0
 40
0.0
 40
0.0639962164180008
 40
0.1266468587927837
 40
0.1890142220497147
 40
0.250444060169659
 40
0.3123515162166043
 40
0.374054731565964
 40
0.4376386854812105
 40
0.502421798082477
 40
0.5674857558399468
 40
0.6307130141073973
 40
0.6928861079685978
 40
0.7543587414201971
 40
0.8151891657690332
 40
0.8760973581582082
 40
0.9380048142051536
 40
1.0
 40
1.0
 40
1.0
 40
1.0
 10
146.4310629566125
 20
164.3940235641087
 30
0.0
 10
146.4425247150482
 20
164.3942362792365
 30
0.0
 10
146.46520723885
 20
164.3946572369781
 30
0.0
 10
146.4988241046714
 20
164.3989905461728
 30
0.0
 10
146.5315352640076
 20
164.4058344622838
 30
0.0
 10
146.5632530819761
 20
164.4159433951041
 30
0.0
 10
146.5940416575461
 20
164.4282344451941
 30
0.0
 10
146.6240284013208
 20
164.4433161414094
 30
0.0
 10
146.6527943115793
 20
164.4615587320104
 30
0.0
 10
146.680743878184
 20
164.4820634272121
 30
0.0
 10
146.7067218181266
 20
164.5048979798125
 30
0.0
 10
146.731238355803
 20
164.5286443262112
 30
0.0
 10
146.7527791674768
 20
164.5542967844488
 30
0.0
 10
146.772332204543
 20
164.5809483695604
 30
0.0
 10
146.789190362665
 20
164.6091344557022
 30
0.0
 10
146.8039114528413
 20
164.6385537499118
 30
0.0
 10
146.816400510399
 20
164.669252787121
 30
0.0
 10
146.8226066353186
 20
164.6905592860117
 30
0.0
 10
146.8257118949138
 20
164.7012200785318
 30
0.0
  0
SPLINE
  5
2EB
330
1F
100
AcDbEntity
  8
SLD-0
  6
SLD-DURCHGEHEND
 62
     7
100
AcDbSpline
210
0.0
220
0.0
230
1.0
 70
     8
 71
     3
 72
    15
 73
    11
 74
     0
 42
0.000000001
 43
0.00000001
 40
0.0
 40
0.0
 40
0.0
 40
0.0
 40
0.135528999964225
 40
0.2601576487938137
 40
0.3784325902006509
 40
0.4931422241600829
 40
0.6092536571898837
 40
0.7299621659648362
 40
0.85925147256402
 40
1.0
 40
1.0
 40
1.0
 40
1.0
 10
146.131816662542
 20
164.6223538926344
 30
0.0
 10
146.1366121772207
 20
164.6043290937099
 30
0.0
 10
146.1458175120487
 20
164.5697291976772
 30
0.0
 10
146.1690267695388
 20
164.5228773781834
 30
0.0
 10
146.197655140548
 20
164.4826654098302
 30
0.0
 10
146.2331250358527
 20
164.4499203042776
 30
0.0
 10
146.2744838212649
 20
164.4244290821887
 30
0.0
 10
146.3218002525898
 20
164.406755495991
 30
0.0
 10
146.37458462839
 20
164.3956979898054
 30
0.0
 10
146.4117116775173
 20
164.3945972758315
 30
0.0
 10
146.4310629566125
 20
164.3940235641087
 30
0.0
  0
SPLINE
  5
2EC
330
1F
100
AcDbEntity
  8
SLD-0
  6
SLD-DURCHGEHEND
 62
     7
100
AcDbSpline
210
0.0
220
0.0
230
1.0
 70
     8
 71
     3
 72
    15
 73
    11
 74
     0
 42
0.000000001
 43
0.00000001
 40
0.0
 40
0.0
 40
0.0
 40
0.0
 40
0.178850422666997
 40
0.3421104203020792
 40
0.4898267677856967
 40
0.6220572877084598
 40
0.7400790900395199
 40
0.8414823156585832
 40
0.9289075118911194
 40
1.0
 40
1.0
 40
1.0
 40
1.0
 10
146.1149621953946
 20
164.8863012083395
 30
0.0
 10
146.1150494663821
 20
164.8705067195627
 30
0.0
 10
146.1152164009288
 20
164.8402945505706
 30
0.0
 10
146.1157498112614
 20
164.7970381808656
 30
0.0
 10
146.1170054342734
 20
164.7579151735274
 30
0.0
 10
146.1188423566986
 20
164.7228130926231
 30
0.0
 10
146.1214135843667
 20
164.6918604137814
 30
0.0
 10
146.1241661302444
 20
164.6649004613464
 30
0.0
 10
146.1275045632781
 20
164.6421720398455
 30
0.0
 10
146.1304815393531
 20
164.6284900379973
 30
0.0
 10
146.131816662542
 20
164.6223538926344
 30
0.0
  0
SPLINE
  5
2ED
330
1F
100
AcDbEntity
  8
SLD-0
  6
SLD-DURCHGEHEND
 62
     7
100
AcDbSpline
210
0.0
220
0.0
230
1.0
 70
     8
 71
     3
 72
    23
 73
    19
 74
     0
 42
0.000000001
 43
0.00000001
 40
0.0
 40
0.0
 40
0.0
 40
0.0
 40
0.0772352601298103
 40
0.151243810802444
 40
0.2234188286360062
 40
0.2958043357739651
 40
0.3672331708909986
 40
0.4371134667550855
 40
0.5067140232024507
 40
0.578225360263388
 40
0.6166327084251485
 40
0.6584064973910094
 40
0.7045109807395488
 40
0.7548195062037483
 40
0.8093443714114125
 40
0.8682832612646745
 40
0.9320774243056856
 40
1.0
 40
1.0
 40
1.0
 40
1.0
 10
146.4062579759359
 20
164.2515563619243
 30
0.0
 10
146.3847799052812
 20
164.2523032152401
 30
0.0
 10
146.3427210677887
 20
164.2537657200778
 30
0.0
 10
146.2817040419275
 20
164.2666522996474
 30
0.0
 10
146.2243170433214
 20
164.287045394675
 30
0.0
 10
146.1713274305001
 20
164.315706885042
 30
0.0
 10
146.1235505568528
 20
164.3512919726001
 30
0.0
 10
146.0821198640934
 20
164.3930335452253
 30
0.0
 10
146.0472787572323
 20
164.4404287260808
 30
0.0
 10
146.0240239352728
 20
164.484791727307
 30
0.0
 10
146.008982963536
 20
164.5241974342118
 30
0.0
 10
145.999098627836
 20
164.5579021737185
 30
0.0
 10
145.9911019896443
 20
164.5954685755721
 30
0.0
 10
145.9839366907764
 20
164.6368037588366
 30
0.0
 10
145.9791566497509
 20
164.6820737454538
 30
0.0
 10
145.9753675789971
 20
164.7311704882785
 30
0.0
 10
145.9726573613802
 20
164.7840854860849
 30
0.0
 10
145.9725495491834
 20
164.8206825792173
 30
0.0
 10
145.9724939535
 20
164.8395546592
 30
0.0
  0
SPLINE
  5
2EE
330
1F
100
AcDbEntity
  8
SLD-0
  6
SLD-DURCHGEHEND
 62
     7
100
AcDbSpline
210
0.0
220
0.0
230
1.0
 70
     8
 71
     3
 72
    15
 73
    11
 74
     0
 42
0.000000001
 43
0.00000001
 40
0.0
 40
0.0
 40
0.0
 40
0.0
 40
0.1409837301838174
 40
0.2731541395726923
 40
0.3989552145193258
 40
0.5199033426703348
 40
0.6380900912974556
 40
0.7565754954549483
 40
0.8768529727553245
 40
1.0
 40
1.0
 40
1.0
 40
1.0
 10
146.8476542099103
 20
164.4811587257064
 30
0.0
 10
146.8324687557044
 20
164.462151684383
 30
0.0
 10
146.8030471361159
 20
164.4253257895671
 30
0.0
 10
146.7535458760504
 20
164.3773051878717
 30
0.0
 10
146.7019307895667
 20
164.3370082215372
 30
0.0
 10
146.6473635661912
 20
164.3052801544085
 30
0.0
 10
146.5904057141964
 20
164.2812841383547
 30
0.0
 10
146.531218850732
 20
164.2639801829269
 30
0.0
 10
146.4694826258341
 20
164.2535983932363
 30
0.0
 10
146.4274978350312
 20
164.2522423674207
 30
0.0
 10
146.4062579759359
 20
164.2515563619243
 30
0.0
  0
SPLINE
  5
2EF
330
1F
100
AcDbEntity
  8
SLD-0
  6
SLD-DURCHGEHEND
 62
     7
100
AcDbSpline
210
0.0
220
0.0
230
1.0
 70
     8
 71
     3
 72
    15
 73
    11
 74
     0
 42
0.000000001
 43
0.00000001
 40
0.0
 40
0.0
 40
0.0
 40
0.0
 40
0.1288541562971698
 40
0.2529263890926015
 40
0.3745104744657686
 40
0.4943737874636331
 40
0.6152961820912102
 40
0.7385716223676421
 40
0.8662734877878975
 40
1.0
 40
1.0
 40
1.0
 40
1.0
 10
152.8325803844972
 20
164.2515556153908
 30
0.0
 10
152.808892741184
 20
164.2522540267661
 30
0.0
 10
152.7623965297968
 20
164.2536249306804
 30
0.0
 10
152.6943875965699
 20
164.2654725402846
 30
0.0
 10
152.6298241581759
 20
164.2844365099727
 30
0.0
 10
152.5687086941358
 20
164.3113738697652
 30
0.0
 10
152.5115776522782
 20
164.3464796757644
 30
0.0
 10
152.4576673107499
 20
164.3886981468687
 30
0.0
 10
152.4078036949851
 20
164.4390906662407
 30
0.0
 10
152.3782941650775
 20
164.4770204581195
 30
0.0
 10
152.3631993748818
 20
164.4964224022498
 30
0.0
  0
SPLINE
  5
2F0
330
1F
100
AcDbEntity
  8
SLD-0
  6
SLD-DURCHGEHEND
 62
     7
100
AcDbSpline
210
0.0
220
0.0
230
1.0
 70
     8
 71
     3
 72
    23
 73
    19
 74
     0
 42
0.000000001
 43
0.00000001
 40
0.0
 40
0.0
 40
0.0
 40
0.0
 40
0.0637814724965009
 40
0.1260925303724585
 40
0.186924432372304
 40
0.2476008768692151
 40
0.3080368742790073
 40
0.3693492899539816
 40
0.4322574644027525
 40
0.4970220782641049
 40
0.5618491610224144
 40
0.6248894581378539
 40
0.6869962791359584
 40
0.7480514182236211
 40
0.8095615691495255
 40
0.8716167729305407
 40
0.9348787348521413
 40
1.0
 40
1.0
 40
1.0
 40
1.0
 10
153.4418852723177
 20
164.8487761682754
 30
0.0
 10
153.4413170987332
 20
164.8286086167626
 30
0.0
 10
153.4401938502073
 20
164.7887384553799
 30
0.0
 10
153.4318219964026
 20
164.730102573918
 30
0.0
 10
153.4177546029064
 20
164.6736200623658
 30
0.0
 10
153.3979751834285
 20
164.6195001529205
 30
0.0
 10
153.3727244251674
 20
164.5675248868666
 30
0.0
 10
153.3414872505108
 20
164.5181009195236
 30
0.0
 10
153.3052668338435
 20
164.4704722033725
 30
0.0
 10
153.2634097535514
 20
164.4261661068772
 30
0.0
 10
153.2180897412464
 20
164.3853885507217
 30
0.0
 10
153.1698325320054
 20
164.3494799765427
 30
0.0
 10
153.1192398449533
 20
164.3191794462456
 30
0.0
 10
153.0662102345687
 20
164.2945480608997
 30
0.0
 10
153.0111191973773
 20
164.2749744626518
 30
0.0
 10
152.9535482362821
 20
164.261329779983
 30
0.0
 10
152.8937591607018
 20
164.2533088907937
 30
0.0
 10
152.8531692569362
 20
164.2521456560202
 30
0.0
 10
152.8325803844972
 20
164.2515556153908
 30
0.0
  0
SPLINE
  5
2F1
330
1F
100
AcDbEntity
  8
SLD-0
  6
SLD-DURCHGEHEND
 62
     7
100
AcDbSpline
210
0.0
220
0.0
230
1.0
 70
     8
 71
     3
 72
    23
 73
    19
 74
     0
 42
0.000000001
 43
0.00000001
 40
0.0
 40
0.0
 40
0.0
 40
0.0
 40
0.0646272670080852
 40
0.1274478320825666
 40
0.1890254068323217
 40
0.2499582107091114
 40
0.3107034323946204
 40
0.3720844592356792
 40
0.4347016574718288
 40
0.4993453691874983
 40
0.5639683079454375
 40
0.6265193590321816
 40
0.6880742172965828
 40
0.7492653791062718
 40
0.8103091726242388
 40
0.8718867473739975
 40
0.9350386014010447
 40
0.9999999999999999
 40
0.9999999999999999
 40
0.9999999999999999
 40
0.9999999999999999
 10
152.8370325078946
 20
165.4523568974421
 30
0.0
 10
152.857519456915
 20
165.4518007423296
 30
0.0
 10
152.8979206274969
 20
165.4507039798225
 30
0.0
 10
152.9573508726508
 20
165.4421926076499
 30
0.0
 10
153.014545670327
 20
165.4285311195594
 30
0.0
 10
153.0695414718562
 20
165.4095080346989
 30
0.0
 10
153.1219656356489
 20
165.3844047697872
 30
0.0
 10
153.1721135579424
 20
165.354026351943
 30
0.0
 10
153.2201022750802
 20
165.3182048310859
 30
0.0
 10
153.2650191420651
 20
165.2770937355203
 30
0.0
 10
153.306433606464
 20
165.2324884666314
 30
0.0
 10
153.3426670799243
 20
165.184774367371
 30
0.0
 10
153.3733761283795
 20
165.1346067897224
 30
0.0
 10
153.3986134662863
 20
165.081999833666
 30
0.0
 10
153.4181434416661
 20
165.0269919548586
 30
0.0
 10
153.4317310201349
 20
164.9696208898127
 30
0.0
 10
153.4402332202719
 20
164.9099821009651
 30
0.0
 10
153.4413294271523
 20
164.8693693583439
 30
0.0
 10
153.4418852723177
 20
164.8487761682754
 30
0.0
  0
SPLINE
  5
2F2
330
1F
100
AcDbEntity
  8
SLD-0
  6
SLD-DURCHGEHEND
 62
     7
100
AcDbSpline
210
0.0
220
0.0
230
1.0
 70
     8
 71
     3
 72
    15
 73
    11
 74
     0
 42
0.000000001
 43
0.00000001
 40
0.0
 40
0.0
 40
0.0
 40
0.0
 40
0.134279425383959
 40
0.2624376805010357
 40
0.3857880719678817
 40
0.5066656944993564
 40
0.6267843787698824
 40
0.7481804860948832
 40
0.8723881896532608
 40
1.0
 40
1.0
 40
1.0
 40
1.0
 10
152.3631993748818
 20
165.2313407716408
 30
0.0
 10
152.3792860907592
 20
165.2494765473639
 30
0.0
 10
152.41072620446
 20
165.2849213737119
 30
0.0
 10
152.4627341083365
 20
165.331512753519
 30
0.0
 10
152.518317898932
 20
165.3695523217618
 30
0.0
 10
152.5765306025239
 20
165.400429113847
 30
0.0
 10
152.6378228050795
 20
165.423704623893
 30
0.0
 10
152.7018345407044
 20
165.4401019324544
 30
0.0
 10
152.7685157247899
 20
165.4507686145264
 30
0.0
 10
152.8139886784259
 20
165.4518227199895
 30
0.0
 10
152.8370325078946
 20
165.4523568974421
 30
0.0
  0
SPLINE
  5
2F3
330
1F
100
AcDbEntity
  8
SLD-0
  6
SLD-DURCHGEHEND
 62
     7
100
AcDbSpline
210
0.0
220
0.0
230
1.0
 70
     8
 71
     3
 72
    15
 73
    11
 74
     0
 42
0.000000001
 43
0.00000001
 40
0.0
 40
0.0
 40
0.0
 40
0.0
 40
0.1185218400132586
 40
0.2362547631617505
 40
0.3561744339909331
 40
0.4772496548985559
 40
0.6015398708217055
 40
0.7296183821680454
 40
0.8621582661414429
 40
1.0
 40
1.0
 40
1.0
 40
1.0
 10
154.2601215456988
 20
164.4798857459462
 30
0.0
 10
154.2500853986784
 20
164.4935852275035
 30
0.0
 10
154.2300799082383
 20
164.5208930027659
 30
0.0
 10
154.2050214021509
 20
164.5654206347366
 30
0.0
 10
154.1832692979976
 20
164.6120072257454
 30
0.0
 10
154.1658825621088
 20
164.6614058247813
 30
0.0
 10
154.1518039312089
 20
164.7130311343598
 30
0.0
 10
154.1416181598517
 20
164.7672522171409
 30
0.0
 10
154.1356447971378
 20
164.8240529269367
 30
0.0
 10
154.1344706379834
 20
164.8627546145993
 30
0.0
 10
154.1338720465
 20
164.8824849046
 30
0.0
  0
SPLINE
  5
2F4
330
1F
100
AcDbEntity
  8
SLD-0
  6
SLD-DURCHGEHEND
 62
     7
100
AcDbSpline
210
0.0
220
0.0
230
1.0
 70
     8
 71
     3
 72
    15
 73
    11
 74
     0
 42
0.000000001
 43
0.00000001
 40
0.0
 40
0.0
 40
0.0
 40
0.0
 40
0.1320486370255633
 40
0.2590493247643366
 40
0.3819041254817482
 40
0.5025162511634217
 40
0.6227281827366163
 40
0.7447263881325094
 40
0.8701006615077186
 40
1.0
 40
1.0
 40
1.0
 40
1.0
 10
154.7272764936155
 20
164.2515554174205
 30
0.0
 10
154.703486390484
 20
164.2521664993498
 30
0.0
 10
154.656815631201
 20
164.2533653027961
 30
0.0
 10
154.5887846744217
 20
164.2645785644452
 30
0.0
 10
154.5242859526489
 20
164.2821448124766
 30
0.0
 10
154.4638517409954
 20
164.3077380019115
 30
0.0
 10
154.4065508371155
 20
164.3394625083194
 30
0.0
 10
154.3537020150308
 20
164.3795607989823
 30
0.0
 10
154.3038545401001
 20
164.4259733783983
 30
0.0
 10
154.2748704709224
 20
164.4617038334456
 30
0.0
 10
154.2601215456988
 20
164.4798857459462
 30
0.0
  0
SPLINE
  5
2F5
330
1F
100
AcDbEntity
  8
SLD-0
  6
SLD-DURCHGEHEND
 62
     7
100
AcDbSpline
210
0.0
220
0.0
230
1.0
 70
     8
 71
     3
 72
    15
 73
    11
 74
     0
 42
0.000000001
 43
0.00000001
 40
0.0
 40
0.0
 40
0.0
 40
0.0
 40
0.1288514141696369
 40
0.2532072518977783
 40
0.3746340222150082
 40
0.4953459460203001
 40
0.6163458534169434
 40
0.7396344715653399
 40
0.8668256185408401
 40
0.9999999999999999
 40
0.9999999999999999
 40
0.9999999999999999
 40
0.9999999999999999
 10
155.1807570625257
 20
164.4678014110103
 30
0.0
 10
155.1664001573644
 20
164.4505966942576
 30
0.0
 10
155.1381872539587
 20
164.4167875267239
 30
0.0
 10
155.0899740804533
 20
164.3727684996042
 30
0.0
 10
155.0384711445445
 20
164.3351139848421
 30
0.0
 10
154.9831603883879
 20
164.3043953572575
 30
0.0
 10
154.9241349799008
 20
164.2807678758047
 30
0.0
 10
154.8616993675765
 20
164.2639619607219
 30
0.0
 10
154.7956809810875
 20
164.253504552719
 30
0.0
 10
154.7504246549051
 20
164.2522150071628
 30
0.0
 10
154.7272764936155
 20
164.2515554174205
 30
0.0
  0
SPLINE
  5
2F6
330
1F
100
AcDbEntity
  8
SLD-0
  6
SLD-DURCHGEHEND
 62
     7
100
AcDbSpline
210
0.0
220
0.0
230
1.0
 70
     8
 71
     3
 72
    15
 73
    11
 74
     0
 42
0.000000001
 43
0.00000001
 40
0.0
 40
0.0
 40
0.0
 40
0.0
 40
0.1280448079611251
 40
0.2537679000244938
 40
0.3774284265813022
 40
0.5005508414825345
 40
0.6232958832424753
 40
0.7465783319335114
 40
0.8723475406047174
 40
1.0
 40
1.0
 40
1.0
 40
1.0
 10
155.3143207644488
 20
164.8551361465872
 30
0.0
 10
155.3138403682024
 20
164.8373131342192
 30
0.0
 10
155.3128882862823
 20
164.8019902773791
 30
0.0
 10
155.306887179143
 20
164.7497091196814
 30
0.0
 10
155.2962517033586
 20
164.6988962144274
 30
0.0
 10
155.2816574421388
 20
164.6495093398129
 30
0.0
 10
155.2628109840485
 20
164.6016311861845
 30
0.0
 10
155.2397549417612
 20
164.5552326144697
 30
0.0
 10
155.2124533989784
 20
164.5103629974615
 30
0.0
 10
155.1913747219531
 20
164.4820587189584
 30
0.0
 10
155.1807570625257
 20
164.4678014110103
 30
0.0
  0
SPLINE
  5
2F7
330
1F
100
AcDbEntity
  8
SLD-0
  6
SLD-DURCHGEHEND
 62
     7
100
AcDbSpline
210
0.0
220
0.0
230
1.0
 70
     8
 71
     3
 72
    23
 73
    19
 74
     0
 42
0.000000001
 43
0.00000001
 40
0.0
 40
0.0
 40
0.0
 40
0.0
 40
0.0715758125636846
 40
0.1396236746773188
 40
0.2047885570889817
 40
0.2681243055045788
 40
0.3298006374717151
 40
0.3912858442338201
 40
0.4534154919141828
 40
0.5165311583007018
 40
0.5796082313837406
 40
0.6410934381458466
 40
0.7012661714967232
 40
0.7606005711034909
 40
0.819938879174762
 40
0.8789243882328048
 40
0.9389852475756963
 40
0.9999999999999999
 40
0.9999999999999999
 40
0.9999999999999999
 40
0.9999999999999999
 10
154.7307745905706
 20
165.4523566994718
 30
0.0
 10
154.753063987387
 20
165.4518363734632
 30
0.0
 10
154.7965441432998
 20
165.4508213681599
 30
0.0
 10
154.8598353876439
 20
165.4420708582762
 30
0.0
 10
154.9194253313307
 20
165.4277958928304
 30
0.0
 10
154.9753106639319
 20
165.4078543892014
 30
0.0
 10
155.0273543835572
 20
165.3818069602404
 30
0.0
 10
155.0756604544828
 20
165.3500754701104
 30
0.0
 10
155.1204809327169
 20
165.3128221260406
 30
0.0
 10
155.1604108894016
 20
165.2697272804502
 30
0.0
 10
155.1963362480656
 20
165.2236002062254
 30
0.0
 10
155.2281155031359
 20
165.1755671033866
 30
0.0
 10
155.2543762443779
 20
165.1256482260155
 30
0.0
 10
155.2767908263687
 20
165.0746014735595
 30
0.0
 10
155.2933756268773
 20
165.0217474620555
 30
0.0
 10
155.3057577206855
 20
164.9675518622111
 30
0.0
 10
155.3126954705831
 20
164.9118162093269
 30
0.0
 10
155.3137761617551
 20
164.8741284749886
 30
0.0
 10
155.3143207644488
 20
164.8551361465872
 30
0.0
  0
SPLINE
  5
2F8
330
1F
100
AcDbEntity
  8
SLD-0
  6
SLD-DURCHGEHEND
 62
     7
100
AcDbSpline
210
0.0
220
0.0
230
1.0
 70
     8
 71
     3
 72
    19
 73
    15
 74
     0
 42
0.000000001
 43
0.00000001
 40
0.0
 40
0.0
 40
0.0
 40
0.0
 40
0.0933789322631536
 40
0.1816784234524896
 40
0.2655306173294002
 40
0.3456729645101135
 40
0.4242267260971047
 40
0.5019411122490922
 40
0.5800376096215046
 40
0.6583110939221227
 40
0.7385476981005997
 40
0.8218768365915731
 40
0.908791927506185
 40
1.0
 40
1.0
 40
1.0
 40
1.0
 10
154.1949297388077
 20
165.1321218236705
 30
0.0
 10
154.2050223675968
 20
165.150006485577
 30
0.0
 10
154.2246586264666
 20
165.1848029551916
 30
0.0
 10
154.2582650285598
 20
165.2326358728804
 30
0.0
 10
154.2938595888081
 20
165.2752634164182
 30
0.0
 10
154.332149672674
 20
165.3124854703728
 30
0.0
 10
154.3726549421615
 20
165.3451764420877
 30
0.0
 10
154.4159786035643
 20
165.3731877856134
 30
0.0
 10
154.4613997779128
 20
165.397508220665
 30
0.0
 10
154.5095772865303
 20
165.4173307019574
 30
0.0
 10
154.5604651613353
 20
165.432933156333
 30
0.0
 10
154.6143769015273
 20
165.4444506598937
 30
0.0
 10
154.671561982448
 20
165.451130910456
 30
0.0
 10
154.7107224498076
 20
165.4519415903477
 30
0.0
 10
154.7307745905706
 20
165.4523566994718
 30
0.0
  0
SPLINE
  5
2F9
330
1F
100
AcDbEntity
  8
SLD-0
  6
SLD-DURCHGEHEND
 62
     7
100
AcDbSpline
210
0.0
220
0.0
230
1.0
 70
     8
 71
     3
 72
    19
 73
    15
 74
     0
 42
0.000000001
 43
0.00000001
 40
0.0
 40
0.0
 40
0.0
 40
0.0
 40
0.0825855786813792
 40
0.1638656304704686
 40
0.2462419654968085
 40
0.328475433964209
 40
0.4087765823988802
 40
0.4856459212053344
 40
0.5595927718824172
 40
0.6306864370722273
 40
0.7057179164413462
 40
0.7915997423912753
 40
0.8898053567957775
 40
1.0
 40
1.0
 40
1.0
 40
1.0
 10
154.7485836761295
 20
165.3098887507538
 30
0.0
 10
154.734362708144
 20
165.3096170943232
 30
0.0
 10
154.7061455796568
 20
165.3090780758531
 30
0.0
 10
154.664037683779
 20
165.3036826059518
 30
0.0
 10
154.6225150025459
 20
165.2952732237909
 30
0.0
 10
154.5821159591621
 20
165.2830712609992
 30
0.0
 10
154.5434875296467
 20
165.2686406418957
 30
0.0
 10
154.5074139861807
 20
165.2517678589576
 30
0.0
 10
154.4742340657563
 20
165.2327501326737
 30
0.0
 10
154.4432821821592
 20
165.2108018276202
 30
0.0
 10
154.4134234577337
 20
165.1841447415924
 30
0.0
 10
154.3837088121685
 20
165.1508165024285
 30
0.0
 10
154.3521326556334
 20
165.1111643659514
 30
0.0
 10
154.3320937168252
 20
165.0813975924924
 30
0.0
 10
154.3214978387897
 20
165.0656579815231
 30
0.0
  0
SPLINE
  5
2FA
330
1F
100
AcDbEntity
  8
SLD-0
  6
SLD-DURCHGEHEND
 62
     7
100
AcDbSpline
210
0.0
220
0.0
230
1.0
 70
     8
 71
     3
 72
    23
 73
    19
 74
     0
 42
0.000000001
 43
0.00000001
 40
0.0
 40
0.0
 40
0.0
 40
0.0
 40
0.0684003466196313
 40
0.1345065229349147
 40
0.1984366965883435
 40
0.2608134623948045
 40
0.3221034354366065
 40
0.3833255316859321
 40
0.4449555907183549
 40
0.5077149129426881
 40
0.5701565007621625
 40
0.6311229251954872
 40
0.6912878085150835
 40
0.7508878389482718
 40
0.8110060096695408
 40
0.872301482940765
 40
0.9349891416279057
 40
1.0
 40
1.0
 40
1.0
 40
1.0
 10
155.1718534077
 20
164.8824849046
 30
0.0
 10
155.1711544230732
 20
164.8977701631535
 30
0.0
 10
155.1697798979956
 20
164.9278280076208
 30
0.0
 10
155.163387097956
 20
164.9718155784956
 30
0.0
 10
155.1532615341032
 20
165.0136975636985
 30
0.0
 10
155.139186706303
 20
165.053295514118
 30
0.0
 10
155.1215383244927
 20
165.090739443234
 30
0.0
 10
155.1005990210777
 20
165.1262874101278
 30
0.0
 10
155.0754652175782
 20
165.1593995515219
 30
0.0
 10
155.0474777767599
 20
165.190504958895
 30
0.0
 10
155.0163099343597
 20
165.2181952420738
 30
0.0
 10
154.9835318664895
 20
165.2429985424134
 30
0.0
 10
154.9487133539764
 20
165.2636721640537
 30
0.0
 10
154.9122053977958
 20
165.2807056377734
 30
0.0
 10
154.8738186653502
 20
165.293815740371
 30
0.0
 10
154.8336071382353
 20
165.302843802476
 30
0.0
 10
154.7916959069876
 20
165.3088750023228
 30
0.0
 10
154.7631276656378
 20
165.3095467608765
 30
0.0
 10
154.7485836761295
 20
165.3098887507538
 30
0.0
  0
SPLINE
  5
2FB
330
1F
100
AcDbEntity
  8
SLD-0
  6
SLD-DURCHGEHEND
 62
     7
100
AcDbSpline
210
0.0
220
0.0
230
1.0
 70
     8
 71
     3
 72
    23
 73
    19
 74
     0
 42
0.000000001
 43
0.00000001
 40
0.0
 40
0.0
 40
0.0
 40
0.0
 40
0.0646272670080852
 40
0.1274478320825666
 40
0.1890254068323217
 40
0.2499582107091114
 40
0.3107034323946204
 40
0.3720844592356792
 40
0.4347016574718288
 40
0.4993453691874983
 40
0.5639683079454375
 40
0.6265193590321816
 40
0.6880742172965828
 40
0.7492653791062718
 40
0.8103091726242388
 40
0.8718867473739975
 40
0.9350386014010447
 40
0.9999999999999999
 40
0.9999999999999999
 40
0.9999999999999999
 40
0.9999999999999999
 10
149.2753339595129
 20
165.4523575453295
 30
0.0
 10
149.2958209085333
 20
165.451801390217
 30
0.0
 10
149.3362220791151
 20
165.4507046277099
 30
0.0
 10
149.395652324269
 20
165.4421932555373
 30
0.0
 10
149.4528471219453
 20
165.4285317674468
 30
0.0
 10
149.5078429234745
 20
165.4095086825863
 30
0.0
 10
149.5602670872672
 20
165.3844054176746
 30
0.0
 10
149.6104150095607
 20
165.3540269998304
 30
0.0
 10
149.6584037266985
 20
165.3182054789733
 30
0.0
 10
149.7033205936834
 20
165.2770943834077
 30
0.0
 10
149.7447350580823
 20
165.2324891145188
 30
0.0
 10
149.7809685315426
 20
165.1847750152584
 30
0.0
 10
149.8116775799978
 20
165.1346074376098
 30
0.0
 10
149.8369149179046
 20
165.0820004815534
 30
0.0
 10
149.8564448932844
 20
165.026992602746
 30
0.0
 10
149.8700324717531
 20
164.9696215377
 30
0.0
 10
149.8785346718902
 20
164.9099827488525
 30
0.0
 10
149.8796308787705
 20
164.8693700062313
 30
0.0
 10
149.8801867239359
 20
164.8487768161628
 30
0.0
  0
SPLINE
  5
2FC
330
1F
100
AcDbEntity
  8
SLD-0
  6
SLD-DURCHGEHEND
 62
     7
100
AcDbSpline
210
0.0
220
0.0
230
1.0
 70
     8
 71
     3
 72
    15
 73
    11
 74
     0
 42
0.000000001
 43
0.00000001
 40
0.0
 40
0.0
 40
0.0
 40
0.0
 40
0.134279425383959
 40
0.2624376805010357
 40
0.3857880719678817
 40
0.5066656944993564
 40
0.6267843787698824
 40
0.7481804860948832
 40
0.8723881896532608
 40
1.0
 40
1.0
 40
1.0
 40
1.0
 10
148.8015008265
 20
165.2313414195282
 30
0.0
 10
148.8175875423775
 20
165.2494771952513
 30
0.0
 10
148.8490276560783
 20
165.2849220215993
 30
0.0
 10
148.9010355599548
 20
165.3315134014064
 30
0.0
 10
148.9566193505503
 20
165.3695529696492
 30
0.0
 10
149.0148320541421
 20
165.4004297617344
 30
0.0
 10
149.0761242566978
 20
165.4237052717804
 30
0.0
 10
149.1401359923227
 20
165.4401025803418
 30
0.0
 10
149.2068171764082
 20
165.4507692624138
 30
0.0
 10
149.2522901300442
 20
165.4518233678769
 30
0.0
 10
149.2753339595129
 20
165.4523575453295
 30
0.0
  0
SPLINE
  5
2FD
330
1F
100
AcDbEntity
  8
SLD-0
  6
SLD-DURCHGEHEND
 62
     7
100
AcDbSpline
210
0.0
220
0.0
230
1.0
 70
     8
 71
     3
 72
    23
 73
    19
 74
     0
 42
0.000000001
 43
0.00000001
 40
0.0
 40
0.0
 40
0.0
 40
0.0
 40
0.0639962164180008
 40
0.1266468587927837
 40
0.1890142220497147
 40
0.250444060169659
 40
0.3123515162166043
 40
0.374054731565964
 40
0.4376386854812105
 40
0.502421798082477
 40
0.5674857558399468
 40
0.6307130141073973
 40
0.6928861079685978
 40
0.7543587414201971
 40
0.8151891657690332
 40
0.8760973581582082
 40
0.9380048142051536
 40
1.0
 40
1.0
 40
1.0
 40
1.0
 10
147.7743321873818
 20
164.3940235641087
 30
0.0
 10
147.7857939458175
 20
164.3942362792365
 30
0.0
 10
147.8084764696192
 20
164.3946572369781
 30
0.0
 10
147.8420933354407
 20
164.3989905461728
 30
0.0
 10
147.8748044947768
 20
164.4058344622838
 30
0.0
 10
147.9065223127454
 20
164.4159433951041
 30
0.0
 10
147.9373108883153
 20
164.4282344451941
 30
0.0
 10
147.96729763209
 20
164.4433161414094
 30
0.0
 10
147.9960635423485
 20
164.4615587320104
 30
0.0
 10
148.0240131089533
 20
164.4820634272121
 30
0.0
 10
148.0499910488958
 20
164.5048979798125
 30
0.0
 10
148.0745075865722
 20
164.5286443262112
 30
0.0
 10
148.096048398246
 20
164.5542967844488
 30
0.0
 10
148.1156014353123
 20
164.5809483695604
 30
0.0
 10
148.1324595934342
 20
164.6091344557022
 30
0.0
 10
148.1471806836105
 20
164.6385537499118
 30
0.0
 10
148.1596697411682
 20
164.669252787121
 30
0.0
 10
148.1658758660878
 20
164.6905592860117
 30
0.0
 10
148.168981125683
 20
164.7012200785318
 30
0.0
  0
SPLINE
  5
2FE
330
1F
100
AcDbEntity
  8
SLD-0
  6
SLD-DURCHGEHEND
 62
     7
100
AcDbSpline
210
0.0
220
0.0
230
1.0
 70
     8
 71
     3
 72
    15
 73
    11
 74
     0
 42
0.000000001
 43
0.00000001
 40
0.0
 40
0.0
 40
0.0
 40
0.0
 40
0.135528999964226
 40
0.2601576487938146
 40
0.3784325902006516
 40
0.4931422241600834
 40
0.6092536571898841
 40
0.7299621659648364
 40
0.8592514725640201
 40
0.9999999999999999
 40
0.9999999999999999
 40
0.9999999999999999
 40
0.9999999999999999
 10
147.4750858933112
 20
164.6223538926344
 30
0.0
 10
147.47988140799
 20
164.6043290937099
 30
0.0
 10
147.4890867428179
 20
164.5697291976771
 30
0.0
 10
147.5122960003081
 20
164.5228773781834
 30
0.0
 10
147.5409243713172
 20
164.4826654098302
 30
0.0
 10
147.5763942666219
 20
164.4499203042776
 30
0.0
 10
147.6177530520341
 20
164.4244290821887
 30
0.0
 10
147.665069483359
 20
164.406755495991
 30
0.0
 10
147.7178538591593
 20
164.3956979898054
 30
0.0
 10
147.7549809082865
 20
164.3945972758315
 30
0.0
 10
147.7743321873818
 20
164.3940235641087
 30
0.0
  0
SPLINE
  5
2FF
330
1F
100
AcDbEntity
  8
SLD-0
  6
SLD-DURCHGEHEND
 62
     7
100
AcDbSpline
210
0.0
220
0.0
230
1.0
 70
     8
 71
     3
 72
    15
 73
    11
 74
     0
 42
0.000000001
 43
0.00000001
 40
0.0
 40
0.0
 40
0.0
 40
0.0
 40
0.1788504226669972
 40
0.3421104203020793
 40
0.4898267677856973
 40
0.6220572877084602
 40
0.74007909003952
 40
0.8414823156585849
 40
0.9289075118911193
 40
1.0
 40
1.0
 40
1.0
 40
1.0
 10
147.4582314261638
 20
164.8863012083395
 30
0.0
 10
147.4583186971514
 20
164.8705067195627
 30
0.0
 10
147.4584856316981
 20
164.8402945505706
 30
0.0
 10
147.4590190420306
 20
164.7970381808656
 30
0.0
 10
147.4602746650426
 20
164.7579151735274
 30
0.0
 10
147.4621115874678
 20
164.7228130926231
 30
0.0
 10
147.4646828151359
 20
164.6918604137814
 30
0.0
 10
147.4674353610136
 20
164.6649004613464
 30
0.0
 10
147.4707737940473
 20
164.6421720398455
 30
0.0
 10
147.4737507701223
 20
164.6284900379973
 30
0.0
 10
147.4750858933112
 20
164.6223538926344
 30
0.0
  0
SPLINE
  5
300
330
1F
100
AcDbEntity
  8
SLD-0
  6
SLD-DURCHGEHEND
 62
     7
100
AcDbSpline
210
0.0
220
0.0
230
1.0
 70
     8
 71
     3
 72
    23
 73
    19
 74
     0
 42
0.000000001
 43
0.00000001
 40
0.0
 40
0.0
 40
0.0
 40
0.0
 40
0.0772352601298103
 40
0.1512438108024461
 40
0.2234188286360043
 40
0.2958043357739669
 40
0.3672331708909987
 40
0.4371134667550856
 40
0.5067140232024508
 40
0.5782253602633891
 40
0.6166327084251488
 40
0.6584064973910091
 40
0.7045109807395485
 40
0.7548195062037484
 40
0.8093443714114124
 40
0.8682832612646743
 40
0.9320774243056856
 40
1.0
 40
1.0
 40
1.0
 40
1.0
 10
147.749527808336
 20
164.2515563619243
 30
0.0
 10
147.7280497376813
 20
164.2523032152401
 30
0.0
 10
147.6859909001887
 20
164.2537657200778
 30
0.0
 10
147.6249738743275
 20
164.2666522996474
 30
0.0
 10
147.5675868757214
 20
164.287045394675
 30
0.0
 10
147.5145972629001
 20
164.315706885042
 30
0.0
 10
147.4668203892529
 20
164.3512919726001
 30
0.0
 10
147.4253896964934
 20
164.3930335452253
 30
0.0
 10
147.3905485896324
 20
164.4404287260808
 30
0.0
 10
147.3672937676728
 20
164.484791727307
 30
0.0
 10
147.352252795936
 20
164.5241974342117
 30
0.0
 10
147.342368460236
 20
164.5579021737185
 30
0.0
 10
147.3343718220443
 20
164.5954685755721
 30
0.0
 10
147.3272065231764
 20
164.6368037588366
 30
0.0
 10
147.3224264821509
 20
164.6820737454538
 30
0.0
 10
147.3186374113972
 20
164.7311704882785
 30
0.0
 10
147.3159271937802
 20
164.7840854860849
 30
0.0
 10
147.3158193815834
 20
164.8206825792172
 30
0.0
 10
147.3157637859
 20
164.8395546592
 30
0.0
  0
SPLINE
  5
301
330
1F
100
AcDbEntity
  8
SLD-0
  6
SLD-DURCHGEHEND
 62
     7
100
AcDbSpline
210
0.0
220
0.0
230
1.0
 70
     8
 71
     3
 72
    15
 73
    11
 74
     0
 42
0.000000001
 43
0.00000001
 40
0.0
 40
0.0
 40
0.0
 40
0.0
 40
0.1409837301838174
 40
0.2731541395726923
 40
0.3989552145193258
 40
0.5199033426703348
 40
0.6380900912974556
 40
0.7565754954549483
 40
0.8768529727553245
 40
1.0
 40
1.0
 40
1.0
 40
1.0
 10
148.1909240423103
 20
164.4811587257064
 30
0.0
 10
148.1757385881044
 20
164.462151684383
 30
0.0
 10
148.1463169685159
 20
164.4253257895671
 30
0.0
 10
148.0968157084505
 20
164.3773051878717
 30
0.0
 10
148.0452006219667
 20
164.3370082215372
 30
0.0
 10
147.9906333985912
 20
164.3052801544085
 30
0.0
 10
147.9336755465964
 20
164.2812841383547
 30
0.0
 10
147.8744886831321
 20
164.2639801829269
 30
0.0
 10
147.8127524582342
 20
164.2535983932363
 30
0.0
 10
147.7707676674313
 20
164.2522423674207
 30
0.0
 10
147.749527808336
 20
164.2515563619243
 30
0.0
  0
SPLINE
  5
302
330
1F
100
AcDbEntity
  8
SLD-0
  6
SLD-DURCHGEHEND
 62
     7
100
AcDbSpline
210
0.0
220
0.0
230
1.0
 70
     8
 71
     3
 72
    15
 73
    11
 74
     0
 42
0.000000001
 43
0.00000001
 40
0.0
 40
0.0
 40
0.0
 40
0.0
 40
0.1298635398584115
 40
0.2546562725792851
 40
0.3765790035057979
 40
0.4958209849134798
 40
0.6156516375024166
 40
0.7381460152074771
 40
0.8656460753711668
 40
1.0
 40
1.0
 40
1.0
 40
1.0
 10
149.2708818361154
 20
164.2515562632782
 30
0.0
 10
149.2472049990406
 20
164.2522059377918
 30
0.0
 10
149.2007758389966
 20
164.2534799188506
 30
0.0
 10
149.132768967739
 20
164.2641724712303
 30
0.0
 10
149.068404066184
 20
164.2820695286154
 30
0.0
 10
149.007123633976
 20
164.306497167812
 30
0.0
 10
148.9497888594666
 20
164.3393925046631
 30
0.0
 10
148.8958485599669
 20
164.3800950810232
 30
0.0
 10
148.845942756824
 20
164.4295916599551
 30
0.0
 10
148.8165710651679
 20
164.4672452184615
 30
0.0
 10
148.8015008265
 20
164.4865647769
 30
0.0
  0
SPLINE
  5
303
330
1F
100
AcDbEntity
  8
SLD-0
  6
SLD-DURCHGEHEND
 62
     7
100
AcDbSpline
210
0.0
220
0.0
230
1.0
 70
     8
 71
     3
 72
    23
 73
    19
 74
     0
 42
0.000000001
 43
0.00000001
 40
0.0
 40
0.0
 40
0.0
 40
0.0
 40
0.0637814724965009
 40
0.1260925303724585
 40
0.1869244323723039
 40
0.2476008768692151
 40
0.3080368742790072
 40
0.3693492899539816
 40
0.4322574644027524
 40
0.4970220782641075
 40
0.5618491610224146
 40
0.6248894581378539
 40
0.6869962791359585
 40
0.7480514182236212
 40
0.8095615691495256
 40
0.8716167729305409
 40
0.9348787348521415
 40
1.0
 40
1.0
 40
1.0
 40
1.0
 10
149.8801867239359
 20
164.8487768161628
 30
0.0
 10
149.8796185503514
 20
164.82860926465
 30
0.0
 10
149.8784953018255
 20
164.7887391032673
 30
0.0
 10
149.8701234480209
 20
164.7301032218054
 30
0.0
 10
149.8560560545247
 20
164.6736207102532
 30
0.0
 10
149.8362766350468
 20
164.6195008008079
 30
0.0
 10
149.8110258767857
 20
164.567525534754
 30
0.0
 10
149.7797887021291
 20
164.518101567411
 30
0.0
 10
149.7435682854617
 20
164.4704728512599
 30
0.0
 10
149.7017112051697
 20
164.4261667547646
 30
0.0
 10
149.6563911928647
 20
164.3853891986091
 30
0.0
 10
149.6081339836237
 20
164.3494806244301
 30
0.0
 10
149.5575412965716
 20
164.319180094133
 30
0.0
 10
149.504511686187
 20
164.2945487087871
 30
0.0
 10
149.4494206489956
 20
164.2749751105392
 30
0.0
 10
149.3918496879002
 20
164.2613304278705
 30
0.0
 10
149.3320606123201
 20
164.2533095386811
 30
0.0
 10
149.2914707085545
 20
164.2521463039077
 30
0.0
 10
149.2708818361154
 20
164.2515562632782
 30
0.0
  0
SPLINE
  5
304
330
1F
100
AcDbEntity
  8
SLD-0
  6
SLD-DURCHGEHEND
 62
     7
100
AcDbSpline
210
0.0
220
0.0
230
1.0
 70
     8
 71
     3
 72
    19
 73
    15
 74
     0
 42
0.000000001
 43
0.00000001
 40
0.0
 40
0.0
 40
0.0
 40
0.0
 40
0.0859316353012352
 40
0.1696153800701755
 40
0.2525081845375798
 40
0.3362879861099486
 40
0.419796486365681
 40
0.5020538565398813
 40
0.5851301200390708
 40
0.6696053338340962
 40
0.7541530585556003
 40
0.8366371023340333
 40
0.917999116382483
 40
1.0
 40
1.0
 40
1.0
 40
1.0
 10
152.8306723316125
 20
164.3940235641087
 30
0.0
 10
152.8514973277913
 20
164.3947651616551
 30
0.0
 10
152.8926025578902
 20
164.3962289572553
 30
0.0
 10
152.9529538161254
 20
164.4076378802238
 30
0.0
 10
153.0106758690374
 20
164.4266695623998
 30
0.0
 10
153.0656748499765
 20
164.4525475958219
 30
0.0
 10
153.1164323367499
 20
164.4856965581808
 30
0.0
 10
153.1625478737109
 20
164.5247817551875
 30
0.0
 10
153.2027713477771
 20
164.5702820551899
 30
0.0
 10
153.2367814268007
 20
164.6211520815653
 30
0.0
 10
153.2650160954996
 20
164.6753602744292
 30
0.0
 10
153.2845002098231
 20
164.7324398592175
 30
0.0
 10
153.2974416468207
 20
164.7908480901374
 30
0.0
 10
153.2987570499408
 20
164.8304751812132
 30
0.0
 10
153.2994173235997
 20
164.8503662123459
 30
0.0
  0
SPLINE
  5
305
330
1F
100
AcDbEntity
  8
SLD-0
  6
SLD-DURCHGEHEND
 62
     7
100
AcDbSpline
210
0.0
220
0.0
230
1.0
 70
     8
 71
     3
 72
    19
 73
    15
 74
     0
 42
0.000000001
 43
0.00000001
 40
0.0
 40
0.0
 40
0.0
 40
0.0
 40
0.0816029563018766
 40
0.1628860565710326
 40
0.2452599711799502
 40
0.3305976512007716
 40
0.4160530886965685
 40
0.4997957006631235
 40
0.5829645219766723
 40
0.6670882457538491
 40
0.7512563580964831
 40
0.833327426405867
 40
0.9162425219057507
 40
0.9999999999999999
 40
0.9999999999999999
 40
0.9999999999999999
 40
0.9999999999999999
 10
153.2994173235997
 20
164.8503662123459
 30
0.0
 10
153.298560206951
 20
164.8701335111126
 30
0.0
 10
153.2968493332615
 20
164.9095906275097
 30
0.0
 10
153.2848977897605
 20
164.9680883667803
 30
0.0
 10
153.2639193668544
 20
165.0247955521971
 30
0.0
 10
153.2363023194782
 20
165.0797025144434
 30
0.0
 10
153.2017568780032
 20
165.1309519760045
 30
0.0
 10
153.1616127934294
 20
165.1772924148361
 30
0.0
 10
153.1152632570333
 20
165.2169801086953
 30
0.0
 10
153.0640588195756
 20
165.2502227645301
 30
0.0
 10
153.0094277754567
 20
165.2769638101549
 30
0.0
 10
152.9519563272383
 20
165.2958243543796
 30
0.0
 10
152.892646184277
 20
165.3077327367182
 30
0.0
 10
152.8522463677972
 20
165.3091677937404
 30
0.0
 10
152.831944366869
 20
165.3098889487241
 30
0.0
  0
SPLINE
  5
306
330
1F
100
AcDbEntity
  8
SLD-0
  6
SLD-DURCHGEHEND
 62
     7
100
AcDbSpline
210
0.0
220
0.0
230
1.0
 70
     8
 71
     3
 72
    19
 73
    15
 74
     0
 42
0.000000001
 43
0.00000001
 40
0.0
 40
0.0
 40
0.0
 40
0.0
 40
0.0848108644148095
 40
0.1682513946314713
 40
0.2526978084348679
 40
0.3383941380662107
 40
0.4232655920964674
 40
0.5057272230231882
 40
0.5863265449704909
 40
0.667654840499065
 40
0.7490264327974109
 40
0.830435452381033
 40
0.9134470560506098
 40
1.0
 40
1.0
 40
1.0
 40
1.0
 10
152.831944366869
 20
165.3098889487241
 30
0.0
 10
152.8113314598287
 20
165.3091386623639
 30
0.0
 10
152.7704386994394
 20
165.3076502124187
 30
0.0
 10
152.7098787637576
 20
165.2961626078326
 30
0.0
 10
152.6512172897087
 20
165.2768946113901
 30
0.0
 10
152.594932008676
 20
165.2506572911951
 30
0.0
 10
152.5425865829125
 20
165.2181293960179
 30
0.0
 10
152.4958243899306
 20
165.1798795005247
 30
0.0
 10
152.4554263528645
 20
165.1360762209616
 30
0.0
 10
152.4221652271131
 20
165.0869812933678
 30
0.0
 10
152.3955900369772
 20
165.0337522383669
 30
0.0
 10
152.376772786487
 20
164.9768984393614
 30
0.0
 10
152.3653438512164
 20
164.9167577420554
 30
0.0
 10
152.3639240842284
 20
164.8755397433661
 30
0.0
 10
152.3631993748818
 20
164.8545003269293
 30
0.0
  0
SPLINE
  5
307
330
1F
100
AcDbEntity
  8
SLD-0
  6
SLD-DURCHGEHEND
 62
     7
100
AcDbSpline
210
0.0
220
0.0
230
1.0
 70
     8
 71
     3
 72
    23
 73
    19
 74
     0
 42
0.000000001
 43
0.00000001
 40
0.0
 40
0.0
 40
0.0
 40
0.0
 40
0.0656289188354492
 40
0.1291784810189617
 40
0.1912044631851453
 40
0.2518940844507608
 40
0.3124842348504703
 40
0.3734666589599347
 40
0.4351192397198709
 40
0.4984087324490505
 40
0.5617577637546378
 40
0.6241941724705065
 40
0.6851039146656144
 40
0.7461156962495895
 40
0.8076259433578024
 40
0.8699762505581936
 40
0.9339559306300013
 40
1.0
 40
1.0
 40
1.0
 40
1.0
 10
152.3631993748818
 20
164.8545003269293
 30
0.0
 10
152.3636346544721
 20
164.8384721028483
 30
0.0
 10
152.3644914224532
 20
164.8069234856083
 30
0.0
 10
152.3710366181894
 20
164.7606012731817
 30
0.0
 10
152.3814486768055
 20
164.7162723710026
 30
0.0
 10
152.3961186657337
 20
164.673888259526
 30
0.0
 10
152.4153963677812
 20
164.6336903272469
 30
0.0
 10
152.4386225383031
 20
164.5953634782034
 30
0.0
 10
152.4662735806322
 20
164.5592647219205
 30
0.0
 10
152.4975080030283
 20
164.5254397740945
 30
0.0
 10
152.5320824060923
 20
164.4947423573944
 30
0.0
 10
152.5688478028113
 20
164.4676859118871
 30
0.0
 10
152.6077116918298
 20
164.4447887139497
 30
0.0
 10
152.6486467928732
 20
164.4264649665466
 30
0.0
 10
152.6913378208351
 20
164.4115370689332
 30
0.0
 10
152.7361939612834
 20
164.4016774506066
 30
0.0
 10
152.7827631463187
 20
164.3948856952611
 30
0.0
 10
152.8145344586246
 20
164.3943139669397
 30
0.0
 10
152.8306723316125
 20
164.3940235641087
 30
0.0
  0
SPLINE
  5
308
330
1F
100
AcDbEntity
  8
SLD-0
  6
SLD-DURCHGEHEND
 62
     7
100
AcDbSpline
210
0.0
220
0.0
230
1.0
 70
     8
 71
     3
 72
    19
 73
    15
 74
     0
 42
0.000000001
 43
0.00000001
 40
0.0
 40
0.0
 40
0.0
 40
0.0
 40
0.0962465801078454
 40
0.1847621654988761
 40
0.2672510442489457
 40
0.3441560607047082
 40
0.4197101844779604
 40
0.4966786859386282
 40
0.5767183147488709
 40
0.660353857478705
 40
0.7452884489360027
 40
0.8300839513433014
 40
0.9144415130412478
 40
1.0
 40
1.0
 40
1.0
 40
1.0
 10
154.2763404005228
 20
164.7400171538524
 30
0.0
 10
154.2815249630542
 20
164.7211061084147
 30
0.0
 10
154.2914776387689
 20
164.6848030449397
 30
0.0
 10
154.312807491965
 20
164.6346672337712
 30
0.0
 10
154.3357153855924
 20
164.5895968389784
 30
0.0
 10
154.3638469109713
 20
164.550731543677
 30
0.0
 10
154.3956831985236
 20
164.5163979289832
 30
0.0
 10
154.4325700018198
 20
164.4865749284169
 30
0.0
 10
154.4732886955953
 20
164.4592195287546
 30
0.0
 10
154.5185795428909
 20
164.4364153869512
 30
0.0
 10
154.5666920773013
 20
164.4176824608118
 30
0.0
 10
154.6166273855065
 20
164.403906307698
 30
0.0
 10
154.6679699483829
 20
164.3958086497956
 30
0.0
 10
154.7025503117287
 20
164.3946213897593
 30
0.0
 10
154.7199626961959
 20
164.3940235641087
 30
0.0
  0
SPLINE
  5
309
330
1F
100
AcDbEntity
  8
SLD-0
  6
SLD-DURCHGEHEND
 62
     7
100
AcDbSpline
210
0.0
220
0.0
230
1.0
 70
     8
 71
     3
 72
    15
 73
    11
 74
     0
 42
0.000000001
 43
0.00000001
 40
0.0
 40
0.0
 40
0.0
 40
0.0
 40
0.1310991074852454
 40
0.2591553732672511
 40
0.3841826613699394
 40
0.5072450190986146
 40
0.629077912821599
 40
0.7506555601572382
 40
0.8740320855016763
 40
1.0
 40
1.0
 40
1.0
 40
1.0
 10
154.7199626961959
 20
164.3940235641087
 30
0.0
 10
154.7341825898684
 20
164.3942989520645
 30
0.0
 10
154.7622923300735
 20
164.3948433361554
 30
0.0
 10
154.8036940024883
 20
164.400075460552
 30
0.0
 10
154.8436293362789
 20
164.4085944043132
 30
0.0
 10
154.8819068830246
 20
164.4207831369554
 30
0.0
 10
154.9186131039508
 20
164.4361097299874
 30
0.0
 10
154.9539164119303
 20
164.4545551679363
 30
0.0
 10
154.987391879612
 20
164.4769984746519
 30
0.0
 10
155.0083187843969
 20
164.4941285340929
 30
0.0
 10
155.0188909814523
 20
164.5027825785318
 30
0.0
  0
SPLINE
  5
30A
330
1F
100
AcDbEntity
  8
SLD-0
  6
SLD-DURCHGEHEND
 62
     7
100
AcDbSpline
210
0.0
220
0.0
230
1.0
 70
     8
 71
     3
 72
    15
 73
    11
 74
     0
 42
0.000000001
 43
0.00000001
 40
0.0
 40
0.0
 40
0.0
 40
0.0
 40
0.1099881983153781
 40
0.222589307186816
 40
0.3385132689194122
 40
0.4596958728817779
 40
0.5855189417853054
 40
0.7175065621879477
 40
0.8546610674070464
 40
1.0
 40
1.0
 40
1.0
 40
1.0
 10
155.0188909814523
 20
164.5027825785318
 30
0.0
 10
155.0264637638453
 20
164.5096282092457
 30
0.0
 10
155.0417892297784
 20
164.5234820974008
 30
0.0
 10
155.062245159487
 20
164.5473644330927
 30
0.0
 10
155.081977054226
 20
164.5731320750224
 30
0.0
 10
155.099511717832
 20
164.6019098044972
 30
0.0
 10
155.116175812564
 20
164.6328630985576
 30
0.0
 10
155.1313611234825
 20
164.6662178157783
 30
0.0
 10
155.1451683113624
 20
164.7021147471862
 30
0.0
 10
155.1529191225506
 20
164.7271413274572
 30
0.0
 10
155.1569068067728
 20
164.7400171538524
 30
0.0
  0
SPLINE
  5
30B
330
1F
100
AcDbEntity
  8
SLD-0
  6
SLD-DURCHGEHEND
 62
     7
100
AcDbSpline
210
0.0
220
0.0
230
1.0
 70
     8
 71
     3
 72
    19
 73
    15
 74
     0
 42
0.000000001
 43
0.00000001
 40
0.0
 40
0.0
 40
0.0
 40
0.0
 40
0.0859316353012353
 40
0.1696153800701756
 40
0.2525081845375814
 40
0.3362879861099481
 40
0.4197964863656806
 40
0.5020538565398809
 40
0.5851301200390705
 40
0.6696053338340958
 40
0.7541530585556001
 40
0.8366371023340331
 40
0.9179991163824828
 40
0.9999999999999999
 40
0.9999999999999999
 40
0.9999999999999999
 40
0.9999999999999999
 10
149.2689736136638
 20
164.3940235641087
 30
0.0
 10
149.2897986098426
 20
164.3947651616551
 30
0.0
 10
149.3309038399415
 20
164.3962289572554
 30
0.0
 10
149.3912550981767
 20
164.4076378802238
 30
0.0
 10
149.4489771510887
 20
164.4266695623998
 30
0.0
 10
149.5039761320278
 20
164.4525475958218
 30
0.0
 10
149.5547336188012
 20
164.4856965581808
 30
0.0
 10
149.6008491557622
 20
164.5247817551875
 30
0.0
 10
149.6410726298284
 20
164.5702820551899
 30
0.0
 10
149.675082708852
 20
164.6211520815653
 30
0.0
 10
149.7033173775509
 20
164.6753602744292
 30
0.0
 10
149.7228014918744
 20
164.7324398592175
 30
0.0
 10
149.735742928872
 20
164.7908480901374
 30
0.0
 10
149.7370583319921
 20
164.8304751812132
 30
0.0
 10
149.737718605651
 20
164.8503662123459
 30
0.0
  0
SPLINE
  5
30C
330
1F
100
AcDbEntity
  8
SLD-0
  6
SLD-DURCHGEHEND
 62
     7
100
AcDbSpline
210
0.0
220
0.0
230
1.0
 70
     8
 71
     3
 72
    19
 73
    15
 74
     0
 42
0.000000001
 43
0.00000001
 40
0.0
 40
0.0
 40
0.0
 40
0.0
 40
0.0816029563018766
 40
0.1628860565710326
 40
0.2452599711799502
 40
0.3305976512007716
 40
0.4160530886965685
 40
0.4997957006631235
 40
0.5829645219766723
 40
0.6670882457538491
 40
0.7512563580964831
 40
0.833327426405867
 40
0.9162425219057507
 40
0.9999999999999999
 40
0.9999999999999999
 40
0.9999999999999999
 40
0.9999999999999999
 10
149.737718605651
 20
164.8503662123459
 30
0.0
 10
149.7368614890023
 20
164.8701335111126
 30
0.0
 10
149.7351506153128
 20
164.9095906275097
 30
0.0
 10
149.7231990718118
 20
164.9680883667803
 30
0.0
 10
149.7022206489057
 20
165.0247955521971
 30
0.0
 10
149.6746036015295
 20
165.0797025144434
 30
0.0
 10
149.6400581600545
 20
165.1309519760044
 30
0.0
 10
149.5999140754806
 20
165.177292414836
 30
0.0
 10
149.5535645390846
 20
165.2169801086953
 30
0.0
 10
149.5023601016269
 20
165.2502227645301
 30
0.0
 10
149.447729057508
 20
165.2769638101549
 30
0.0
 10
149.3902576092896
 20
165.2958243543795
 30
0.0
 10
149.3309474663283
 20
165.3077327367181
 30
0.0
 10
149.2905476498484
 20
165.3091677937403
 30
0.0
 10
149.2702456489202
 20
165.3098889487241
 30
0.0
  0
SPLINE
  5
30D
330
1F
100
AcDbEntity
  8
SLD-0
  6
SLD-DURCHGEHEND
 62
     7
100
AcDbSpline
210
0.0
220
0.0
230
1.0
 70
     8
 71
     3
 72
    19
 73
    15
 74
     0
 42
0.000000001
 43
0.00000001
 40
0.0
 40
0.0
 40
0.0
 40
0.0
 40
0.0848108644148095
 40
0.1682513946314713
 40
0.2526978084348679
 40
0.3383941380662107
 40
0.4232655920964674
 40
0.5057272230231882
 40
0.5863265449704909
 40
0.667654840499065
 40
0.7490264327974109
 40
0.830435452381033
 40
0.9134470560506098
 40
1.0
 40
1.0
 40
1.0
 40
1.0
 10
149.2702456489202
 20
165.3098889487241
 30
0.0
 10
149.24963274188
 20
165.3091386623639
 30
0.0
 10
149.2087399814907
 20
165.3076502124187
 30
0.0
 10
149.1481800458089
 20
165.2961626078326
 30
0.0
 10
149.08951857176
 20
165.2768946113901
 30
0.0
 10
149.0332332907273
 20
165.2506572911951
 30
0.0
 10
148.9808878649638
 20
165.2181293960179
 30
0.0
 10
148.9341256719819
 20
165.1798795005247
 30
0.0
 10
148.8937276349158
 20
165.1360762209616
 30
0.0
 10
148.8604665091644
 20
165.0869812933678
 30
0.0
 10
148.8338913190285
 20
165.0337522383669
 30
0.0
 10
148.8150740685382
 20
164.9768984393614
 30
0.0
 10
148.8036451332676
 20
164.9167577420554
 30
0.0
 10
148.8022253662797
 20
164.8755397433661
 30
0.0
 10
148.801500656933
 20
164.8545003269293
 30
0.0
  0
SPLINE
  5
30E
330
1F
100
AcDbEntity
  8
SLD-0
  6
SLD-DURCHGEHEND
 62
     7
100
AcDbSpline
210
0.0
220
0.0
230
1.0
 70
     8
 71
     3
 72
    23
 73
    19
 74
     0
 42
0.000000001
 43
0.00000001
 40
0.0
 40
0.0
 40
0.0
 40
0.0
 40
0.0656289188354492
 40
0.1291784810189617
 40
0.1912044631851453
 40
0.2518940844507608
 40
0.3124842348504703
 40
0.3734666589599347
 40
0.4351192397198709
 40
0.4984087324490505
 40
0.5617577637546378
 40
0.6241941724705065
 40
0.6851039146656144
 40
0.7461156962495895
 40
0.8076259433578024
 40
0.8699762505581936
 40
0.9339559306300013
 40
1.0
 40
1.0
 40
1.0
 40
1.0
 10
148.801500656933
 20
164.8545003269293
 30
0.0
 10
148.8019359365234
 20
164.8384721028483
 30
0.0
 10
148.8027927045045
 20
164.8069234856084
 30
0.0
 10
148.8093379002407
 20
164.7606012731817
 30
0.0
 10
148.8197499588568
 20
164.7162723710026
 30
0.0
 10
148.834419947785
 20
164.673888259526
 30
0.0
 10
148.8536976498325
 20
164.6336903272469
 30
0.0
 10
148.8769238203544
 20
164.5953634782034
 30
0.0
 10
148.9045748626835
 20
164.5592647219205
 30
0.0
 10
148.9358092850796
 20
164.5254397740944
 30
0.0
 10
148.9703836881436
 20
164.4947423573944
 30
0.0
 10
149.0071490848626
 20
164.4676859118871
 30
0.0
 10
149.0460129738811
 20
164.4447887139497
 30
0.0
 10
149.0869480749245
 20
164.4264649665466
 30
0.0
 10
149.1296391028864
 20
164.4115370689332
 30
0.0
 10
149.1744952433347
 20
164.4016774506066
 30
0.0
 10
149.22106442837
 20
164.3948856952611
 30
0.0
 10
149.2528357406759
 20
164.3943139669397
 30
0.0
 10
149.2689736136638
 20
164.3940235641087
 30
0.0
  0
SPLINE
  5
30F
330
1F
100
AcDbEntity
  8
SLD-0
  6
SLD-DURCHGEHEND
 62
     7
100
AcDbSpline
210
0.0
220
0.0
230
1.0
 70
     8
 71
     3
 72
    19
 73
    15
 74
     0
 42
0.000000001
 43
0.00000001
 40
0.0
 40
0.0
 40
0.0
 40
0.0
 40
0.0978181896147144
 40
0.1997260534018267
 40
0.305276357477941
 40
0.4158114905382927
 40
0.4744722311435601
 40
0.5372738797760971
 40
0.6036574205596567
 40
0.674298863090126
 40
0.7498344853162294
 40
0.828598476757102
 40
0.9123777781577816
 40
1.0
 40
1.0
 40
1.0
 40
1.0
 10
222.8543088433984
 20
147.8310286835099
 30
0.0
 10
222.8325104526
 20
147.8317431764424
 30
0.0
 10
222.7880023035348
 20
147.8332020344949
 30
0.0
 10
222.7205931056832
 20
147.8433882753185
 30
0.0
 10
222.6516193562581
 20
147.8597560321637
 30
0.0
 10
222.5931061058451
 20
147.8780865144816
 30
0.0
 10
222.5451717568505
 20
147.8974543834136
 30
0.0
 10
222.5065253601397
 20
147.9135728240214
 30
0.0
 10
222.4667555682311
 20
147.9336351930554
 30
0.0
 10
222.4244986550429
 20
147.9550276664447
 30
0.0
 10
222.3808436552742
 20
147.9796758681216
 30
0.0
 10
222.3350609599333
 20
148.0064762846564
 30
0.0
 10
222.2878786893948
 20
148.0361698830612
 30
0.0
 10
222.2558600570312
 20
148.0569858862457
 30
0.0
 10
222.2394918028001
 20
148.0676272412022
 30
0.0
  0
SPLINE
  5
310
330
1F
100
AcDbEntity
  8
SLD-0
  6
SLD-DURCHGEHEND
 62
     7
100
AcDbSpline
210
0.0
220
0.0
230
1.0
 70
     8
 71
     3
 72
    19
 73
    15
 74
     0
 42
0.000000001
 43
0.00000001
 40
0.0
 40
0.0
 40
0.0
 40
0.0
 40
0.0843477440695389
 40
0.1670781128704513
 40
0.2496046125983587
 40
0.3329741209629521
 40
0.4161613684367848
 40
0.4978114481482235
 40
0.5806859207771503
 40
0.664926458751437
 40
0.7494280084058401
 40
0.8324843719397198
 40
0.9156262555771815
 40
1.0
 40
1.0
 40
1.0
 40
1.0
 10
223.4988067066462
 20
148.4721344527406
 30
0.0
 10
223.497885132378
 20
148.4436509635584
 30
0.0
 10
223.4960596551076
 20
148.3872301585562
 30
0.0
 10
223.4797132703611
 20
148.304254525904
 30
0.0
 10
223.4534070146747
 20
148.2243838692919
 30
0.0
 10
223.4164055158718
 20
148.1486434395673
 30
0.0
 10
223.3704573956222
 20
148.0783649208088
 30
0.0
 10
223.3155275069308
 20
148.0149878271489
 30
0.0
 10
223.2515395381
 20
147.9602107143503
 30
0.0
 10
223.1798932636904
 20
147.914214426746
 30
0.0
 10
223.103011715992
 20
147.8775783936361
 30
0.0
 10
223.0227079276588
 20
147.8503612018867
 30
0.0
 10
222.9393190315415
 20
147.8343791611825
 30
0.0
 10
222.882784153083
 20
147.8321509712192
 30
0.0
 10
222.8543088433984
 20
147.8310286835099
 30
0.0
  0
SPLINE
  5
311
330
1F
100
AcDbEntity
  8
SLD-0
  6
SLD-DURCHGEHEND
 62
     7
100
AcDbSpline
210
0.0
220
0.0
230
1.0
 70
     8
 71
     3
 72
    19
 73
    15
 74
     0
 42
0.000000001
 43
0.00000001
 40
0.0
 40
0.0
 40
0.0
 40
0.0
 40
0.0859502599033723
 40
0.1691297707146054
 40
0.2504058567884861
 40
0.3319304435015755
 40
0.4133484749288632
 40
0.4941586485941853
 40
0.5760103068925044
 40
0.6607478248300812
 40
0.7457762734019603
 40
0.8300390117361307
 40
0.9140252284007342
 40
1.0
 40
1.0
 40
1.0
 40
1.0
 10
222.8504927376291
 20
149.133592786074
 30
0.0
 10
222.8801149052346
 20
149.1327342380689
 30
0.0
 10
222.9384043207736
 20
149.1310448187767
 30
0.0
 10
223.0232829692896
 20
149.1141397869014
 30
0.0
 10
223.104096904474
 20
149.0880671029591
 30
0.0
 10
223.1794477500615
 20
149.0502038877106
 30
0.0
 10
223.249857393553
 20
149.004064908947
 30
0.0
 10
223.3120394319606
 20
148.9471077872354
 30
0.0
 10
223.3674958987816
 20
148.8821584192937
 30
0.0
 10
223.4138499121769
 20
148.8086799352525
 30
0.0
 10
223.4517112066865
 20
148.7296137142808
 30
0.0
 10
223.4789041128308
 20
148.6465478900678
 30
0.0
 10
223.4956461149409
 20
148.5602925748223
 30
0.0
 10
223.4977449904166
 20
148.501748815402
 30
0.0
 10
223.4988067066462
 20
148.4721344527406
 30
0.0
  0
SPLINE
  5
312
330
1F
100
AcDbEntity
  8
SLD-0
  6
SLD-DURCHGEHEND
 62
     7
100
AcDbSpline
210
0.0
220
0.0
230
1.0
 70
     8
 71
     3
 72
    23
 73
    19
 74
     0
 42
0.000000001
 43
0.00000001
 40
0.0
 40
0.0
 40
0.0
 40
0.0
 40
0.0652318644316688
 40
0.1284069839392142
 40
0.1900701621942051
 40
0.250947446248865
 40
0.3115508987630061
 40
0.3728688651161769
 40
0.4350307475863999
 40
0.4990798398946153
 40
0.5631002312279594
 40
0.6255202774773068
 40
0.6866912017341177
 40
0.7476830982958164
 40
0.8085603823504779
 40
0.8707400017097257
 40
0.9343398838527716
 40
1.0
 40
1.0
 40
1.0
 40
1.0
 10
222.2233793562189
 20
148.5056313811594
 30
0.0
 10
222.2239575761296
 20
148.5271442718443
 30
0.0
 10
222.2250957848171
 20
148.5694917569687
 30
0.0
 10
222.2338550662292
 20
148.6316653938441
 30
0.0
 10
222.2476588233666
 20
148.691409181245
 30
0.0
 10
222.267780620012
 20
148.7484754811284
 30
0.0
 10
222.293484410791
 20
148.8030691731475
 30
0.0
 10
222.3242903520618
 20
148.8555033597798
 30
0.0
 10
222.3617888222412
 20
148.904793128631
 30
0.0
 10
222.4036784114382
 20
148.9515704110733
 30
0.0
 10
222.4500710084647
 20
148.9940476495244
 30
0.0
 10
222.499309969802
 20
149.0316256153026
 30
0.0
 10
222.5513914013275
 20
149.0633633464555
 30
0.0
 10
222.6063035910685
 20
149.0886489731742
 30
0.0
 10
222.6636166940595
 20
149.1088566667203
 30
0.0
 10
222.7235542353904
 20
149.1232420848641
 30
0.0
 10
222.7862173763885
 20
149.1318419044556
 30
0.0
 10
222.8288411615635
 20
149.1330029901427
 30
0.0
 10
222.8504927376291
 20
149.133592786074
 30
0.0
  0
SPLINE
  5
313
330
1F
100
AcDbEntity
  8
SLD-0
  6
SLD-DURCHGEHEND
 62
     7
100
AcDbSpline
210
0.0
220
0.0
230
1.0
 70
     8
 71
     3
 72
     9
 73
     5
 74
     0
 42
0.000000001
 43
0.00000001
 40
0.0
 40
0.0
 40
0.0
 40
0.0
 40
0.5126593363417785
 40
1.0
 40
1.0
 40
1.0
 40
1.0
 10
222.2437319203215
 20
148.2864173053047
 30
0.0
 10
222.2377968712595
 20
148.3236526632899
 30
0.0
 10
222.2262198870105
 20
148.396284439102
 30
0.0
 10
222.224310081906
 20
148.4698028634477
 30
0.0
 10
222.2233793562189
 20
148.5056313811594
 30
0.0
  0
SPLINE
  5
314
330
1F
100
AcDbEntity
  8
SLD-0
  6
SLD-DURCHGEHEND
 62
     7
100
AcDbSpline
210
0.0
220
0.0
230
1.0
 70
     8
 71
     3
 72
    23
 73
    19
 74
     0
 42
0.000000001
 43
0.00000001
 40
0.0
 40
0.0
 40
0.0
 40
0.0
 40
0.0825178646724977
 40
0.1587560775837785
 40
0.2277053923628974
 40
0.2899040591668534
 40
0.3454492757863909
 40
0.393839831652641
 40
0.4363111859770621
 40
0.4720545470135499
 40
0.536306669562265
 40
0.5989919620873653
 40
0.6618532754363848
 40
0.7265338930473139
 40
0.7919850632178936
 40
0.858667581293532
 40
0.9273157620896961
 40
1.0
 40
1.0
 40
1.0
 40
1.0
 10
222.6579915120163
 20
153.285516230976
 30
0.0
 10
222.6358007907391
 20
153.2854681940873
 30
0.0
 10
222.5931080734383
 20
153.2853757759418
 30
0.0
 10
222.5318858021924
 20
153.2837572419764
 30
0.0
 10
222.4761986758873
 20
153.2806810443471
 30
0.0
 10
222.4261113997997
 20
153.2771247210426
 30
0.0
 10
222.381715055762
 20
153.272008301222
 30
0.0
 10
222.3427714642447
 20
153.2661967633818
 30
0.0
 10
222.3093787648766
 20
153.2593333128044
 30
0.0
 10
222.2727512282622
 20
153.2479708421672
 30
0.0
 10
222.232408222611
 20
153.2305992918023
 30
0.0
 10
222.1893557099045
 20
153.2026909814832
 30
0.0
 10
222.1517423422577
 20
153.1677000509803
 30
0.0
 10
222.1191350107694
 20
153.1271065004861
 30
0.0
 10
222.0924901886014
 20
153.0810763904503
 30
0.0
 10
222.0739722392798
 20
153.0301187909835
 30
0.0
 10
222.0626744648895
 20
152.9750684213963
 30
0.0
 10
222.061277422338
 20
152.9370342106414
 30
0.0
 10
222.0605589532556
 20
152.9174740301213
 30
0.0
  0
SPLINE
  5
315
330
1F
100
AcDbEntity
  8
SLD-0
  6
SLD-DURCHGEHEND
 62
     7
100
AcDbSpline
210
0.0
220
0.0
230
1.0
 70
     8
 71
     3
 72
    23
 73
    19
 74
     0
 42
0.000000001
 43
0.00000001
 40
0.0
 40
0.0
 40
0.0
 40
0.0
 40
0.0681960423012311
 40
0.1346610602425791
 40
0.2019779183112744
 40
0.2707036098373699
 40
0.3399478869248246
 40
0.4080144403213824
 40
0.4767530852947587
 40
0.5472943578579625
 40
0.5855926514138016
 40
0.6288229591528351
 40
0.6771169625572432
 40
0.731171226956993
 40
0.789781572412521
 40
0.8543076525521726
 40
0.9243561226748718
 40
1.0
 40
1.0
 40
1.0
 40
1.0
 10
222.060558940565
 20
153.9770790554568
 30
0.0
 10
222.0616543485496
 20
153.9531077441443
 30
0.0
 10
222.0638173597103
 20
153.9057735867972
 30
0.0
 10
222.0800794945107
 20
153.8362740091414
 30
0.0
 10
222.1071080438784
 20
153.7701985468169
 30
0.0
 10
222.1440740339275
 20
153.7079933056268
 30
0.0
 10
222.1894844393723
 20
153.6512976543103
 30
0.0
 10
222.2432210327073
 20
153.6023430581856
 30
0.0
 10
222.3040935763843
 20
153.5619333576919
 30
0.0
 10
222.3604213861324
 20
153.5345641281687
 30
0.0
 10
222.4110218398625
 20
153.5172731923972
 30
0.0
 10
222.4552289778538
 20
153.5058627034943
 30
0.0
 10
222.5056079922045
 20
153.4969333729531
 30
0.0
 10
222.5615681536407
 20
153.4887210843288
 30
0.0
 10
222.6235859641942
 20
153.483178765928
 30
0.0
 10
222.6912784826326
 20
153.4782827359195
 30
0.0
 10
222.765109101915
 20
153.4759619757346
 30
0.0
 10
222.8162882601102
 20
153.4756402128667
 30
0.0
 10
222.8428606232572
 20
153.475473152679
 30
0.0
  0
SPLINE
  5
316
330
1F
100
AcDbEntity
  8
SLD-0
  6
SLD-DURCHGEHEND
 62
     7
100
AcDbSpline
210
0.0
220
0.0
230
1.0
 70
     8
 71
     3
 72
    23
 73
    19
 74
     0
 42
0.000000001
 43
0.00000001
 40
0.0
 40
0.0
 40
0.0
 40
0.0
 40
0.0783354915401625
 40
0.1505489012169794
 40
0.2161303814058161
 40
0.2756534231619858
 40
0.3292306764225576
 40
0.3764235463709174
 40
0.4178170495337354
 40
0.4532045146460453
 40
0.5177708818605045
 40
0.5812566254833895
 40
0.645355819599173
 40
0.712052038777336
 40
0.7801510756898364
 40
0.8502325531193842
 40
0.9226559205487779
 40
0.9999999999999999
 40
0.9999999999999999
 40
0.9999999999999999
 40
0.9999999999999999
 10
222.6058380538127
 20
154.3438492210551
 30
0.0
 10
222.5860498680516
 20
154.3438023490513
 30
0.0
 10
222.5480199844719
 20
154.3437122681885
 30
0.0
 10
222.4934391233365
 20
154.3420802560319
 30
0.0
 10
222.4436850895797
 20
154.3390208274647
 30
0.0
 10
222.3986929410072
 20
154.3353885588553
 30
0.0
 10
222.3584767970495
 20
154.3304787760337
 30
0.0
 10
222.3231492784998
 20
154.3239963318487
 30
0.0
 10
222.2925491988591
 20
154.3171833575762
 30
0.0
 10
222.2586400219157
 20
154.305837943801
 30
0.0
 10
222.2212650847995
 20
154.2878689686546
 30
0.0
 10
222.1812519904167
 20
154.2599998710596
 30
0.0
 10
222.1461494774416
 20
154.2254136902869
 30
0.0
 10
222.1156753168455
 20
154.1852570408783
 30
0.0
 10
222.0908792123902
 20
154.1395750590357
 30
0.0
 10
222.0731755106667
 20
154.0892178196574
 30
0.0
 10
222.0622151188625
 20
154.0345091377898
 30
0.0
 10
222.0611229611935
 20
153.9966371858723
 30
0.0
 10
222.060558940565
 20
153.9770790554568
 30
0.0
  0
SPLINE
  5
317
330
1F
100
AcDbEntity
  8
SLD-0
  6
SLD-DURCHGEHEND
 62
     7
100
AcDbSpline
210
0.0
220
0.0
230
1.0
 70
     8
 71
     3
 72
    23
 73
    19
 74
     0
 42
0.000000001
 43
0.00000001
 40
0.0
 40
0.0
 40
0.0
 40
0.0
 40
0.075587009895967
 40
0.1479311173872495
 40
0.2186039988489567
 40
0.2892612546893307
 40
0.3594989326435154
 40
0.4294664204106219
 40
0.5005778141344579
 40
0.5741235861930819
 40
0.6136328091008568
 40
0.6568308839529082
 40
0.7040405881798172
 40
0.7549951271533204
 40
0.8097502066180166
 40
0.8688630034575788
 40
0.9324009641054154
 40
1.0
 40
1.0
 40
1.0
 40
1.0
 10
221.8706015784411
 20
154.0101519473988
 30
0.0
 10
221.8715673598574
 20
154.0360895289114
 30
0.0
 10
221.8734574878603
 20
154.0868518943071
 30
0.0
 10
221.8886507151741
 20
154.1606283035548
 30
0.0
 10
221.9137968961634
 20
154.2297268937308
 30
0.0
 10
221.949160257868
 20
154.2934152899463
 30
0.0
 10
221.9933880262564
 20
154.3509534276388
 30
0.0
 10
222.0460728059637
 20
154.4011577552013
 30
0.0
 10
222.1070221762895
 20
154.4429244261197
 30
0.0
 10
222.1639016017339
 20
154.4708465875838
 30
0.0
 10
222.2142119983765
 20
154.4894347773653
 30
0.0
 10
222.2572735724441
 20
154.501043855308
 30
0.0
 10
222.3047065163535
 20
154.5111015426327
 30
0.0
 10
222.3564726794872
 20
154.5196289447355
 30
0.0
 10
222.4126768725067
 20
154.5257938657064
 30
0.0
 10
222.4733449190742
 20
154.5303767957621
 30
0.0
 10
222.5385295378057
 20
154.5334743370651
 30
0.0
 10
222.583502917995
 20
154.5336934909472
 30
0.0
 10
222.6066859801505
 20
154.5338064612876
 30
0.0
  0
SPLINE
  5
318
330
1F
100
AcDbEntity
  8
SLD-0
  6
SLD-DURCHGEHEND
 62
     7
100
AcDbSpline
210
0.0
220
0.0
230
1.0
 70
     8
 71
     3
 72
    19
 73
    15
 74
     0
 42
0.000000001
 43
0.00000001
 40
0.0
 40
0.0
 40
0.0
 40
0.0
 40
0.0717521668266301
 40
0.1411981877692401
 40
0.2090753576981117
 40
0.2747864314077045
 40
0.3394171902939002
 40
0.4028022628820688
 40
0.4652557889952318
 40
0.5271345554699507
 40
0.6476933804260661
 40
0.7656069102549162
 40
0.8816380120028795
 40
1.0
 40
1.0
 40
1.0
 40
1.0
 10
222.2441559320736
 20
153.4428242230398
 30
0.0
 10
222.2292037079052
 20
153.4511164171396
 30
0.0
 10
222.1997798305635
 20
153.4674342906105
 30
0.0
 10
222.158134651642
 20
153.4948312476841
 30
0.0
 10
222.1191923702659
 20
153.5235458754365
 30
0.0
 10
222.0828723181488
 20
153.5537764578685
 30
0.0
 10
222.0494636092708
 20
153.5856499542417
 30
0.0
 10
222.0182846772219
 20
153.6186528140818
 30
0.0
 10
221.9901990482376
 20
153.653524114013
 30
0.0
 10
221.9573363346146
 20
153.7017577827897
 30
0.0
 10
221.9223178286175
 20
153.7644482456312
 30
0.0
 10
221.8927212305265
 20
153.8437973918262
 30
0.0
 10
221.8738726774554
 20
153.9260256125826
 30
0.0
 10
221.8716991495512
 20
153.981924543004
 30
0.0
 10
221.8706015784411
 20
154.0101519473988
 30
0.0
  0
SPLINE
  5
319
330
1F
100
AcDbEntity
  8
SLD-0
  6
SLD-DURCHGEHEND
 62
     7
100
AcDbSpline
210
0.0
220
0.0
230
1.0
 70
     8
 71
     3
 72
    19
 73
    15
 74
     0
 42
0.000000001
 43
0.00000001
 40
0.0
 40
0.0
 40
0.0
 40
0.0
 40
0.0841442561560045
 40
0.166516958355704
 40
0.2488133769868349
 40
0.331215589350676
 40
0.4129190153743426
 40
0.4904490315275447
 40
0.5661035663667918
 40
0.6394740727537094
 40
0.7162451438604597
 40
0.8021621561462419
 40
0.8958428096822215
 40
1.0
 40
1.0
 40
1.0
 40
1.0
 10
221.8706015784411
 20
152.950546578809
 30
0.0
 10
221.871233740351
 20
152.9692294763773
 30
0.0
 10
221.8724847547783
 20
153.0062019260544
 30
0.0
 10
221.8806247272576
 20
153.0609838771499
 30
0.0
 10
221.8946957670057
 20
153.1141168732253
 30
0.0
 10
221.9142924499973
 20
153.1652902494756
 30
0.0
 10
221.9380347475649
 20
153.2134948729745
 30
0.0
 10
221.9658578649177
 20
153.257722461993
 30
0.0
 10
221.9971524695048
 20
153.2972372083847
 30
0.0
 10
222.0328170514979
 20
153.3326724107556
 30
0.0
 10
222.074830754039
 20
153.3642561326869
 30
0.0
 10
222.1239993195114
 20
153.3931050866155
 30
0.0
 10
222.1810314235863
 20
153.4201158148638
 30
0.0
 10
222.222384476585
 20
153.4349921605071
 30
0.0
 10
222.2441559320736
 20
153.4428242230398
 30
0.0
  0
SPLINE
  5
31A
330
1F
100
AcDbEntity
  8
SLD-0
  6
SLD-DURCHGEHEND
 62
     7
100
AcDbSpline
210
0.0
220
0.0
230
1.0
 70
     8
 71
     3
 72
    11
 73
     7
 74
     0
 42
0.000000001
 43
0.00000001
 40
0.0
 40
0.0
 40
0.0
 40
0.0
 40
0.25373407569066
 40
0.5030351201318574
 40
0.7500135973308775
 40
0.9999999999999999
 40
0.9999999999999999
 40
0.9999999999999999
 40
0.9999999999999999
 10
221.9490437525864
 20
152.6316897412022
 30
0.0
 10
221.9369452697952
 20
152.6570078940475
 30
0.0
 10
221.9129596788661
 20
152.707201861978
 30
0.0
 10
221.888627955112
 20
152.786679202764
 30
0.0
 10
221.8736751557492
 20
152.8680043600551
 30
0.0
 10
221.8716302299108
 20
152.9229217084633
 30
0.0
 10
221.8706015784411
 20
152.950546578809
 30
0.0
  0
SPLINE
  5
31B
330
1F
100
AcDbEntity
  8
SLD-0
  6
SLD-DURCHGEHEND
 62
     7
100
AcDbSpline
210
0.0
220
0.0
230
1.0
 70
     8
 71
     3
 72
    11
 73
     7
 74
     0
 42
0.000000001
 43
0.00000001
 40
0.0
 40
0.0
 40
0.0
 40
0.0
 40
0.283594808138692
 40
0.5433948405759658
 40
0.780645629174557
 40
0.9999999999999999
 40
0.9999999999999999
 40
0.9999999999999999
 40
0.9999999999999999
 10
222.1665617814326
 20
152.417139794621
 30
0.0
 10
222.1430440413388
 20
152.4342448500453
 30
0.0
 10
222.0979817966777
 20
152.4670197760967
 30
0.0
 10
222.0386000533541
 20
152.5207623373659
 30
0.0
 10
221.9882063598251
 20
152.5744507482462
 30
0.0
 10
221.961752337474
 20
152.6131152219822
 30
0.0
 10
221.9490437525864
 20
152.6316897412022
 30
0.0
  0
SPLINE
  5
31C
330
1F
100
AcDbEntity
  8
SLD-0
  6
SLD-DURCHGEHEND
 62
     7
100
AcDbSpline
210
0.0
220
0.0
230
1.0
 70
     8
 71
     3
 72
    23
 73
    19
 74
     0
 42
0.000000001
 43
0.00000001
 40
0.0
 40
0.0
 40
0.0
 40
0.0
 40
0.0686751262333866
 40
0.1368670878140255
 40
0.2061085282548255
 40
0.2775303332216479
 40
0.3497620860433321
 40
0.4212389232300469
 40
0.492896817463476
 40
0.5666321823154239
 40
0.6062186270322251
 40
0.6497138598511638
 40
0.697311710717009
 40
0.7490927555380148
 40
0.8048861654123078
 40
0.8654888097710078
 40
0.9302391000392103
 40
1.0
 40
1.0
 40
1.0
 40
1.0
 10
222.0605589532556
 20
150.1766615422214
 30
0.0
 10
222.0614845201497
 20
150.1536707915602
 30
0.0
 10
222.0633291421013
 20
150.1078510419325
 30
0.0
 10
222.0799323965323
 20
150.0405397642581
 30
0.0
 10
222.1059397959294
 20
149.9755368541246
 30
0.0
 10
222.1420191099504
 20
149.913877230834
 30
0.0
 10
222.18671299936
 20
149.857231613826
 30
0.0
 10
222.2392663992388
 20
149.807617836856
 30
0.0
 10
222.2989779057616
 20
149.7660656093656
 30
0.0
 10
222.3544744244101
 20
149.7382211672238
 30
0.0
 10
222.4038222222889
 20
149.720370131058
 30
0.0
 10
222.4459443403453
 20
149.7086664107676
 30
0.0
 10
222.4926277553956
 20
149.6983935735473
 30
0.0
 10
222.5439692009409
 20
149.6908437264789
 30
0.0
 10
222.5997395146959
 20
149.6835324881432
 30
0.0
 10
222.6602249163898
 20
149.6800081825084
 30
0.0
 10
222.725371000133
 20
149.6765777569782
 30
0.0
 10
222.77034870116
 20
149.6764130802234
 30
0.0
 10
222.7936752727
 20
149.6763276747
 30
0.0
  0
SPLINE
  5
31D
330
1F
100
AcDbEntity
  8
SLD-0
  6
SLD-DURCHGEHEND
 62
     7
100
AcDbSpline
210
0.0
220
0.0
230
1.0
 70
     8
 71
     3
 72
    23
 73
    19
 74
     0
 42
0.000000001
 43
0.00000001
 40
0.0
 40
0.0
 40
0.0
 40
0.0
 40
0.0825178646724978
 40
0.1587560775837786
 40
0.2277053923628976
 40
0.2899040591668534
 40
0.3454492757863909
 40
0.393839831652641
 40
0.4363111859770621
 40
0.4720545470135499
 40
0.536306669562265
 40
0.5989919620873653
 40
0.6618532754363848
 40
0.7265338930473139
 40
0.7919850632178936
 40
0.858667581293532
 40
0.9273157620896961
 40
1.0
 40
1.0
 40
1.0
 40
1.0
 10
222.6579915120163
 20
150.544703743076
 30
0.0
 10
222.6358007907391
 20
150.5446557061874
 30
0.0
 10
222.5931080734383
 20
150.5445632880419
 30
0.0
 10
222.5318858021924
 20
150.5429447540764
 30
0.0
 10
222.4761986758873
 20
150.5398685564471
 30
0.0
 10
222.4261113997997
 20
150.5363122331427
 30
0.0
 10
222.381715055762
 20
150.531195813322
 30
0.0
 10
222.3427714642447
 20
150.5253842754818
 30
0.0
 10
222.3093787648766
 20
150.5185208249044
 30
0.0
 10
222.2727512282622
 20
150.5071583542672
 30
0.0
 10
222.232408222611
 20
150.4897868039024
 30
0.0
 10
222.1893557099045
 20
150.4618784935832
 30
0.0
 10
222.1517423422577
 20
150.4268875630803
 30
0.0
 10
222.1191350107694
 20
150.3862940125861
 30
0.0
 10
222.0924901886014
 20
150.3402639025502
 30
0.0
 10
222.0739722392798
 20
150.2893063030835
 30
0.0
 10
222.0626744648895
 20
150.2342559334963
 30
0.0
 10
222.061277422338
 20
150.1962217227415
 30
0.0
 10
222.0605589532556
 20
150.1766615422214
 30
0.0
  0
SPLINE
  5
31E
330
1F
100
AcDbEntity
  8
SLD-0
  6
SLD-DURCHGEHEND
 62
     7
100
AcDbSpline
210
0.0
220
0.0
230
1.0
 70
     8
 71
     3
 72
    23
 73
    19
 74
     0
 42
0.000000001
 43
0.00000001
 40
0.0
 40
0.0
 40
0.0
 40
0.0
 40
0.0681960423012295
 40
0.1346610602425806
 40
0.2019779183112758
 40
0.2707036098373713
 40
0.3399478869248249
 40
0.4080144403213826
 40
0.4767530852947589
 40
0.547294357857962
 40
0.5855926514138015
 40
0.6288229591528351
 40
0.6771169625572431
 40
0.731171226956993
 40
0.789781572412521
 40
0.8543076525521724
 40
0.9243561226748715
 40
1.0
 40
1.0
 40
1.0
 40
1.0
 10
222.060558940565
 20
151.2362669767688
 30
0.0
 10
222.0616543485496
 20
151.2122956654564
 30
0.0
 10
222.0638173597103
 20
151.1649615081093
 30
0.0
 10
222.0800794945107
 20
151.0954619304534
 30
0.0
 10
222.1071080438784
 20
151.0293864681289
 30
0.0
 10
222.1440740339275
 20
150.9671812269388
 30
0.0
 10
222.1894844393723
 20
150.9104855756223
 30
0.0
 10
222.2432210327073
 20
150.8615309794977
 30
0.0
 10
222.3040935763843
 20
150.8211212790039
 30
0.0
 10
222.3604213861324
 20
150.7937520494807
 30
0.0
 10
222.4110218398625
 20
150.7764611137093
 30
0.0
 10
222.4552289778538
 20
150.7650506248063
 30
0.0
 10
222.5056079922045
 20
150.7561212942651
 30
0.0
 10
222.5615681536407
 20
150.7479090056408
 30
0.0
 10
222.6235859641942
 20
150.74236668724
 30
0.0
 10
222.6912784826326
 20
150.7374706572315
 30
0.0
 10
222.765109101915
 20
150.7351498970466
 30
0.0
 10
222.8162882601102
 20
150.7348281341787
 30
0.0
 10
222.8428606232572
 20
150.734661073991
 30
0.0
  0
SPLINE
  5
31F
330
1F
100
AcDbEntity
  8
SLD-0
  6
SLD-DURCHGEHEND
 62
     7
100
AcDbSpline
210
0.0
220
0.0
230
1.0
 70
     8
 71
     3
 72
    23
 73
    19
 74
     0
 42
0.000000001
 43
0.00000001
 40
0.0
 40
0.0
 40
0.0
 40
0.0
 40
0.0783354915401624
 40
0.1505489012169791
 40
0.2161303814058157
 40
0.2756534231619854
 40
0.3292306764225577
 40
0.376423546370917
 40
0.417817049533735
 40
0.4532045146460441
 40
0.5177708818605032
 40
0.5812566254833882
 40
0.6453558195991715
 40
0.7120520387773364
 40
0.7801510756898389
 40
0.8502325531193821
 40
0.9226559205487803
 40
1.0
 40
1.0
 40
1.0
 40
1.0
 10
222.6058380538127
 20
151.6030371423671
 30
0.0
 10
222.5860498680516
 20
151.6029902703633
 30
0.0
 10
222.5480199844719
 20
151.6029001895005
 30
0.0
 10
222.4934391233365
 20
151.6012681773439
 30
0.0
 10
222.4436850895797
 20
151.5982087487767
 30
0.0
 10
222.3986929410072
 20
151.5945764801673
 30
0.0
 10
222.3584767970495
 20
151.5896666973457
 30
0.0
 10
222.3231492784998
 20
151.5831842531607
 30
0.0
 10
222.2925491988591
 20
151.5763712788882
 30
0.0
 10
222.2586400219157
 20
151.5650258651131
 30
0.0
 10
222.2212650847995
 20
151.5470568899667
 30
0.0
 10
222.1812519904167
 20
151.5191877923716
 30
0.0
 10
222.1461494774416
 20
151.4846016115989
 30
0.0
 10
222.1156753168455
 20
151.4444449621903
 30
0.0
 10
222.0908792123902
 20
151.3987629803477
 30
0.0
 10
222.0731755106667
 20
151.3484057409694
 30
0.0
 10
222.0622151188625
 20
151.2936970591019
 30
0.0
 10
222.0611229611935
 20
151.2558251071843
 30
0.0
 10
222.060558940565
 20
151.2362669767688
 30
0.0
  0
SPLINE
  5
320
330
1F
100
AcDbEntity
  8
SLD-0
  6
SLD-DURCHGEHEND
 62
     7
100
AcDbSpline
210
0.0
220
0.0
230
1.0
 70
     8
 71
     3
 72
    23
 73
    19
 74
     0
 42
0.000000001
 43
0.00000001
 40
0.0
 40
0.0
 40
0.0
 40
0.0
 40
0.0755870098959685
 40
0.1479311173872509
 40
0.2186039988489565
 40
0.2892612546893318
 40
0.3594989326435177
 40
0.429466420410623
 40
0.5005778141344588
 40
0.5741235861930835
 40
0.613632809100857
 40
0.6568308839529089
 40
0.7040405881798176
 40
0.7549951271533211
 40
0.8097502066180171
 40
0.868863003457579
 40
0.9324009641054156
 40
1.0
 40
1.0
 40
1.0
 40
1.0
 10
221.8706015784411
 20
151.2693399815868
 30
0.0
 10
221.8715673598574
 20
151.2952775630995
 30
0.0
 10
221.8734574878603
 20
151.3460399284951
 30
0.0
 10
221.8886507151741
 20
151.4198163377428
 30
0.0
 10
221.9137968961634
 20
151.4889149279188
 30
0.0
 10
221.949160257868
 20
151.5526033241344
 30
0.0
 10
221.9933880262564
 20
151.6101414618269
 30
0.0
 10
222.0460728059637
 20
151.6603457893893
 30
0.0
 10
222.1070221762895
 20
151.7021124603077
 30
0.0
 10
222.1639016017339
 20
151.7300346217719
 30
0.0
 10
222.2142119983765
 20
151.7486228115533
 30
0.0
 10
222.2572735724441
 20
151.7602318894961
 30
0.0
 10
222.3047065163535
 20
151.7702895768207
 30
0.0
 10
222.3564726794872
 20
151.7788169789235
 30
0.0
 10
222.4126768725067
 20
151.7849818998945
 30
0.0
 10
222.4733449190742
 20
151.7895648299501
 30
0.0
 10
222.5385295378057
 20
151.7926623712531
 30
0.0
 10
222.583502917995
 20
151.7928815251352
 30
0.0
 10
222.6066859801505
 20
151.7929944954757
 30
0.0
  0
SPLINE
  5
321
330
1F
100
AcDbEntity
  8
SLD-0
  6
SLD-DURCHGEHEND
 62
     7
100
AcDbSpline
210
0.0
220
0.0
230
1.0
 70
     8
 71
     3
 72
    19
 73
    15
 74
     0
 42
0.000000001
 43
0.00000001
 40
0.0
 40
0.0
 40
0.0
 40
0.0
 40
0.0717521668266303
 40
0.1411981877692405
 40
0.2090753576981122
 40
0.2747864314077051
 40
0.339417190293901
 40
0.4028022628820698
 40
0.465255788995233
 40
0.527134555469952
 40
0.6476933804260677
 40
0.7656069102549158
 40
0.8816380120028816
 40
1.0
 40
1.0
 40
1.0
 40
1.0
 10
222.2441559320736
 20
150.7020122572278
 30
0.0
 10
222.2292037079052
 20
150.7103044513277
 30
0.0
 10
222.1997798305635
 20
150.7266223247985
 30
0.0
 10
222.158134651642
 20
150.7540192818722
 30
0.0
 10
222.1191923702659
 20
150.7827339096245
 30
0.0
 10
222.0828723181488
 20
150.8129644920565
 30
0.0
 10
222.0494636092708
 20
150.8448379884297
 30
0.0
 10
222.0182846772219
 20
150.8778408482699
 30
0.0
 10
221.9901990482376
 20
150.912712148201
 30
0.0
 10
221.9573363346146
 20
150.9609458169777
 30
0.0
 10
221.9223178286175
 20
151.0236362798193
 30
0.0
 10
221.8927212305265
 20
151.1029854260143
 30
0.0
 10
221.8738726774554
 20
151.1852136467707
 30
0.0
 10
221.8716991495512
 20
151.241112577192
 30
0.0
 10
221.8706015784411
 20
151.2693399815868
 30
0.0
  0
SPLINE
  5
322
330
1F
100
AcDbEntity
  8
SLD-0
  6
SLD-DURCHGEHEND
 62
     7
100
AcDbSpline
210
0.0
220
0.0
230
1.0
 70
     8
 71
     3
 72
    19
 73
    15
 74
     0
 42
0.000000001
 43
0.00000001
 40
0.0
 40
0.0
 40
0.0
 40
0.0
 40
0.0841442561560045
 40
0.166516958355704
 40
0.2488133769868349
 40
0.331215589350676
 40
0.4129190153743426
 40
0.4904490315275447
 40
0.5661035663667918
 40
0.6394740727537094
 40
0.7162451438604597
 40
0.8021621561462419
 40
0.8958428096822215
 40
1.0
 40
1.0
 40
1.0
 40
1.0
 10
221.8706015784411
 20
150.209734612997
 30
0.0
 10
221.871233740351
 20
150.2284175105653
 30
0.0
 10
221.8724847547783
 20
150.2653899602424
 30
0.0
 10
221.8806247272576
 20
150.320171911338
 30
0.0
 10
221.8946957670057
 20
150.3733049074133
 30
0.0
 10
221.9142924499973
 20
150.4244782836637
 30
0.0
 10
221.9380347475649
 20
150.4726829071626
 30
0.0
 10
221.9658578649177
 20
150.5169104961811
 30
0.0
 10
221.9971524695048
 20
150.5564252425727
 30
0.0
 10
222.0328170514979
 20
150.5918604449436
 30
0.0
 10
222.074830754039
 20
150.6234441668749
 30
0.0
 10
222.1239993195114
 20
150.6522931208035
 30
0.0
 10
222.1810314235863
 20
150.6793038490518
 30
0.0
 10
222.222384476585
 20
150.6941801946951
 30
0.0
 10
222.2441559320736
 20
150.7020122572278
 30
0.0
  0
SPLINE
  5
323
330
1F
100
AcDbEntity
  8
SLD-0
  6
SLD-DURCHGEHEND
 62
     7
100
AcDbSpline
210
0.0
220
0.0
230
1.0
 70
     8
 71
     3
 72
    11
 73
     7
 74
     0
 42
0.000000001
 43
0.00000001
 40
0.0
 40
0.0
 40
0.0
 40
0.0
 40
0.25373407569066
 40
0.5030351201318574
 40
0.7500135973308775
 40
0.9999999999999999
 40
0.9999999999999999
 40
0.9999999999999999
 40
0.9999999999999999
 10
221.9490437525864
 20
149.8908777753902
 30
0.0
 10
221.9369452697952
 20
149.9161959282355
 30
0.0
 10
221.9129596788661
 20
149.966389896166
 30
0.0
 10
221.888627955112
 20
150.0458672369521
 30
0.0
 10
221.8736751557492
 20
150.1271923942432
 30
0.0
 10
221.8716302299108
 20
150.1821097426514
 30
0.0
 10
221.8706015784411
 20
150.209734612997
 30
0.0
  0
SPLINE
  5
324
330
1F
100
AcDbEntity
  8
SLD-0
  6
SLD-DURCHGEHEND
 62
     7
100
AcDbSpline
210
0.0
220
0.0
230
1.0
 70
     8
 71
     3
 72
    11
 73
     7
 74
     0
 42
0.000000001
 43
0.00000001
 40
0.0
 40
0.0
 40
0.0
 40
0.0
 40
0.283594808138692
 40
0.5433948405759658
 40
0.780645629174557
 40
0.9999999999999999
 40
0.9999999999999999
 40
0.9999999999999999
 40
0.9999999999999999
 10
222.1665617814326
 20
149.676327828809
 30
0.0
 10
222.1430440413388
 20
149.6934328842333
 30
0.0
 10
222.0979817966777
 20
149.7262078102848
 30
0.0
 10
222.0386000533541
 20
149.779950371554
 30
0.0
 10
221.9882063598251
 20
149.8336387824342
 30
0.0
 10
221.961752337474
 20
149.8723032561702
 30
0.0
 10
221.9490437525864
 20
149.8908777753902
 30
0.0
  0
SPLINE
  5
325
330
1F
100
AcDbEntity
  8
SLD-0
  6
SLD-DURCHGEHEND
 62
     7
100
AcDbSpline
210
0.0
220
0.0
230
1.0
 70
     8
 71
     3
 72
    31
 73
    27
 74
     0
 42
0.000000001
 43
0.00000001
 40
0.0
 40
0.0
 40
0.0
 40
0.0
 40
0.0650685438702564
 40
0.127067203137995
 40
0.1855315285501351
 40
0.2407849061748919
 40
0.2930042397163254
 40
0.3425556598939921
 40
0.3889551744151752
 40
0.4328150939547985
 40
0.4746712423910465
 40
0.5148207424503038
 40
0.5536550811645813
 40
0.5914786483317941
 40
0.627861043542398
 40
0.6636394467951515
 40
0.6988229898703276
 40
0.7334329377816741
 40
0.7676299819528862
 40
0.8010740918328811
 40
0.834250455532269
 40
0.8669699526177507
 40
0.8997116432825839
 40
0.9326964777721556
 40
0.9661731519313723
 40
1.0
 40
1.0
 40
1.0
 40
1.0
 10
222.3870478925437
 20
145.0902167176979
 30
0.0
 10
222.4194168296252
 20
145.0898181608804
 30
0.0
 10
222.4826275618602
 20
145.0890398508541
 30
0.0
 10
222.5748766896198
 20
145.0851172765898
 30
0.0
 10
222.6619544256144
 20
145.0772060219583
 30
0.0
 10
222.7439536078137
 20
145.0674544050707
 30
0.0
 10
222.8209122543674
 20
145.0537820337315
 30
0.0
 10
222.8927802186591
 20
145.0373079568292
 30
0.0
 10
222.959811946221
 20
145.0185381962341
 30
0.0
 10
223.0215271635645
 20
144.995758096487
 30
0.0
 10
223.0789449042317
 20
144.9706989518165
 30
0.0
 10
223.1325747229278
 20
144.9434627092917
 30
0.0
 10
223.1828475827668
 20
144.9142413419817
 30
0.0
 10
223.2294038216016
 20
144.882602961398
 30
0.0
 10
223.2722019782434
 20
144.8484160216755
 30
0.0
 10
223.3111838598795
 20
144.8118528820802
 30
0.0
 10
223.3470033269996
 20
144.7733577570865
 30
0.0
 10
223.3787012181505
 20
144.7324098326258
 30
0.0
 10
223.4072862661018
 20
144.6902646196842
 30
0.0
 10
223.4313851057805
 20
144.6462105745572
 30
0.0
 10
223.4522653365428
 20
144.6013751587877
 30
0.0
 10
223.4693368510783
 20
144.5553107335251
 30
0.0
 10
223.4825760100913
 20
144.5080884195202
 30
0.0
 10
223.4916772108076
 20
144.4595512273291
 30
0.0
 10
223.498074655904
 20
144.4099891574498
 30
0.0
 10
223.4985618447995
 20
144.3764841394821
 30
0.0
 10
223.4988067066462
 20
144.3596444687662
 30
0.0
  0
SPLINE
  5
326
330
1F
100
AcDbEntity
  8
SLD-0
  6
SLD-DURCHGEHEND
 62
     7
100
AcDbSpline
210
0.0
220
0.0
230
1.0
 70
     8
 71
     3
 72
    31
 73
    27
 74
     0
 42
0.000000001
 43
0.00000001
 40
0.0
 40
0.0
 40
0.0
 40
0.0
 40
0.0337879412002545
 40
0.067226111253134
 40
0.0998413805582494
 40
0.1325454124779808
 40
0.1651298048763315
 40
0.1980106431827072
 40
0.2312798105720809
 40
0.2650439104334927
 40
0.299215763973783
 40
0.3343588397409634
 40
0.3696950076454842
 40
0.4062575751144955
 40
0.4438035186000603
 40
0.4829815311234257
 40
0.5230848521443379
 40
0.5652667767065693
 40
0.6093428829310777
 40
0.6563925906619904
 40
0.7058870179274402
 40
0.7583257517117634
 40
0.8138327469620024
 40
0.8727952177377407
 40
0.9347225675630345
 40
1.0
 40
1.0
 40
1.0
 40
1.0
 10
221.2735930314326
 20
144.3596444687662
 30
0.0
 10
221.2738266206532
 20
144.376486469568
 30
0.0
 10
221.2742913809901
 20
144.4099961235867
 30
0.0
 10
221.2808331623562
 20
144.4593599037276
 30
0.0
 10
221.2892768288738
 20
144.5078638510137
 30
0.0
 10
221.3028190795212
 20
144.5547720647645
 30
0.0
 10
221.3190241386515
 20
144.6009714892337
 30
0.0
 10
221.3404064567676
 20
144.6453132372175
 30
0.0
 10
221.3636613881349
 20
144.6893628071171
 30
0.0
 10
221.3920304482505
 20
144.7311190858918
 30
0.0
 10
221.4233829281781
 20
144.7718296748157
 30
0.0
 10
221.458976008236
 20
144.8099916014303
 30
0.0
 10
221.4978246460496
 20
144.8465803865223
 30
0.0
 10
221.5407952797593
 20
144.8802140861293
 30
0.0
 10
221.5872290422067
 20
144.9123341937386
 30
0.0
 10
221.6375151821398
 20
144.9417213977564
 30
0.0
 10
221.6915422584094
 20
144.9689868983016
 30
0.0
 10
221.7490598094268
 20
144.9946432144891
 30
0.0
 10
221.8116042181914
 20
145.0170789854886
 30
0.0
 10
221.8787853788855
 20
145.0370261794002
 30
0.0
 10
221.9512116491093
 20
145.0533762799354
 30
0.0
 10
222.0284795685967
 20
145.0668975255969
 30
0.0
 10
222.1109719217814
 20
145.0773925861313
 30
0.0
 10
222.1985215694158
 20
145.0850307137854
 30
0.0
 10
222.2911832839138
 20
145.0890668002789
 30
0.0
 10
222.3545368601727
 20
145.0898267405941
 30
0.0
 10
222.3870478925437
 20
145.0902167176979
 30
0.0
  0
SPLINE
  5
327
330
1F
100
AcDbEntity
  8
SLD-0
  6
SLD-DURCHGEHEND
 62
     7
100
AcDbSpline
210
0.0
220
0.0
230
1.0
 70
     8
 71
     3
 72
    31
 73
    27
 74
     0
 42
0.000000001
 43
0.00000001
 40
0.0
 40
0.0
 40
0.0
 40
0.0
 40
0.0685895117418442
 40
0.1332361151905643
 40
0.1942981095643238
 40
0.2512605020179401
 40
0.3044907520393918
 40
0.3542085150293626
 40
0.4004507517000453
 40
0.4433777194310209
 40
0.4839788079736336
 40
0.5232133168173587
 40
0.5610005732923082
 40
0.5978556939003927
 40
0.633471289719642
 40
0.6682645596310043
 40
0.7026375085803775
 40
0.7368246435676994
 40
0.7704299555261659
 40
0.8035715718451321
 40
0.8359251766715137
 40
0.8684700459181437
 40
0.9008539254905379
 40
0.9334714815856267
 40
0.9662600892157742
 40
1.0
 40
1.0
 40
1.0
 40
1.0
 10
222.3870478925437
 20
143.65196885445
 30
0.0
 10
222.3531223294827
 20
143.6521672273332
 30
0.0
 10
222.287221434242
 20
143.6525525695181
 30
0.0
 10
222.1911945316957
 20
143.6568393765033
 30
0.0
 10
222.1011090234607
 20
143.6639606548302
 30
0.0
 10
222.016960598243
 20
143.6737199235773
 30
0.0
 10
221.9387275296664
 20
143.6855962245399
 30
0.0
 10
221.8666188957546
 20
143.7014503567408
 30
0.0
 10
221.8003009266692
 20
143.7194799886555
 30
0.0
 10
221.7395574576274
 20
143.7403760432999
 30
0.0
 10
221.6835697984368
 20
143.7639541948008
 30
0.0
 10
221.6313038032668
 20
143.7896174470427
 30
0.0
 10
221.5828346250723
 20
143.8183805962894
 30
0.0
 10
221.5374026978742
 20
143.8486126887065
 30
0.0
 10
221.495701895372
 20
143.8814906559776
 30
0.0
 10
221.4572517452351
 20
143.9163095319203
 30
0.0
 10
221.4223765049787
 20
143.9537656989439
 30
0.0
 10
221.391052291781
 20
143.9934958663872
 30
0.0
 10
221.3635855275415
 20
144.0352307644042
 30
0.0
 10
221.3392428646787
 20
144.0778299347139
 30
0.0
 10
221.319191942794
 20
144.1220545292778
 30
0.0
 10
221.3027897368268
 20
144.1673223564088
 30
0.0
 10
221.2894002375881
 20
144.2137288234482
 30
0.0
 10
221.2802030234146
 20
144.2612620833685
 30
0.0
 10
221.2744264411415
 20
144.3100323217082
 30
0.0
 10
221.2738734703449
 20
144.3429501869377
 30
0.0
 10
221.2735930314326
 20
144.3596444687662
 30
0.0
  0
SPLINE
  5
328
330
1F
100
AcDbEntity
  8
SLD-0
  6
SLD-DURCHGEHEND
 62
     7
100
AcDbSpline
210
0.0
220
0.0
230
1.0
 70
     8
 71
     3
 72
    31
 73
    27
 74
     0
 42
0.000000001
 43
0.00000001
 40
0.0
 40
0.0
 40
0.0
 40
0.0
 40
0.0337886361288838
 40
0.0666245952833982
 40
0.0992892558795272
 40
0.1313669571709093
 40
0.1635924005824348
 40
0.1961125738279877
 40
0.2289123473464795
 40
0.2621696152808962
 40
0.2960042734452652
 40
0.3302324060715754
 40
0.3650759225315741
 40
0.4009684165232621
 40
0.4378767612926535
 40
0.4759655880355133
 40
0.5156404995383741
 40
0.556675158674314
 40
0.6000283585489746
 40
0.6466897416172286
 40
0.6964192291024514
 40
0.7497716547595121
 40
0.8068500381735736
 40
0.8674296863796973
 40
0.9318837499229032
 40
1.0
 40
1.0
 40
1.0
 40
1.0
 10
223.4988067066462
 20
144.3596444687662
 30
0.0
 10
223.4985246726241
 20
144.342950552223
 30
0.0
 10
223.4979685565824
 20
144.3100334072648
 30
0.0
 10
223.4922150143007
 20
144.2612578926925
 30
0.0
 10
223.4829648762909
 20
144.2139156536108
 30
0.0
 10
223.4700129313037
 20
144.1677730718684
 30
0.0
 10
223.4541591921034
 20
144.1225934247001
 30
0.0
 10
223.4335043637139
 20
144.0789923098695
 30
0.0
 10
223.4097165477047
 20
144.0364850993729
 30
0.0
 10
223.3826262483409
 20
143.9951845754557
 30
0.0
 10
223.3515878370289
 20
143.9558691962385
 30
0.0
 10
223.3172628149719
 20
143.9183086140479
 30
0.0
 10
223.2787709723997
 20
143.8834811518117
 30
0.0
 10
223.236718322531
 20
143.850888266097
 30
0.0
 10
223.1912188006827
 20
143.8203365661477
 30
0.0
 10
223.1422418725468
 20
143.7918219684899
 30
0.0
 10
223.0897039092038
 20
143.7656205382396
 30
0.0
 10
223.0332737745797
 20
143.7416395582102
 30
0.0
 10
222.9720991758947
 20
143.720377743693
 30
0.0
 10
222.9056121565004
 20
143.7016694229474
 30
0.0
 10
222.8331374057827
 20
143.686727661667
 30
0.0
 10
222.7550428929567
 20
143.6740622092394
 30
0.0
 10
222.6711699357852
 20
143.6639132162504
 30
0.0
 10
222.5814881900796
 20
143.6568423336595
 30
0.0
 10
222.4861679540639
 20
143.6525558239611
 30
0.0
 10
222.4206908369132
 20
143.6521680813503
 30
0.0
 10
222.3870478925437
 20
143.65196885445
 30
0.0
  0
SPLINE
  5
329
330
1F
100
AcDbEntity
  8
SLD-0
  6
SLD-DURCHGEHEND
 62
     7
100
AcDbSpline
210
0.0
220
0.0
230
1.0
 70
     8
 71
     3
 72
    23
 73
    19
 74
     0
 42
0.000000001
 43
0.00000001
 40
0.0
 40
0.0
 40
0.0
 40
0.0
 40
0.0686751262333866
 40
0.1368670878140255
 40
0.2061085282548255
 40
0.2775303332216479
 40
0.3497620860433321
 40
0.4212389232300469
 40
0.492896817463476
 40
0.5666321823154239
 40
0.6062186270322251
 40
0.6497138598511638
 40
0.697311710717009
 40
0.7490927555380148
 40
0.8048861654123078
 40
0.8654888097710078
 40
0.9302391000392103
 40
1.0
 40
1.0
 40
1.0
 40
1.0
 10
222.0605589532556
 20
152.9174740301213
 30
0.0
 10
222.0614845201497
 20
152.8944832794601
 30
0.0
 10
222.0633291421013
 20
152.8486635298326
 30
0.0
 10
222.0799323965323
 20
152.7813522521581
 30
0.0
 10
222.1059397959294
 20
152.7163493420245
 30
0.0
 10
222.1420191099504
 20
152.654689718734
 30
0.0
 10
222.18671299936
 20
152.5980441017259
 30
0.0
 10
222.2392663992388
 20
152.548430324756
 30
0.0
 10
222.2989779057616
 20
152.5068780972656
 30
0.0
 10
222.3544744244101
 20
152.4790336551238
 30
0.0
 10
222.4038222222889
 20
152.461182618958
 30
0.0
 10
222.4459443403453
 20
152.4494788986676
 30
0.0
 10
222.4926277553956
 20
152.4392060614472
 30
0.0
 10
222.5439692009409
 20
152.4316562143789
 30
0.0
 10
222.5997395146959
 20
152.4243449760431
 30
0.0
 10
222.6602249163898
 20
152.4208206704084
 30
0.0
 10
222.725371000133
 20
152.4173902448781
 30
0.0
 10
222.77034870116
 20
152.4172255681234
 30
0.0
 10
222.7936752727
 20
152.4171401626
 30
0.0
  0
SPLINE
  5
32A
330
1F
100
AcDbEntity
  8
SLD-0
  6
SLD-DURCHGEHEND
 62
     7
100
AcDbSpline
210
0.0
220
0.0
230
1.0
 70
     8
 71
     3
 72
    23
 73
    19
 74
     0
 42
0.000000001
 43
0.00000001
 40
0.0
 40
0.0
 40
0.0
 40
0.0
 40
0.0679550917509013
 40
0.1332691263057789
 40
0.1978141067626574
 40
0.2606768917584897
 40
0.323396711835063
 40
0.3863635374494215
 40
0.4496444140175331
 40
0.5147950306322646
 40
0.5792327139565736
 40
0.6413292160061654
 40
0.7013770551684472
 40
0.7607388971833068
 40
0.8192279334371865
 40
0.8781248301909743
 40
0.9381539793577334
 40
1.0
 40
1.0
 40
1.0
 40
1.0
 10
223.2817126895522
 20
148.4823107347919
 30
0.0
 10
223.2812432259196
 20
148.4980121872586
 30
0.0
 10
223.280322544238
 20
148.5288048592725
 30
0.0
 10
223.2748932069176
 20
148.5742881118057
 30
0.0
 10
223.2649594762009
 20
148.6177577217784
 30
0.0
 10
223.2519930873725
 20
148.6598127098256
 30
0.0
 10
223.2343438057778
 20
148.6997408981411
 30
0.0
 10
223.2132286374917
 20
148.7380439073735
 30
0.0
 10
223.1877892823298
 20
148.7743138207078
 30
0.0
 10
223.1593355122839
 20
148.8086807797821
 30
0.0
 10
223.1282412733621
 20
148.8403083074497
 30
0.0
 10
223.0951938998252
 20
148.8681489259466
 30
0.0
 10
223.0599894320646
 20
148.8911086288271
 30
0.0
 10
223.0235649715494
 20
148.9103048602482
 30
0.0
 10
222.9854801906792
 20
148.9253309539341
 30
0.0
 10
222.9457929954362
 20
148.9359009953776
 30
0.0
 10
222.9044196674148
 20
148.9424675058005
 30
0.0
 10
222.8762406201515
 20
148.9432423323987
 30
0.0
 10
222.8619410549368
 20
148.9436355211167
 30
0.0
  0
SPLINE
  5
32B
330
1F
100
AcDbEntity
  8
SLD-0
  6
SLD-DURCHGEHEND
 62
     7
100
AcDbSpline
210
0.0
220
0.0
230
1.0
 70
     8
 71
     3
 72
    23
 73
    19
 74
     0
 42
0.000000001
 43
0.00000001
 40
0.0
 40
0.0
 40
0.0
 40
0.0
 40
0.0618354407692537
 40
0.1218543208715089
 40
0.1807411422529115
 40
0.2392201729062733
 40
0.2982908476520735
 40
0.358666884471319
 40
0.4203630901392519
 40
0.484789750240082
 40
0.549929221671286
 40
0.6137025569754175
 40
0.6766586109829351
 40
0.7393677017074026
 40
0.8022197328944111
 40
0.8667536717727107
 40
0.9320565331884859
 40
1.0
 40
1.0
 40
1.0
 40
1.0
 10
222.8619410549368
 20
148.0209859484671
 30
0.0
 10
222.8762411630054
 20
148.0213781620986
 30
0.0
 10
222.904421280029
 20
148.0221510671689
 30
0.0
 10
222.9457868142507
 20
148.0287315769926
 30
0.0
 10
222.9855028384492
 20
148.0392498352088
 30
0.0
 10
223.0234200923578
 20
148.0544441683807
 30
0.0
 10
223.0602664875113
 20
148.0729083095987
 30
0.0
 10
223.0948918152525
 20
148.0966084563771
 30
0.0
 10
223.1284176629055
 20
148.1238093389476
 30
0.0
 10
223.1592863084431
 20
148.1555688542368
 30
0.0
 10
223.1879435008009
 20
148.1899134625966
 30
0.0
 10
223.2130955379214
 20
148.2265296854414
 30
0.0
 10
223.234364193758
 20
148.2648662050772
 30
0.0
 10
223.2519876247923
 20
148.3048126089587
 30
0.0
 10
223.2649609837754
 20
148.3468626854949
 30
0.0
 10
223.2748927955582
 20
148.390333647642
 30
0.0
 10
223.280322652472
 20
148.4358165340443
 30
0.0
 10
223.2812432624712
 20
148.4666092565693
 30
0.0
 10
223.2817126895522
 20
148.4823107347919
 30
0.0
  0
SPLINE
  5
32C
330
1F
100
AcDbEntity
  8
SLD-0
  6
SLD-DURCHGEHEND
 62
     7
100
AcDbSpline
210
0.0
220
0.0
230
1.0
 70
     8
 71
     3
 72
    23
 73
    19
 74
     0
 42
0.000000001
 43
0.00000001
 40
0.0
 40
0.0
 40
0.0
 40
0.0
 40
0.0706035220300928
 40
0.1379091884941328
 40
0.2032083799084842
 40
0.2669950556869491
 40
0.3290661655424161
 40
0.3906170134553937
 40
0.4526202421742422
 40
0.5157190082355101
 40
0.5779010364736358
 40
0.6389083646078102
 40
0.6983326330448362
 40
0.757281486760394
 40
0.8163827597167338
 40
0.8762594915189958
 40
0.9368133209404278
 40
1.0
 40
1.0
 40
1.0
 40
1.0
 10
222.4404733733129
 20
148.4657742764586
 30
0.0
 10
222.4409393618145
 20
148.4496483955841
 30
0.0
 10
222.4418495727254
 20
148.4181498657485
 30
0.0
 10
222.4472502895868
 20
148.3719635451114
 30
0.0
 10
222.4570802096708
 20
148.3281093838169
 30
0.0
 10
222.4707102510005
 20
148.2865746529365
 30
0.0
 10
222.4875144963136
 20
148.2471031257428
 30
0.0
 10
222.5090758186199
 20
148.2104770187873
 30
0.0
 10
222.534189838391
 20
148.1759426497493
 30
0.0
 10
222.5628111221577
 20
148.1440517873324
 30
0.0
 10
222.594126449504
 20
148.1151305747593
 30
0.0
 10
222.6276733714218
 20
148.090226238777
 30
0.0
 10
222.6626369223059
 20
148.068743529635
 30
0.0
 10
222.6993109317271
 20
148.0512769360998
 30
0.0
 10
222.7376809380767
 20
148.0376757869129
 30
0.0
 10
222.7775705846942
 20
148.0278373707387
 30
0.0
 10
222.8192473302969
 20
148.0223620063095
 30
0.0
 10
222.8475093678603
 20
148.0214510949576
 30
0.0
 10
222.8619410549368
 20
148.0209859484671
 30
0.0
  0
SPLINE
  5
32D
330
1F
100
AcDbEntity
  8
SLD-0
  6
SLD-DURCHGEHEND
 62
     7
100
AcDbSpline
210
0.0
220
0.0
230
1.0
 70
     8
 71
     3
 72
    23
 73
    19
 74
     0
 42
0.000000001
 43
0.00000001
 40
0.0
 40
0.0
 40
0.0
 40
0.0
 40
0.061141217177954
 40
0.1200003251182196
 40
0.1782349480506035
 40
0.2362691812577331
 40
0.294945307072477
 40
0.3547349081883138
 40
0.4167521728807442
 40
0.4806903707558228
 40
0.5458612524020313
 40
0.6097910404915279
 40
0.6730075778908172
 40
0.7358259506650152
 40
0.799828586851526
 40
0.8647680527323731
 40
0.9310839010856701
 40
0.9999999999999999
 40
0.9999999999999999
 40
0.9999999999999999
 40
0.9999999999999999
 10
222.8619410549368
 20
148.9436355211167
 30
0.0
 10
222.8474905407144
 20
148.9433027249148
 30
0.0
 10
222.8191288808578
 20
148.9426495542018
 30
0.0
 10
222.7775892273921
 20
148.9352618133282
 30
0.0
 10
222.7374782642297
 20
148.9250157130569
 30
0.0
 10
222.699048114133
 20
148.909544063155
 30
0.0
 10
222.6624503143139
 20
148.8894438955826
 30
0.0
 10
222.6275004348898
 20
148.8649609631829
 30
0.0
 10
222.593928796373
 20
148.8366388403932
 30
0.0
 10
222.5627498422365
 20
148.803921027109
 30
0.0
 10
222.5342208677119
 20
148.7683128490845
 30
0.0
 10
222.5091103580492
 20
148.7304219118359
 30
0.0
 10
222.4876759240477
 20
148.6909391344164
 30
0.0
 10
222.4707624588206
 20
148.6493083441662
 30
0.0
 10
222.4571367789171
 20
148.6060896798673
 30
0.0
 10
222.4472853371006
 20
148.5609847105864
 30
0.0
 10
222.4418636510839
 20
148.5139613562959
 30
0.0
 10
222.4409427019309
 20
148.4820412240124
 30
0.0
 10
222.4404733733129
 20
148.4657742764586
 30
0.0
  0
SPLINE
  5
32E
330
1F
100
AcDbEntity
  8
SLD-0
  6
SLD-DURCHGEHEND
 62
     7
100
AcDbSpline
210
0.0
220
0.0
230
1.0
 70
     8
 71
     3
 72
    15
 73
    11
 74
     0
 42
0.000000001
 43
0.00000001
 40
0.0
 40
0.0
 40
0.0
 40
0.0
 40
0.1105883385953362
 40
0.2245417540535958
 40
0.3425034940501043
 40
0.4643240984173584
 40
0.5907560327017662
 40
0.7222274753555148
 40
0.8588428362087244
 40
0.9999999999999999
 40
0.9999999999999999
 40
0.9999999999999999
 40
0.9999999999999999
 10
222.918334617971
 20
144.8201212315868
 30
0.0
 10
222.8994480612461
 20
144.8265025387763
 30
0.0
 10
222.8611002514418
 20
144.8394593290465
 30
0.0
 10
222.8016136618502
 20
144.8561578782483
 30
0.0
 10
222.7392005617544
 20
144.8693086672905
 30
0.0
 10
222.6742339435485
 20
144.8811398456247
 30
0.0
 10
222.6062346957943
 20
144.8892152651435
 30
0.0
 10
222.5354132159976
 20
144.8957151331768
 30
0.0
 10
222.4617161064552
 20
144.8995436914686
 30
0.0
 10
222.4116448498752
 20
144.9000182790213
 30
0.0
 10
222.3861998690394
 20
144.9002594527406
 30
0.0
  0
SPLINE
  5
32F
330
1F
100
AcDbEntity
  8
SLD-0
  6
SLD-DURCHGEHEND
 62
     7
100
AcDbSpline
210
0.0
220
0.0
230
1.0
 70
     8
 71
     3
 72
    19
 73
    15
 74
     0
 42
0.000000001
 43
0.00000001
 40
0.0
 40
0.0
 40
0.0
 40
0.0
 40
0.1128017870876413
 40
0.2252034422403028
 40
0.3396628004503108
 40
0.4597310343290399
 40
0.5217844254033598
 40
0.583968671793211
 40
0.648210363731513
 40
0.7139104928357346
 40
0.7810269995615556
 40
0.8514662200478407
 40
0.9240585113203402
 40
1.0
 40
1.0
 40
1.0
 40
1.0
 10
223.2817126895522
 20
144.3660046450483
 30
0.0
 10
223.2806914559786
 20
144.3894279716338
 30
0.0
 10
223.278652611364
 20
144.4361915372826
 30
0.0
 10
223.2608583792028
 20
144.5048708033323
 30
0.0
 10
223.2319306084772
 20
144.5709933451283
 30
0.0
 10
223.1988813160688
 20
144.6231765541164
 30
0.0
 10
223.1672058875325
 20
144.6627664450732
 30
0.0
 10
223.1402306762994
 20
144.6911424147654
 30
0.0
 10
223.1100175952236
 20
144.717184044851
 30
0.0
 10
223.0774218199804
 20
144.7418839582209
 30
0.0
 10
223.0418178547193
 20
144.7645377294137
 30
0.0
 10
223.0033776674366
 20
144.7851378318659
 30
0.0
 10
222.9619942972345
 20
144.8039358523279
 30
0.0
 10
222.9331049802419
 20
144.8146456092465
 30
0.0
 10
222.918334617971
 20
144.8201212315868
 30
0.0
  0
SPLINE
  5
330
330
1F
100
AcDbEntity
  8
SLD-0
  6
SLD-DURCHGEHEND
 62
     7
100
AcDbSpline
210
0.0
220
0.0
230
1.0
 70
     8
 71
     3
 72
    27
 73
    23
 74
     0
 42
0.000000001
 43
0.00000001
 40
0.0
 40
0.0
 40
0.0
 40
0.0
 40
0.0729549340450042
 40
0.1415912015432877
 40
0.2055734725150372
 40
0.2653145189048594
 40
0.3206133264516468
 40
0.3714769075244199
 40
0.4184526648531617
 40
0.4613638989710641
 40
0.5018008964830885
 40
0.5404736801553937
 40
0.5778518720329291
 40
0.6142764136219965
 40
0.6496596677471924
 40
0.6842827203330538
 40
0.718344018991836
 40
0.7520677189431912
 40
0.8176427697757427
 40
0.8797156987693266
 40
0.9399623764550983
 40
1.0
 40
1.0
 40
1.0
 40
1.0
 10
222.3861998690394
 20
143.8419261194073
 30
0.0
 10
222.4144715881389
 20
143.8419999404317
 30
0.0
 10
222.4693414434735
 20
143.8421432125447
 30
0.0
 10
222.5489358655465
 20
143.8457777756466
 30
0.0
 10
222.6232983164386
 20
143.8508367168796
 30
0.0
 10
222.6923997732281
 20
143.8572011560366
 30
0.0
 10
222.755998728362
 20
143.8667328087541
 30
0.0
 10
222.8143595857974
 20
143.8775470514547
 30
0.0
 10
222.8673743206039
 20
143.8905180756196
 30
0.0
 10
222.9155062187386
 20
143.905940800193
 30
0.0
 10
222.9594368473493
 20
143.9235087845092
 30
0.0
 10
223.0003371130779
 20
143.9426562580783
 30
0.0
 10
223.0386917605685
 20
143.9634083628094
 30
0.0
 10
223.0744077357214
 20
143.9861904715043
 30
0.0
 10
223.1070484501066
 20
144.0114530026595
 30
0.0
 10
223.1374412710628
 20
144.0380247820804
 30
0.0
 10
223.1645291632134
 20
144.0671028539543
 30
0.0
 10
223.1970222721141
 20
144.1073199956874
 30
0.0
 10
223.2305975845251
 20
144.1604168030171
 30
0.0
 10
223.2598356223584
 20
144.2273155853138
 30
0.0
 10
223.2782097333496
 20
144.2960579981514
 30
0.0
 10
223.2805463911886
 20
144.3427161266951
 30
0.0
 10
223.2817126895522
 20
144.3660046450483
 30
0.0
  0
SPLINE
  5
331
330
1F
100
AcDbEntity
  8
SLD-0
  6
SLD-DURCHGEHEND
 62
     7
100
AcDbSpline
210
0.0
220
0.0
230
1.0
 70
     8
 71
     3
 72
    27
 73
    23
 74
     0
 42
0.000000001
 43
0.00000001
 40
0.0
 40
0.0
 40
0.0
 40
0.0
 40
0.065674183195571
 40
0.1284727417353343
 40
0.1881550331005442
 40
0.2450799531743088
 40
0.2994164432411358
 40
0.3507854678894874
 40
0.3998989664997197
 40
0.4466240387968942
 40
0.4912020670668059
 40
0.5333193793266857
 40
0.5737914671172359
 40
0.6124608935072129
 40
0.649527759044671
 40
0.6854588262817335
 40
0.7202839405258937
 40
0.7540122148447428
 40
0.819093016503046
 40
0.8805062250269207
 40
0.9403177086347908
 40
1.0
 40
1.0
 40
1.0
 40
1.0
 10
222.3861998690394
 20
144.9002594527406
 30
0.0
 10
222.3607590037523
 20
144.8999267192545
 30
0.0
 10
222.310991232666
 20
144.8992758214259
 30
0.0
 10
222.2381064282038
 20
144.896787838355
 30
0.0
 10
222.1688806869643
 20
144.8903631053249
 30
0.0
 10
222.103015782479
 20
144.8832274473258
 30
0.0
 10
222.0408763122717
 20
144.8727062721491
 30
0.0
 10
221.9819420849769
 20
144.8613622603385
 30
0.0
 10
221.926943190921
 20
144.8461215438494
 30
0.0
 10
221.8750186462495
 20
144.8298414316323
 30
0.0
 10
221.8267580441853
 20
144.811208678574
 30
0.0
 10
221.7819375620946
 20
144.7906970421011
 30
0.0
 10
221.7403366892925
 20
144.7687939236365
 30
0.0
 10
221.7020839613278
 20
144.7449927728421
 30
0.0
 10
221.6669574948845
 20
144.7196251158676
 30
0.0
 10
221.6357655480992
 20
144.6917814113013
 30
0.0
 10
221.6069908043944
 20
144.6632299404407
 30
0.0
 10
221.5747321920572
 20
144.6226237304328
 30
0.0
 10
221.5415811427962
 20
144.5698953311996
 30
0.0
 10
221.5119034267853
 20
144.5038308034644
 30
0.0
 10
221.4943393537051
 20
144.4354568652273
 30
0.0
 10
221.4919036057726
 20
144.3891386926105
 30
0.0
 10
221.4906870485266
 20
144.3660046450483
 30
0.0
  0
SPLINE
  5
332
330
1F
100
AcDbEntity
  8
SLD-0
  6
SLD-DURCHGEHEND
 62
     7
100
AcDbSpline
210
0.0
220
0.0
230
1.0
 70
     8
 71
     3
 72
    27
 73
    23
 74
     0
 42
0.000000001
 43
0.00000001
 40
0.0
 40
0.0
 40
0.0
 40
0.0
 40
0.0603773252519301
 40
0.1208646435361813
 40
0.1825791071854143
 40
0.2476255055353488
 40
0.2813359502609451
 40
0.3151192740020369
 40
0.3494568436006748
 40
0.3846056186147108
 40
0.4210158434021632
 40
0.4582367479489298
 40
0.4968943311397031
 40
0.5373154347393813
 40
0.5802098024370315
 40
0.6271670957695493
 40
0.67843770858787
 40
0.7340241630348789
 40
0.7937784488403145
 40
0.8577355713423674
 40
0.9267091462379158
 40
1.0
 40
1.0
 40
1.0
 40
1.0
 10
221.4906870485266
 20
144.3660046450483
 30
0.0
 10
221.4919066324519
 20
144.3425903974077
 30
0.0
 10
221.4943480220927
 20
144.2957192469727
 30
0.0
 10
221.5118221983169
 20
144.2266151389099
 30
0.0
 10
221.5414943115392
 20
144.1601043054223
 30
0.0
 10
221.5746683227622
 20
144.1072020273214
 30
0.0
 10
221.606867121516
 20
144.0670891145609
 30
0.0
 10
221.6342720065697
 20
144.0386240508649
 30
0.0
 10
221.6639389089079
 20
144.0116837571406
 30
0.0
 10
221.6968691835136
 20
143.9870753963525
 30
0.0
 10
221.7324593132596
 20
143.964428378933
 30
0.0
 10
221.7703179683142
 20
143.9428742795138
 30
0.0
 10
221.8112946556774
 20
143.9239828580747
 30
0.0
 10
221.855190836935
 20
143.9063584727299
 30
0.0
 10
221.9033253824602
 20
143.8909100233231
 30
0.0
 10
221.9565319428803
 20
143.8780872075399
 30
0.0
 10
222.015032170094
 20
143.8664135500752
 30
0.0
 10
222.0790958156742
 20
143.8580066139847
 30
0.0
 10
222.1482120206543
 20
143.850603748374
 30
0.0
 10
222.222764640709
 20
143.8458333137135
 30
0.0
 10
222.30263238297
 20
143.8421265624829
 30
0.0
 10
222.3577861260217
 20
143.8419942719665
 30
0.0
 10
222.3861998690394
 20
143.8419261194073
 30
0.0
  0
SPLINE
  5
333
330
1F
100
AcDbEntity
  8
SLD-0
  6
SLD-DURCHGEHEND
 62
     7
100
AcDbSpline
210
0.0
220
0.0
230
1.0
 70
     8
 71
     3
 72
    23
 73
    19
 74
     0
 42
0.000000001
 43
0.00000001
 40
0.0
 40
0.0
 40
0.0
 40
0.0
 40
0.0686739183917647
 40
0.1368646806285657
 40
0.2061049032675444
 40
0.2775254520848126
 40
0.3497559345117782
 40
0.421231514581051
 40
0.4928881485126501
 40
0.5666222165247115
 40
0.6062079650046314
 40
0.6497024328398633
 40
0.6972994465661421
 40
0.7491468421890999
 40
0.8048895970275664
 40
0.865491175521515
 40
0.930240326977164
 40
1.0
 40
1.0
 40
1.0
 40
1.0
 10
206.0667453426734
 20
67.74755575857807
 30
0.0
 10
206.058698084738
 20
67.7391063638602
 30
0.0
 10
206.0426601854446
 20
67.72226702023968
 30
0.0
 10
206.0190997874244
 20
67.68859752464132
 30
0.0
 10
205.9963473718538
 20
67.64967094937012
 30
0.0
 10
205.9747651628487
 20
67.60541154912733
 30
0.0
 10
205.9549380243287
 20
67.55732703531179
 30
0.0
 10
205.9375719569791
 20
67.50659197884791
 30
0.0
 10
205.9230284479584
 20
67.45400981816243
 30
0.0
 10
205.9132801358203
 20
67.40881842153118
 30
0.0
 10
205.9070366919476
 20
67.37099879147792
 30
0.0
 10
205.902922990452
 20
67.33990922966596
 30
0.0
 10
205.8993993065761
 20
67.30642355875996
 30
0.0
 10
205.8964452181479
 20
67.2706176974673
 30
0.0
 10
205.8942155834655
 20
67.23250682844092
 30
0.0
 10
205.8928833311297
 20
67.19235589147955
 30
0.0
 10
205.8917115860209
 20
67.14932459315385
 30
0.0
 10
205.8916497702301
 20
67.12035018074427
 30
0.0
 10
205.891617711
 20
67.1053233188
 30
0.0
  0
SPLINE
  5
334
330
1F
100
AcDbEntity
  8
SLD-0
  6
SLD-DURCHGEHEND
 62
     7
100
AcDbSpline
210
0.0
220
0.0
230
1.0
 70
     8
 71
     3
 72
    23
 73
    19
 74
     0
 42
0.000000001
 43
0.00000001
 40
0.0
 40
0.0
 40
0.0
 40
0.0
 40
0.0825023125334676
 40
0.1587261568314579
 40
0.227662476735663
 40
0.2898494209590874
 40
0.3453269589521894
 40
0.3937910809625437
 40
0.4362544307123193
 40
0.4718400628811477
 40
0.5362924968382342
 40
0.5989659750684696
 40
0.6614607608870726
 40
0.7261291881442951
 40
0.7920242677856649
 40
0.8586942182094853
 40
0.9273294608854423
 40
0.9999999999999999
 40
0.9999999999999999
 40
0.9999999999999999
 40
0.9999999999999999
 10
206.1955680412263
 20
67.48921592129975
 30
0.0
 10
206.1955519806624
 20
67.50346627767695
 30
0.0
 10
206.1955210817517
 20
67.53088253101302
 30
0.0
 10
206.1949446399555
 20
67.56967607653866
 30
0.0
 10
206.1939004930623
 20
67.60446383028217
 30
0.0
 10
206.1925518962069
 20
67.6353152379808
 30
0.0
 10
206.1910881956485
 20
67.6625024878309
 30
0.0
 10
206.1887718921055
 20
67.68521199511007
 30
0.0
 10
206.1863572617103
 20
67.70428353461308
 30
0.0
 10
206.1826727722074
 20
67.72441735320156
 30
0.0
 10
206.1762882212829
 20
67.74392167482337
 30
0.0
 10
206.1665885248079
 20
67.76212357510315
 30
0.0
 10
206.1544751950385
 20
67.77464122512875
 30
0.0
 10
206.1402407868711
 20
67.78170725286198
 30
0.0
 10
206.1240375480236
 20
67.78287599944454
 30
0.0
 10
206.1061769397492
 20
67.77743124726794
 30
0.0
 10
206.0869036726699
 20
67.76586762021815
 30
0.0
 10
206.073591505381
 20
67.75377482455671
 30
0.0
 10
206.0667453426734
 20
67.74755575857807
 30
0.0
  0
SPLINE
  5
335
330
1F
100
AcDbEntity
  8
SLD-0
  6
SLD-DURCHGEHEND
 62
     7
100
AcDbSpline
210
0.0
220
0.0
230
1.0
 70
     8
 71
     3
 72
    23
 73
    19
 74
     0
 42
0.000000001
 43
0.00000001
 40
0.0
 40
0.0
 40
0.0
 40
0.0
 40
0.0681947041710859
 40
0.1350505877983526
 40
0.2019935769531585
 40
0.2707179199564292
 40
0.339960838345468
 40
0.4080260561526856
 40
0.4767633523490706
 40
0.5473032407644537
 40
0.5856007828382508
 40
0.6288302423201686
 40
0.6771232981085654
 40
0.7311765018655215
 40
0.7897856972796747
 40
0.8543105113005016
 40
0.9243576069450613
 40
1.0
 40
1.0
 40
1.0
 40
1.0
 10
206.4376301363412
 20
68.1095499877508
 30
0.0
 10
206.4292413809855
 20
68.1006463030424
 30
0.0
 10
206.4126285610394
 20
68.08301373365074
 30
0.0
 10
206.3882762013674
 20
68.04893773961014
 30
0.0
 10
206.3651855347544
 20
68.0088367736642
 30
0.0
 10
206.343442264417
 20
67.96393995185926
 30
0.0
 10
206.3236001719224
 20
67.91536756372653
 30
0.0
 10
206.3064643185063
 20
67.86409985992185
 30
0.0
 10
206.2923202404795
 20
67.81116042930289
 30
0.0
 10
206.2827403736254
 20
67.7655986460932
 30
0.0
 10
206.2766881805471
 20
67.72716169575587
 30
0.0
 10
206.2726942619496
 20
67.6948438320682
 30
0.0
 10
206.2695688044399
 20
67.65940585432902
 30
0.0
 10
206.2666943263475
 20
67.62062486100855
 30
0.0
 10
206.2647543955675
 20
67.57886169939634
 30
0.0
 10
206.26304067958
 20
67.53367120015172
 30
0.0
 10
206.2622283635269
 20
67.48541446027879
 30
0.0
 10
206.2621157395911
 20
67.45240271020634
 30
0.0
 10
206.2620572649263
 20
67.43526291654862
 30
0.0
  0
SPLINE
  5
336
330
1F
100
AcDbEntity
  8
SLD-0
  6
SLD-DURCHGEHEND
 62
     7
100
AcDbSpline
210
0.0
220
0.0
230
1.0
 70
     8
 71
     3
 72
    23
 73
    19
 74
     0
 42
0.000000001
 43
0.00000001
 40
0.0
 40
0.0
 40
0.0
 40
0.0
 40
0.0783389356318479
 40
0.150555520237408
 40
0.2161398837761309
 40
0.2756655425173862
 40
0.3292451513510076
 40
0.3764400961771467
 40
0.4178354192432738
 40
0.4532244401979189
 40
0.5177936461318938
 40
0.5812821809636853
 40
0.6453841932592864
 40
0.7120833447978593
 40
0.7806778212162335
 40
0.8502354798028285
 40
0.923211124910322
 40
1.0
 40
1.0
 40
1.0
 40
1.0
 10
206.5660075951525
 20
67.8843037539197
 30
0.0
 10
206.5659911889392
 20
67.89700908027511
 30
0.0
 10
206.5659596586923
 20
67.92142678526179
 30
0.0
 10
206.5653884193114
 20
67.95595793528203
 30
0.0
 10
206.564317553308
 20
67.98689838497766
 30
0.0
 10
206.5630461813708
 20
68.01458183708397
 30
0.0
 10
206.5613276505968
 20
68.03875846727186
 30
0.0
 10
206.5590586586599
 20
68.05925506855094
 30
0.0
 10
206.556673961221
 20
68.07659953582865
 30
0.0
 10
206.5527028600828
 20
68.09452313793746
 30
0.0
 10
206.5464130765365
 20
68.11241060675225
 30
0.0
 10
206.5366593262649
 20
68.1286178949679
 30
0.0
 10
206.5245495032355
 20
68.13935045823439
 30
0.0
 10
206.5104743691685
 20
68.14530887124302
 30
0.0
 10
206.4944222163206
 20
68.14534437305687
 30
0.0
 10
206.4768014972272
 20
68.13978149462373
 30
0.0
 10
206.4576755634095
 20
68.12799307125817
 30
0.0
 10
206.4444244101296
 20
68.11580115707856
 30
0.0
 10
206.4376301363412
 20
68.1095499877508
 30
0.0
  0
SPLINE
  5
337
330
1F
100
AcDbEntity
  8
SLD-0
  6
SLD-DURCHGEHEND
 62
     7
100
AcDbSpline
210
0.0
220
0.0
230
1.0
 70
     8
 71
     3
 72
    23
 73
    19
 74
     0
 42
0.000000001
 43
0.00000001
 40
0.0
 40
0.0
 40
0.0
 40
0.0
 40
0.0755870098959698
 40
0.147931117387253
 40
0.2186039988489584
 40
0.2892612546893332
 40
0.3594989326435167
 40
0.4294664204106213
 40
0.50057781413446
 40
0.5741235861930853
 40
0.6136328091008552
 40
0.6568308839529097
 40
0.7040405881798165
 40
0.754995127153321
 40
0.8097502066180159
 40
0.8688630034575786
 40
0.9324009641054118
 40
0.9999999999999999
 40
0.9999999999999999
 40
0.9999999999999999
 40
0.9999999999999999
 10
206.4492059690729
 20
68.24296802582388
 30
0.0
 10
206.458284681342
 20
68.25120825013197
 30
0.0
 10
206.4760526027379
 20
68.26733516917658
 30
0.0
 10
206.5018759352437
 20
68.28277218011897
 30
0.0
 10
206.5260619303062
 20
68.29021258969475
 30
0.0
 10
206.5483542409378
 20
68.28923633030152
 30
0.0
 10
206.5684938285994
 20
68.28046023763262
 30
0.0
 10
206.5860664247327
 20
68.26374187736418
 30
0.0
 10
206.6006856592791
 20
68.23882784302366
 30
0.0
 10
206.6104590172824
 20
68.21180055237066
 30
0.0
 10
206.616965284127
 20
68.18580754810432
 30
0.0
 10
206.6210287114862
 20
68.16209034787143
 30
0.0
 10
206.6245491187095
 20
68.13503289687299
 30
0.0
 10
206.6275338931402
 20
68.10466693147913
 30
0.0
 10
206.6296917482829
 20
68.07064076693653
 30
0.0
 10
206.6312958725264
 20
68.03320444208859
 30
0.0
 10
206.6323800787088
 20
67.99235706779638
 30
0.0
 10
206.6324567872885
 20
67.9635196545465
 30
0.0
 10
206.6324963293412
 20
67.94865442669482
 30
0.0
  0
SPLINE
  5
338
330
1F
100
AcDbEntity
  8
SLD-0
  6
SLD-DURCHGEHEND
 62
     7
100
AcDbSpline
210
0.0
220
0.0
230
1.0
 70
     8
 71
     3
 72
    19
 73
    15
 74
     0
 42
0.000000001
 43
0.00000001
 40
0.0
 40
0.0
 40
0.0
 40
0.0
 40
0.0717504136809243
 40
0.1411947378246875
 40
0.209070249287009
 40
0.2747797174550263
 40
0.3394088971953608
 40
0.40279242107395
 40
0.4652444212383343
 40
0.5271216758075818
 40
0.6476775551078984
 40
0.7650331089201898
 40
0.8816409039825998
 40
1.0
 40
1.0
 40
1.0
 40
1.0
 10
206.2506290443451
 20
67.80900192690592
 30
0.0
 10
206.2535314909318
 20
67.82144722185043
 30
0.0
 10
206.2592430982082
 20
67.84593781454103
 30
0.0
 10
206.2688326230204
 20
67.88207015072986
 30
0.0
 10
206.2788833625394
 20
67.91691501174299
 30
0.0
 10
206.2894647131485
 20
67.95059202853172
 30
0.0
 10
206.3006211396576
 20
67.98295859748023
 30
0.0
 10
206.3121727927944
 20
68.01427784446366
 30
0.0
 10
206.3243787135727
 20
68.0442456319184
 30
0.0
 10
206.3412604957577
 20
68.08185487010113
 30
0.0
 10
206.3631705771674
 20
68.12567065882496
 30
0.0
 10
206.3909113993956
 20
68.1719533159423
 30
0.0
 10
206.4197161468874
 20
68.21204524641833
 30
0.0
 10
206.4393273051109
 20
68.23260934191599
 30
0.0
 10
206.4492059690729
 20
68.24296802582388
 30
0.0
  0
SPLINE
  5
339
330
1F
100
AcDbEntity
  8
SLD-0
  6
SLD-DURCHGEHEND
 62
     7
100
AcDbSpline
210
0.0
220
0.0
230
1.0
 70
     8
 71
     3
 72
    19
 73
    15
 74
     0
 42
0.000000001
 43
0.00000001
 40
0.0
 40
0.0
 40
0.0
 40
0.0
 40
0.0841421131422533
 40
0.1665127174467231
 40
0.2488070401254429
 40
0.3318024620130215
 40
0.4129339673470686
 40
0.4904620089401796
 40
0.5661146169846996
 40
0.6394832547472901
 40
0.7162523706230061
 40
0.8021671947458945
 40
0.8958454623920019
 40
1.0
 40
1.0
 40
1.0
 40
1.0
 10
206.0783212643682
 20
67.8809731840358
 30
0.0
 10
206.0848604428071
 20
67.88694814278476
 30
0.0
 10
206.0978011253152
 20
67.89877226486549
 30
0.0
 10
206.1169794651582
 20
67.91227366773782
 30
0.0
 10
206.1356087909715
 20
67.9213290614503
 30
0.0
 10
206.1535694096632
 20
67.9264698692566
 30
0.0
 10
206.1703852621193
 20
67.92739288246777
 30
0.0
 10
206.1858422882968
 20
67.92469008997898
 30
0.0
 10
206.1996697245873
 20
67.91805371795775
 30
0.0
 10
206.2120737390327
 20
67.9072361314483
 30
0.0
 10
206.2231284579751
 20
67.89101527495153
 30
0.0
 10
206.2332262946359
 20
67.86926212293956
 30
0.0
 10
206.2426806067196
 20
67.84182518490515
 30
0.0
 10
206.247887651816
 20
67.82032257110012
 30
0.0
 10
206.2506290443451
 20
67.80900192690592
 30
0.0
  0
SPLINE
  5
33A
330
1F
100
AcDbEntity
  8
SLD-0
  6
SLD-DURCHGEHEND
 62
     7
100
AcDbSpline
210
0.0
220
0.0
230
1.0
 70
     8
 71
     3
 72
    11
 73
     7
 74
     0
 42
0.000000001
 43
0.00000001
 40
0.0
 40
0.0
 40
0.0
 40
0.0
 40
0.2537340756906597
 40
0.5030351201318622
 40
0.7500135973308872
 40
1.0
 40
1.0
 40
1.0
 40
1.0
 10
205.9667145024882
 20
67.72161301297253
 30
0.0
 10
205.9755764013801
 20
67.73804031584258
 30
0.0
 10
205.993145371419
 20
67.77060791737662
 30
0.0
 10
206.020964152771
 20
67.81340216927906
 30
0.0
 10
206.0494297097048
 20
67.85079821349932
 30
0.0
 10
206.0686519646606
 20
67.87087435629238
 30
0.0
 10
206.0783212643682
 20
67.8809731840358
 30
0.0
  0
SPLINE
  5
33B
330
1F
100
AcDbEntity
  8
SLD-0
  6
SLD-DURCHGEHEND
 62
     7
100
AcDbSpline
210
0.0
220
0.0
230
1.0
 70
     8
 71
     3
 72
    11
 73
     7
 74
     0
 42
0.000000001
 43
0.00000001
 40
0.0
 40
0.0
 40
0.0
 40
0.0
 40
0.2835665747343445
 40
0.5424201335549561
 40
0.7806674670942623
 40
1.0
 40
1.0
 40
1.0
 40
1.0
 10
205.8916173994147
 20
67.50847893193459
 30
0.0
 10
205.8976175239576
 20
67.52943184691178
 30
0.0
 10
205.9090948581919
 20
67.56951161636604
 30
0.0
 10
205.9277349466433
 20
67.62618249339103
 30
0.0
 10
205.9466767992628
 20
67.67678757841999
 30
0.0
 10
205.960221904323
 20
67.7070887169064
 30
0.0
 10
205.9667145024882
 20
67.72161301297253
 30
0.0
  0
SPLINE
  5
33C
330
1F
100
AcDbEntity
  8
SLD-0
  6
SLD-DURCHGEHEND
 62
     7
100
AcDbSpline
210
0.0
220
0.0
230
1.0
 70
     8
 71
     3
 72
    15
 73
    11
 74
     0
 42
0.000000001
 43
0.00000001
 40
0.0
 40
0.0
 40
0.0
 40
0.0
 40
0.0769954547170661
 40
0.1676150771831809
 40
0.2710523936342354
 40
0.3894595025720781
 40
0.5208428024655786
 40
0.6663987586080764
 40
0.8260936125153212
 40
1.0
 40
1.0
 40
1.0
 40
1.0
 10
207.5640862118555
 20
68.94568692244694
 30
0.0
 10
207.5632522682494
 20
68.93816437624407
 30
0.0
 10
207.5614368166439
 20
68.92178818667496
 30
0.0
 10
207.5594759895634
 20
68.89590783528953
 30
0.0
 10
207.5576962765729
 20
68.86644641833436
 30
0.0
 10
207.556206695324
 20
68.83354269269017
 30
0.0
 10
207.5552953260818
 20
68.79736772294316
 30
0.0
 10
207.554301617608
 20
68.75742748272145
 30
0.0
 10
207.553939844084
 20
68.71426373223811
 30
0.0
 10
207.5538779586749
 20
68.68439829153898
 30
0.0
 10
207.5538456978
 20
68.6688294319
 30
0.0
  0
SPLINE
  5
33D
330
1F
100
AcDbEntity
  8
SLD-0
  6
SLD-DURCHGEHEND
 62
     7
100
AcDbSpline
210
0.0
220
0.0
230
1.0
 70
     8
 71
     3
 72
    23
 73
    19
 74
     0
 42
0.000000001
 43
0.00000001
 40
0.0
 40
0.0
 40
0.0
 40
0.0
 40
0.0639962164180008
 40
0.1266468587927837
 40
0.1890142220497147
 40
0.250444060169659
 40
0.3123515162166043
 40
0.374054731565964
 40
0.4376386854812105
 40
0.502421798082477
 40
0.5674857558399468
 40
0.6307130141073973
 40
0.6928861079685978
 40
0.7543587414201971
 40
0.8151891657690332
 40
0.8760973581582082
 40
0.9380048142051536
 40
1.0
 40
1.0
 40
1.0
 40
1.0
 10
207.7482670516068
 20
69.38877187542205
 30
0.0
 10
207.7429179017958
 20
69.38336860876898
 30
0.0
 10
207.7323320725282
 20
69.37267568366913
 30
0.0
 10
207.7166432362591
 20
69.35364852756142
 30
0.0
 10
207.7013770890304
 20
69.33288191876163
 30
0.0
 10
207.6865745296375
 20
69.30976912034227
 30
0.0
 10
207.6722056433873
 20
69.28520916063502
 30
0.0
 10
207.6582109683386
 20
69.25862239192601
 30
0.0
 10
207.6447860506626
 20
69.22988230857105
 30
0.0
 10
207.6317421168056
 20
69.19957507500861
 30
0.0
 10
207.6196183320205
 20
69.1681688575713
 30
0.0
 10
207.6081765769344
 20
69.13664676219993
 30
0.0
 10
207.5981235794524
 20
69.10484628008474
 30
0.0
 10
207.588998267214
 20
69.07309482832113
 30
0.0
 10
207.5811306425526
 20
69.04125559408297
 30
0.0
 10
207.5742603776473
 20
69.00933274791149
 30
0.0
 10
207.5684317920731
 20
68.97732965884867
 30
0.0
 10
207.56553542219
 20
68.95623947890886
 30
0.0
 10
207.5640862118555
 20
68.94568692244694
 30
0.0
  0
SPLINE
  5
33E
330
1F
100
AcDbEntity
  8
SLD-0
  6
SLD-DURCHGEHEND
 62
     7
100
AcDbSpline
210
0.0
220
0.0
230
1.0
 70
     8
 71
     3
 72
    15
 73
    11
 74
     0
 42
0.000000001
 43
0.00000001
 40
0.0
 40
0.0
 40
0.0
 40
0.0
 40
0.135528999964226
 40
0.2601576487938146
 40
0.3784325902006516
 40
0.4931422241600834
 40
0.6092536571898841
 40
0.7299621659648364
 40
0.8592514725640201
 40
0.9999999999999999
 40
0.9999999999999999
 40
0.9999999999999999
 40
0.9999999999999999
 10
207.8879239172039
 20
69.32936396625323
 30
0.0
 10
207.8856858726158
 20
69.34262983436464
 30
0.0
 10
207.881389785298
 20
69.36809462092683
 30
0.0
 10
207.8705581318469
 20
69.39768244274723
 30
0.0
 10
207.8571974031043
 20
69.41911034627164
 30
0.0
 10
207.8406437665198
 20
69.4310215232277
 30
0.0
 10
207.8213418120762
 20
69.43403246599152
 30
0.0
 10
207.7992594517562
 20
69.42762862552802
 30
0.0
 10
207.7746252269627
 20
69.41306299966205
 30
0.0
 10
207.7572982043305
 20
69.39709479041441
 30
0.0
 10
207.7482670516068
 20
69.38877187542205
 30
0.0
  0
SPLINE
  5
33F
330
1F
100
AcDbEntity
  8
SLD-0
  6
SLD-DURCHGEHEND
 62
     7
100
AcDbSpline
210
0.0
220
0.0
230
1.0
 70
     8
 71
     3
 72
    15
 73
    11
 74
     0
 42
0.000000001
 43
0.00000001
 40
0.0
 40
0.0
 40
0.0
 40
0.0
 40
0.1788504226669972
 40
0.3421104203020793
 40
0.4898267677856973
 40
0.6220572877084602
 40
0.74007909003952
 40
0.8414823156585849
 40
0.9289075118911193
 40
1.0
 40
1.0
 40
1.0
 40
1.0
 10
207.8957898193045
 20
69.11079431971324
 30
0.0
 10
207.895749090337
 20
69.1242930863032
 30
0.0
 10
207.8956711827538
 20
69.15011392945688
 30
0.0
 10
207.8954222426112
 20
69.1869489019043
 30
0.0
 10
207.8948362491413
 20
69.21991191690866
 30
0.0
 10
207.8939789659156
 20
69.24916353813693
 30
0.0
 10
207.892778985819
 20
69.27452394494783
 30
0.0
 10
207.8914943853501
 20
69.29637932516462
 30
0.0
 10
207.889936354047
 20
69.31434069855635
 30
0.0
 10
207.8885470130398
 20
69.32471242373357
 30
0.0
 10
207.8879239172039
 20
69.32936396625323
 30
0.0
  0
SPLINE
  5
340
330
1F
100
AcDbEntity
  8
SLD-0
  6
SLD-DURCHGEHEND
 62
     7
100
AcDbSpline
210
0.0
220
0.0
230
1.0
 70
     8
 71
     3
 72
    23
 73
    19
 74
     0
 42
0.000000001
 43
0.00000001
 40
0.0
 40
0.0
 40
0.0
 40
0.0
 40
0.0772352601298103
 40
0.1512438108024461
 40
0.2234188286360043
 40
0.2958043357739669
 40
0.3672331708909987
 40
0.4371134667550856
 40
0.5067140232024508
 40
0.5782253602633891
 40
0.6166327084251488
 40
0.6584064973910091
 40
0.7045109807395485
 40
0.7548195062037484
 40
0.8093443714114124
 40
0.8682832612646743
 40
0.9320774243056856
 40
1.0
 40
1.0
 40
1.0
 40
1.0
 10
207.7598432848869
 20
69.52219029386337
 30
0.0
 10
207.7698670014246
 20
69.53133357025467
 30
0.0
 10
207.7894956669461
 20
69.54923813822423
 30
0.0
 10
207.8179720315617
 20
69.56598598844748
 30
0.0
 10
207.8447542791957
 20
69.57464598896823
 30
0.0
 10
207.8694842871607
 20
69.57421554254346
 30
0.0
 10
207.8917815337893
 20
69.56547596535925
 30
0.0
 10
207.9111170470603
 20
69.54856850793509
 30
0.0
 10
207.9273772309776
 20
69.52381334667717
 30
0.0
 10
207.9382301491565
 20
69.49637961351925
 30
0.0
 10
207.9452497013111
 20
69.46945362819669
 30
0.0
 10
207.9498626752049
 20
69.44506543155042
 30
0.0
 10
207.9535946693759
 20
69.41650728099698
 30
0.0
 10
207.9569386813179
 20
69.38433997170485
 30
0.0
 10
207.9591695044234
 20
69.34771337121337
 30
0.0
 10
207.9609378462725
 20
69.30735520454884
 30
0.0
 10
207.9622026923373
 20
69.26323272724741
 30
0.0
 10
207.9622530077924
 20
69.23191200514029
 30
0.0
 10
207.9622789540415
 20
69.21576079961736
 30
0.0
  0
SPLINE
  5
341
330
1F
100
AcDbEntity
  8
SLD-0
  6
SLD-DURCHGEHEND
 62
     7
100
AcDbSpline
210
0.0
220
0.0
230
1.0
 70
     8
 71
     3
 72
    15
 73
    11
 74
     0
 42
0.000000001
 43
0.00000001
 40
0.0
 40
0.0
 40
0.0
 40
0.0
 40
0.1409837301838174
 40
0.2731541395726923
 40
0.3989552145193258
 40
0.5199033426703348
 40
0.6380900912974556
 40
0.7565754954549483
 40
0.8768529727553245
 40
1.0
 40
1.0
 40
1.0
 40
1.0
 10
207.5538456978
 20
69.12432269532067
 30
0.0
 10
207.5609326792567
 20
69.14753202078937
 30
0.0
 10
207.5746636134535
 20
69.19249978636202
 30
0.0
 10
207.5977656232723
 20
69.25620974570333
 30
0.0
 10
207.6218541461334
 20
69.314262124343
 30
0.0
 10
207.6473204176695
 20
69.36631424772408
 30
0.0
 10
207.6739023845588
 20
69.41282766262438
 30
0.0
 10
207.7015246208229
 20
69.45462019678236
 30
0.0
 10
207.7303366323127
 20
69.49164053391505
 30
0.0
 10
207.7499307405856
 20
69.51192732526265
 30
0.0
 10
207.7598432848869
 20
69.52219029386337
 30
0.0
  0
SPLINE
  5
342
330
1F
100
AcDbEntity
  8
SLD-0
  6
SLD-DURCHGEHEND
 62
     7
100
AcDbSpline
210
0.0
220
0.0
230
1.0
 70
     8
 71
     3
 72
    15
 73
    11
 74
     0
 42
0.000000001
 43
0.00000001
 40
0.0
 40
0.0
 40
0.0
 40
0.0
 40
0.0769954547170661
 40
0.1676150771831809
 40
0.2710523936342354
 40
0.3894595025720781
 40
0.5208428024655786
 40
0.6663987586080764
 40
0.8260936125153214
 40
1.0
 40
1.0
 40
1.0
 40
1.0
 10
208.1909836140555
 20
69.55755800544695
 30
0.0
 10
208.1901496704494
 20
69.5500354592441
 30
0.0
 10
208.1883342188439
 20
69.53365926967498
 30
0.0
 10
208.1863733917634
 20
69.50777891828956
 30
0.0
 10
208.1845936787729
 20
69.47831750133439
 30
0.0
 10
208.183104097524
 20
69.44541377569018
 30
0.0
 10
208.1821927282818
 20
69.40923880594316
 30
0.0
 10
208.181199019808
 20
69.3692985657215
 30
0.0
 10
208.180837246284
 20
69.32613481523812
 30
0.0
 10
208.1807753608749
 20
69.29626937453901
 30
0.0
 10
208.1807431
 20
69.28070051490002
 30
0.0
  0
SPLINE
  5
343
330
1F
100
AcDbEntity
  8
SLD-0
  6
SLD-DURCHGEHEND
 62
     7
100
AcDbSpline
210
0.0
220
0.0
230
1.0
 70
     8
 71
     3
 72
    23
 73
    19
 74
     0
 42
0.000000001
 43
0.00000001
 40
0.0
 40
0.0
 40
0.0
 40
0.0
 40
0.0639962164180008
 40
0.1266468587927837
 40
0.1890142220497147
 40
0.250444060169659
 40
0.3123515162166043
 40
0.374054731565964
 40
0.4376386854812105
 40
0.502421798082477
 40
0.5674857558399468
 40
0.6307130141073973
 40
0.6928861079685978
 40
0.7543587414201971
 40
0.8151891657690332
 40
0.8760973581582082
 40
0.9380048142051536
 40
1.0
 40
1.0
 40
1.0
 40
1.0
 10
208.3751644538068
 20
70.00064295842206
 30
0.0
 10
208.3698153039958
 20
69.99523969176899
 30
0.0
 10
208.3592294747283
 20
69.98454676666914
 30
0.0
 10
208.3435406384591
 20
69.96551961056142
 30
0.0
 10
208.3282744912304
 20
69.94475300176164
 30
0.0
 10
208.3134719318375
 20
69.92164020334228
 30
0.0
 10
208.2991030455873
 20
69.89708024363503
 30
0.0
 10
208.2851083705386
 20
69.87049347492602
 30
0.0
 10
208.2716834528626
 20
69.84175339157106
 30
0.0
 10
208.2586395190056
 20
69.81144615800862
 30
0.0
 10
208.2465157342205
 20
69.78003994057131
 30
0.0
 10
208.2350739791344
 20
69.74851784519993
 30
0.0
 10
208.2250209816524
 20
69.71671736308475
 30
0.0
 10
208.215895669414
 20
69.68496591132114
 30
0.0
 10
208.2080280447527
 20
69.65312667708298
 30
0.0
 10
208.2011577798474
 20
69.62120383091151
 30
0.0
 10
208.1953291942731
 20
69.58920074184869
 30
0.0
 10
208.19243282439
 20
69.56811056190887
 30
0.0
 10
208.1909836140555
 20
69.55755800544695
 30
0.0
  0
SPLINE
  5
344
330
1F
100
AcDbEntity
  8
SLD-0
  6
SLD-DURCHGEHEND
 62
     7
100
AcDbSpline
210
0.0
220
0.0
230
1.0
 70
     8
 71
     3
 72
    15
 73
    11
 74
     0
 42
0.000000001
 43
0.00000001
 40
0.0
 40
0.0
 40
0.0
 40
0.0
 40
0.135528999964225
 40
0.2601576487938137
 40
0.3784325902006509
 40
0.4931422241600829
 40
0.6092536571898837
 40
0.7299621659648362
 40
0.85925147256402
 40
1.0
 40
1.0
 40
1.0
 40
1.0
 10
208.5148213194039
 20
69.94123504925325
 30
0.0
 10
208.5125832748158
 20
69.95450091736464
 30
0.0
 10
208.5082871874981
 20
69.97996570392682
 30
0.0
 10
208.4974555340469
 20
70.00955352574725
 30
0.0
 10
208.4840948053043
 20
70.03098142927163
 30
0.0
 10
208.4675411687198
 20
70.04289260622772
 30
0.0
 10
208.4482392142762
 20
70.04590354899153
 30
0.0
 10
208.4261568539562
 20
70.039499708528
 30
0.0
 10
208.4015226291627
 20
70.02493408266206
 30
0.0
 10
208.3841956065305
 20
70.00896587341441
 30
0.0
 10
208.3751644538068
 20
70.00064295842206
 30
0.0
  0
SPLINE
  5
345
330
1F
100
AcDbEntity
  8
SLD-0
  6
SLD-DURCHGEHEND
 62
     7
100
AcDbSpline
210
0.0
220
0.0
230
1.0
 70
     8
 71
     3
 72
    15
 73
    11
 74
     0
 42
0.000000001
 43
0.00000001
 40
0.0
 40
0.0
 40
0.0
 40
0.0
 40
0.178850422666997
 40
0.3421104203020792
 40
0.4898267677856967
 40
0.6220572877084598
 40
0.7400790900395199
 40
0.8414823156585832
 40
0.9289075118911194
 40
1.0
 40
1.0
 40
1.0
 40
1.0
 10
208.5226872215045
 20
69.72266540271326
 30
0.0
 10
208.522646492537
 20
69.7361641693032
 30
0.0
 10
208.5225685849538
 20
69.76198501245688
 30
0.0
 10
208.5223196448112
 20
69.79881998490431
 30
0.0
 10
208.5217336513413
 20
69.83178299990867
 30
0.0
 10
208.5208763681156
 20
69.86103462113695
 30
0.0
 10
208.519676388019
 20
69.88639502794783
 30
0.0
 10
208.5183917875501
 20
69.90825040816465
 30
0.0
 10
208.516833756247
 20
69.92621178155636
 30
0.0
 10
208.5154444152398
 20
69.93658350673358
 30
0.0
 10
208.5148213194039
 20
69.94123504925325
 30
0.0
  0
SPLINE
  5
346
330
1F
100
AcDbEntity
  8
SLD-0
  6
SLD-DURCHGEHEND
 62
     7
100
AcDbSpline
210
0.0
220
0.0
230
1.0
 70
     8
 71
     3
 72
    23
 73
    19
 74
     0
 42
0.000000001
 43
0.00000001
 40
0.0
 40
0.0
 40
0.0
 40
0.0
 40
0.0772352601298103
 40
0.151243810802444
 40
0.2234188286360062
 40
0.2958043357739651
 40
0.3672331708909986
 40
0.4371134667550855
 40
0.5067140232024507
 40
0.578225360263388
 40
0.6166327084251485
 40
0.6584064973910094
 40
0.7045109807395488
 40
0.7548195062037483
 40
0.8093443714114125
 40
0.8682832612646745
 40
0.9320774243056856
 40
1.0
 40
1.0
 40
1.0
 40
1.0
 10
208.386740911018
 20
70.13406152704181
 30
0.0
 10
208.3967646275557
 20
70.14320480343311
 30
0.0
 10
208.4163932930772
 20
70.16110937140267
 30
0.0
 10
208.4448696576929
 20
70.1778572216259
 30
0.0
 10
208.4716519053268
 20
70.18651722214666
 30
0.0
 10
208.4963819132917
 20
70.18608677572188
 30
0.0
 10
208.5186791599204
 20
70.17734719853769
 30
0.0
 10
208.5380146731914
 20
70.16043974111352
 30
0.0
 10
208.5542748571087
 20
70.1356845798556
 30
0.0
 10
208.5651277752876
 20
70.1082508466977
 30
0.0
 10
208.5721473274422
 20
70.08132486137511
 30
0.0
 10
208.576760301336
 20
70.05693666472885
 30
0.0
 10
208.580492295507
 20
70.02837851417542
 30
0.0
 10
208.583836307449
 20
69.99621120488328
 30
0.0
 10
208.5860671305545
 20
69.95958460439181
 30
0.0
 10
208.5878354724036
 20
69.91922643772727
 30
0.0
 10
208.5891003184684
 20
69.87510396042585
 30
0.0
 10
208.5891506339235
 20
69.84378323831871
 30
0.0
 10
208.5891765801726
 20
69.82763203279579
 30
0.0
  0
SPLINE
  5
347
330
1F
100
AcDbEntity
  8
SLD-0
  6
SLD-DURCHGEHEND
 62
     7
100
AcDbSpline
210
0.0
220
0.0
230
1.0
 70
     8
 71
     3
 72
    15
 73
    11
 74
     0
 42
0.000000001
 43
0.00000001
 40
0.0
 40
0.0
 40
0.0
 40
0.0
 40
0.1409837301838174
 40
0.2731541395726923
 40
0.3989552145193258
 40
0.5199033426703348
 40
0.6380900912974556
 40
0.7565754954549483
 40
0.8768529727553245
 40
1.0
 40
1.0
 40
1.0
 40
1.0
 10
208.1807433239311
 20
69.73619392849913
 30
0.0
 10
208.1878303053878
 20
69.7594032539678
 30
0.0
 10
208.2015612395846
 20
69.80437101954045
 30
0.0
 10
208.2246632494034
 20
69.86808097888176
 30
0.0
 10
208.2487517722645
 20
69.92613335752146
 30
0.0
 10
208.2742180438006
 20
69.97818548090251
 30
0.0
 10
208.3008000106899
 20
70.02469889580281
 30
0.0
 10
208.328422246954
 20
70.06649142996079
 30
0.0
 10
208.3572342584438
 20
70.10351176709348
 30
0.0
 10
208.3768283667167
 20
70.12379855844108
 30
0.0
 10
208.386740911018
 20
70.13406152704181
 30
0.0
  0
SPLINE
  5
348
330
1F
100
AcDbEntity
  8
SLD-0
  6
SLD-DURCHGEHEND
 62
     7
100
AcDbSpline
210
0.0
220
0.0
230
1.0
 70
     8
 71
     3
 72
    15
 73
    11
 74
     0
 42
0.000000001
 43
0.00000001
 40
0.0
 40
0.0
 40
0.0
 40
0.0
 40
0.1298635398584115
 40
0.2546562725792851
 40
0.3765790035057979
 40
0.4958209849134798
 40
0.6156516375024166
 40
0.7381460152074771
 40
0.8656460753711668
 40
1.0
 40
1.0
 40
1.0
 40
1.0
 10
207.0498343012612
 20
68.82919976840748
 30
0.0
 10
207.0608841719484
 20
68.83942790119859
 30
0.0
 10
207.0825524468528
 20
68.85948478687158
 30
0.0
 10
207.1142909400844
 20
68.88129722299318
 30
0.0
 10
207.144329742849
 20
68.89527524300418
 30
0.0
 10
207.1729290379921
 20
68.90225045826315
 30
0.0
 10
207.199686912881
 20
68.90017015736093
 30
0.0
 10
207.224860601935
 20
68.88985153210251
 30
0.0
 10
207.2481514101427
 20
68.8701572259689
 30
0.0
 10
207.2618590432036
 20
68.85126089695656
 30
0.0
 10
207.2688922541
 20
68.84156543264699
 30
0.0
  0
SPLINE
  5
349
330
1F
100
AcDbEntity
  8
SLD-0
  6
SLD-DURCHGEHEND
 62
     7
100
AcDbSpline
210
0.0
220
0.0
230
1.0
 70
     8
 71
     3
 72
    23
 73
    19
 74
     0
 42
0.000000001
 43
0.00000001
 40
0.0
 40
0.0
 40
0.0
 40
0.0
 40
0.0637814724965009
 40
0.1260925303724585
 40
0.1869244323723039
 40
0.2476008768692151
 40
0.3080368742790072
 40
0.3693492899539816
 40
0.4322574644027524
 40
0.4970220782641075
 40
0.5618491610224146
 40
0.6248894581378539
 40
0.6869962791359585
 40
0.7480514182236212
 40
0.8095615691495256
 40
0.8716167729305409
 40
0.9348787348521415
 40
1.0
 40
1.0
 40
1.0
 40
1.0
 10
206.7654745196628
 20
68.03973797487544
 30
0.0
 10
206.7657396836548
 20
68.05728374875261
 30
0.0
 10
206.7662638985624
 20
68.09197079718405
 30
0.0
 10
206.7701710041298
 20
68.14604501223262
 30
0.0
 10
206.7767361918088
 20
68.20086779863657
 30
0.0
 10
206.7859671556748
 20
68.25626731905152
 30
0.0
 10
206.7977515681223
 20
68.31232076537482
 30
0.0
 10
206.8123298134977
 20
68.3689141884554
 30
0.0
 10
206.8292337149415
 20
68.42623869253671
 30
0.0
 10
206.8487682213079
 20
68.48328270674587
 30
0.0
 10
206.8699188620769
 20
68.53887956827825
 30
0.0
 10
206.8924402791123
 20
68.59164081733184
 30
0.0
 10
206.9160516528731
 20
68.64065886572712
 30
0.0
 10
206.9408003275163
 20
68.68592754897415
 30
0.0
 10
206.966511060545
 20
68.7277998609842
 30
0.0
 10
206.9933791626244
 20
68.76571972810555
 30
0.0
 10
207.0212824485061
 20
68.7998294344765
 30
0.0
 10
207.0402255694306
 20
68.8193155880379
 30
0.0
 10
207.0498343012612
 20
68.82919976840748
 30
0.0
  0
SPLINE
  5
34A
330
1F
100
AcDbEntity
  8
SLD-0
  6
SLD-DURCHGEHEND
 62
     7
100
AcDbSpline
210
0.0
220
0.0
230
1.0
 70
     8
 71
     3
 72
    23
 73
    19
 74
     0
 42
0.000000001
 43
0.00000001
 40
0.0
 40
0.0
 40
0.0
 40
0.0
 40
0.0646272670080852
 40
0.1274478320825666
 40
0.1890254068323217
 40
0.2499582107091114
 40
0.3107034323946204
 40
0.3720844592356792
 40
0.4347016574718288
 40
0.4993453691874983
 40
0.5639683079454375
 40
0.6265193590321816
 40
0.6880742172965828
 40
0.7492653791062718
 40
0.8103091726242388
 40
0.8718867473739975
 40
0.9350386014010447
 40
0.9999999999999999
 40
0.9999999999999999
 40
0.9999999999999999
 40
0.9999999999999999
 10
207.0477565158006
 20
67.797884192485
 30
0.0
 10
207.0381953511596
 20
67.78902892066083
 30
0.0
 10
207.0193403111416
 20
67.77156593253306
 30
0.0
 10
206.9916044897653
 20
67.75179059049935
 30
0.0
 10
206.964911941419
 20
67.73744802588558
 30
0.0
 10
206.9392456544348
 20
67.72870290925356
 30
0.0
 10
206.9147795389243
 20
67.72634092829493
 30
0.0
 10
206.8913757348255
 20
67.72953748444077
 30
0.0
 10
206.8689796218166
 20
67.73838322789969
 30
0.0
 10
206.8480171271095
 20
67.75316227724548
 30
0.0
 10
206.8286891875396
 20
67.77253179363045
 30
0.0
 10
206.8117791925507
 20
67.79692608578993
 30
0.0
 10
206.7974474212382
 20
67.82593984474403
 30
0.0
 10
206.7856692720083
 20
67.85953697254072
 30
0.0
 10
206.7765547225526
 20
67.89779184784723
 30
0.0
 10
206.7702134623345
 20
67.94077918443783
 30
0.0
 10
206.7662455247348
 20
67.98802677535144
 30
0.0
 10
206.7657339300385
 20
68.02233935821089
 30
0.0
 10
206.7654745196628
 20
68.03973797487544
 30
0.0
  0
SPLINE
  5
34B
330
1F
100
AcDbEntity
  8
SLD-0
  6
SLD-DURCHGEHEND
 62
     7
100
AcDbSpline
210
0.0
220
0.0
230
1.0
 70
     8
 71
     3
 72
    15
 73
    11
 74
     0
 42
0.000000001
 43
0.00000001
 40
0.0
 40
0.0
 40
0.0
 40
0.0
 40
0.134279425383959
 40
0.2624376805010357
 40
0.3857880719678817
 40
0.5066656944993564
 40
0.6267843787698824
 40
0.7481804860948832
 40
0.8723881896532608
 40
1.0
 40
1.0
 40
1.0
 40
1.0
 10
207.2688922541
 20
68.20316724825935
 30
0.0
 10
207.261384657977
 20
68.18029421036462
 30
0.0
 10
207.2467117018853
 20
68.13559080927436
 30
0.0
 10
207.2224398529583
 20
68.07196413336833
 30
0.0
 10
207.1964991541881
 20
68.0140389420892
 30
0.0
 10
207.1693315538446
 20
67.96105595476673
 30
0.0
 10
207.1407267655345
 20
67.91318579833711
 30
0.0
 10
207.110852783681
 20
67.86997263950043
 30
0.0
 10
207.0797329825399
 20
67.83045562848602
 30
0.0
 10
207.0585109647569
 20
67.80883874380434
 30
0.0
 10
207.0477565158006
 20
67.797884192485
 30
0.0
  0
SPLINE
  5
34C
330
1F
100
AcDbEntity
  8
SLD-0
  6
SLD-DURCHGEHEND
 62
     7
100
AcDbSpline
210
0.0
220
0.0
230
1.0
 70
     8
 71
     3
 72
    15
 73
    11
 74
     0
 42
0.000000001
 43
0.00000001
 40
0.0
 40
0.0
 40
0.0
 40
0.0
 40
0.1288541562971698
 40
0.2529263890926015
 40
0.3745104744657686
 40
0.4943737874636331
 40
0.6152961820912102
 40
0.7385716223676421
 40
0.8662734877878975
 40
1.0
 40
1.0
 40
1.0
 40
1.0
 10
205.3876060119888
 20
67.20681392285861
 30
0.0
 10
205.3986609258977
 20
67.2170052023444
 30
0.0
 10
205.4203604933548
 20
67.23700955140575
 30
0.0
 10
205.4520999488979
 20
67.2578328494896
 30
0.0
 10
205.4822314078898
 20
67.27098678248011
 30
0.0
 10
205.5107537131497
 20
67.2757356028241
 30
0.0
 10
205.5374165069494
 20
67.27166775799101
 30
0.0
 10
205.5625762147563
 20
67.26003611120076
 30
0.0
 10
205.5858473343091
 20
67.23955461748776
 30
0.0
 10
205.5996192958465
 20
67.22048429682631
 30
0.0
 10
205.6066639648276
 20
67.21072939763779
 30
0.0
  0
SPLINE
  5
34D
330
1F
100
AcDbEntity
  8
SLD-0
  6
SLD-DURCHGEHEND
 62
     7
100
AcDbSpline
210
0.0
220
0.0
230
1.0
 70
     8
 71
     3
 72
    23
 73
    19
 74
     0
 42
0.000000001
 43
0.00000001
 40
0.0
 40
0.0
 40
0.0
 40
0.0
 40
0.0637814724965009
 40
0.1260925303724585
 40
0.186924432372304
 40
0.2476008768692151
 40
0.3080368742790073
 40
0.3693492899539816
 40
0.4322574644027525
 40
0.4970220782641049
 40
0.5618491610224144
 40
0.6248894581378539
 40
0.6869962791359584
 40
0.7480514182236211
 40
0.8095615691495255
 40
0.8716167729305407
 40
0.9348787348521413
 40
1.0
 40
1.0
 40
1.0
 40
1.0
 10
205.1032462303905
 20
66.41735212932656
 30
0.0
 10
205.1035113943825
 20
66.43489790320375
 30
0.0
 10
205.1040356092901
 20
66.46958495163516
 30
0.0
 10
205.1079427148575
 20
66.52365916668373
 30
0.0
 10
205.1145079025365
 20
66.57848195308769
 30
0.0
 10
205.1237388664025
 20
66.63388147350263
 30
0.0
 10
205.13552327885
 20
66.68993491982593
 30
0.0
 10
205.1501015242254
 20
66.74652834290652
 30
0.0
 10
205.1670054256692
 20
66.80385284698784
 30
0.0
 10
205.1865399320356
 20
66.86089686119698
 30
0.0
 10
205.2076905728046
 20
66.91649372272934
 30
0.0
 10
205.23021198984
 20
66.96925497178296
 30
0.0
 10
205.2538233636008
 20
67.01827302017824
 30
0.0
 10
205.2785720382441
 20
67.0635417034253
 30
0.0
 10
205.3042827712726
 20
67.10541401543531
 30
0.0
 10
205.331150873352
 20
67.14333388255668
 30
0.0
 10
205.3590541592337
 20
67.1774435889276
 30
0.0
 10
205.3779972801583
 20
67.19692974248903
 30
0.0
 10
205.3876060119888
 20
67.20681392285861
 30
0.0
  0
SPLINE
  5
34E
330
1F
100
AcDbEntity
  8
SLD-0
  6
SLD-DURCHGEHEND
 62
     7
100
AcDbSpline
210
0.0
220
0.0
230
1.0
 70
     8
 71
     3
 72
    23
 73
    19
 74
     0
 42
0.000000001
 43
0.00000001
 40
0.0
 40
0.0
 40
0.0
 40
0.0
 40
0.0646272670080852
 40
0.1274478320825666
 40
0.1890254068323217
 40
0.2499582107091114
 40
0.3107034323946204
 40
0.3720844592356792
 40
0.4347016574718288
 40
0.4993453691874983
 40
0.5639683079454375
 40
0.6265193590321816
 40
0.6880742172965828
 40
0.7492653791062718
 40
0.8103091726242388
 40
0.8718867473739975
 40
0.9350386014010447
 40
0.9999999999999999
 40
0.9999999999999999
 40
0.9999999999999999
 40
0.9999999999999999
 10
205.3855282265283
 20
66.17549834693612
 30
0.0
 10
205.3759670618873
 20
66.16664307511193
 30
0.0
 10
205.3571120218693
 20
66.1491800869842
 30
0.0
 10
205.329376200493
 20
66.12940474495048
 30
0.0
 10
205.3026836521467
 20
66.1150621803367
 30
0.0
 10
205.2770173651625
 20
66.10631706370465
 30
0.0
 10
205.2525512496519
 20
66.10395508274605
 30
0.0
 10
205.2291474455531
 20
66.10715163889189
 30
0.0
 10
205.2067513325443
 20
66.1159973823508
 30
0.0
 10
205.1857888378373
 20
66.13077643169663
 30
0.0
 10
205.1664608982673
 20
66.15014594808156
 30
0.0
 10
205.1495509032784
 20
66.17454024024106
 30
0.0
 10
205.135219131966
 20
66.20355399919514
 30
0.0
 10
205.123440982736
 20
66.23715112699185
 30
0.0
 10
205.1143264332803
 20
66.27540600229835
 30
0.0
 10
205.1079851730622
 20
66.31839333888895
 30
0.0
 10
205.1040172354625
 20
66.36564092980257
 30
0.0
 10
205.1035056407661
 20
66.39995351266198
 30
0.0
 10
205.1032462303905
 20
66.41735212932656
 30
0.0
  0
SPLINE
  5
34F
330
1F
100
AcDbEntity
  8
SLD-0
  6
SLD-DURCHGEHEND
 62
     7
100
AcDbSpline
210
0.0
220
0.0
230
1.0
 70
     8
 71
     3
 72
    15
 73
    11
 74
     0
 42
0.000000001
 43
0.00000001
 40
0.0
 40
0.0
 40
0.0
 40
0.0
 40
0.134279425383959
 40
0.2624376805010357
 40
0.3857880719678817
 40
0.5066656944993564
 40
0.6267843787698824
 40
0.7481804860948832
 40
0.8723881896532608
 40
1.0
 40
1.0
 40
1.0
 40
1.0
 10
205.6066639648276
 20
66.58078140271047
 30
0.0
 10
205.5991563687046
 20
66.55790836481573
 30
0.0
 10
205.584483412613
 20
66.51320496372549
 30
0.0
 10
205.5602115636859
 20
66.44957828781945
 30
0.0
 10
205.5342708649158
 20
66.39165309654032
 30
0.0
 10
205.5071032645723
 20
66.33867010921784
 30
0.0
 10
205.4784984762622
 20
66.29079995278825
 30
0.0
 10
205.4486244944086
 20
66.24758679395154
 30
0.0
 10
205.4175046932676
 20
66.20806978293716
 30
0.0
 10
205.3962826754846
 20
66.18645289825547
 30
0.0
 10
205.3855282265283
 20
66.17549834693612
 30
0.0
  0
SPLINE
  5
350
330
1F
100
AcDbEntity
  8
SLD-0
  6
SLD-DURCHGEHEND
 62
     7
100
AcDbSpline
210
0.0
220
0.0
230
1.0
 70
     8
 71
     3
 72
    15
 73
    11
 74
     0
 42
0.000000001
 43
0.00000001
 40
0.0
 40
0.0
 40
0.0
 40
0.0
 40
0.1185218400132586
 40
0.2362547631617505
 40
0.3561744339909331
 40
0.4772496548985559
 40
0.6015398708217055
 40
0.7296183821680454
 40
0.8621582661414429
 40
1.0
 40
1.0
 40
1.0
 40
1.0
 10
204.7213789453943
 20
66.36083859035668
 30
0.0
 10
204.7260627689313
 20
66.35366739809054
 30
0.0
 10
204.735399239073
 20
66.3393727471617
 30
0.0
 10
204.7470939283175
 20
66.3126194922786
 30
0.0
 10
204.7572455350254
 20
66.28259526917343
 30
0.0
 10
204.7653598444932
 20
66.24817222017566
 30
0.0
 10
204.7719302766167
 20
66.21033363609476
 30
0.0
 10
204.7766839291417
 20
66.16849680752055
 30
0.0
 10
204.7794716699767
 20
66.12253001694398
 30
0.0
 10
204.78001964464
 20
66.08989103586785
 30
0.0
 10
204.7802990045251
 20
66.07325154025797
 30
0.0
  0
SPLINE
  5
351
330
1F
100
AcDbEntity
  8
SLD-0
  6
SLD-DURCHGEHEND
 62
     7
100
AcDbSpline
210
0.0
220
0.0
230
1.0
 70
     8
 71
     3
 72
    15
 73
    11
 74
     0
 42
0.000000001
 43
0.00000001
 40
0.0
 40
0.0
 40
0.0
 40
0.0
 40
0.1320486370255633
 40
0.2590493247643366
 40
0.3819041254817482
 40
0.5025162511634217
 40
0.6227281827366163
 40
0.7447263881325094
 40
0.8701006615077186
 40
1.0
 40
1.0
 40
1.0
 40
1.0
 10
204.5033598852858
 20
66.34376259537822
 30
0.0
 10
204.5144626167194
 20
66.35407540217956
 30
0.0
 10
204.5362436448746
 20
66.37430677827318
 30
0.0
 10
204.567993378708
 20
66.3956838506079
 30
0.0
 10
204.5980946347512
 20
66.41000638589425
 30
0.0
 10
204.6262990026636
 20
66.4155970685172
 30
0.0
 10
204.6530410702858
 20
66.4145049368088
 30
0.0
 10
204.6777053718632
 20
66.40420710769703
 30
0.0
 10
204.7009689585631
 20
66.38712973607781
 30
0.0
 10
204.7144956900008
 20
66.36970526293635
 30
0.0
 10
204.7213789453943
 20
66.36083859035668
 30
0.0
  0
SPLINE
  5
352
330
1F
100
AcDbEntity
  8
SLD-0
  6
SLD-DURCHGEHEND
 62
     7
100
AcDbSpline
210
0.0
220
0.0
230
1.0
 70
     8
 71
     3
 72
    15
 73
    11
 74
     0
 42
0.000000001
 43
0.00000001
 40
0.0
 40
0.0
 40
0.0
 40
0.0
 40
0.1288514141696369
 40
0.2532072518977783
 40
0.3746340222150082
 40
0.4953459460203001
 40
0.6163458534169434
 40
0.7396344715653399
 40
0.8668256185408401
 40
0.9999999999999999
 40
0.9999999999999999
 40
0.9999999999999999
 40
0.9999999999999999
 10
204.291722594806
 20
65.9518391172159
 30
0.0
 10
204.2984228962441
 20
65.97312613744495
 30
0.0
 10
204.3115897281718
 20
66.01495748192823
 30
0.0
 10
204.3340905939324
 20
66.07465068736215
 30
0.0
 10
204.3581267766375
 20
66.13038695732342
 30
0.0
 10
204.383940051494
 20
66.18191250801395
 30
0.0
 10
204.4114869374646
 20
66.22905181770933
 30
0.0
 10
204.4406253498414
 20
66.27189728233573
 30
0.0
 10
204.4714358264004
 20
66.31093300018632
 30
0.0
 10
204.4925567451497
 20
66.33265302066086
 30
0.0
 10
204.5033598852858
 20
66.34376259537822
 30
0.0
  0
SPLINE
  5
353
330
1F
100
AcDbEntity
  8
SLD-0
  6
SLD-DURCHGEHEND
 62
     7
100
AcDbSpline
210
0.0
220
0.0
230
1.0
 70
     8
 71
     3
 72
    15
 73
    11
 74
     0
 42
0.000000001
 43
0.00000001
 40
0.0
 40
0.0
 40
0.0
 40
0.0
 40
0.1280448079611251
 40
0.2537679000244938
 40
0.3774284265813022
 40
0.5005508414825345
 40
0.6232958832424753
 40
0.7465783319335114
 40
0.8723475406047174
 40
1.0
 40
1.0
 40
1.0
 40
1.0
 10
204.2293890309901
 20
65.55898897824518
 30
0.0
 10
204.2296132297031
 20
65.5744851064641
 30
0.0
 10
204.2300575619451
 20
65.60519638620463
 30
0.0
 10
204.2328582509755
 20
65.65274364337867
 30
0.0
 10
204.2378217784831
 20
65.70114335922753
 30
0.0
 10
204.2446328528993
 20
65.75012399066419
 30
0.0
 10
204.2534284079876
 20
65.799748309779
 30
0.0
 10
204.2641885566101
 20
65.85002188317534
 30
0.0
 10
204.2769300607375
 20
65.90091875030696
 30
0.0
 10
204.2867673821099
 20
65.93478177954637
 30
0.0
 10
204.291722594806
 20
65.9518391172159
 30
0.0
  0
SPLINE
  5
354
330
1F
100
AcDbEntity
  8
SLD-0
  6
SLD-DURCHGEHEND
 62
     7
100
AcDbSpline
210
0.0
220
0.0
230
1.0
 70
     8
 71
     3
 72
    23
 73
    19
 74
     0
 42
0.000000001
 43
0.00000001
 40
0.0
 40
0.0
 40
0.0
 40
0.0
 40
0.0715758125636846
 40
0.1396236746773188
 40
0.2047885570889817
 40
0.2681243055045788
 40
0.3298006374717151
 40
0.3912858442338201
 40
0.4534154919141828
 40
0.5165311583007018
 40
0.5796082313837406
 40
0.6410934381458466
 40
0.7012661714967232
 40
0.7606005711034909
 40
0.819938879174762
 40
0.8789243882328048
 40
0.9389852475756963
 40
0.9999999999999999
 40
0.9999999999999999
 40
0.9999999999999999
 40
0.9999999999999999
 10
204.5017273395668
 20
65.31288158709293
 30
0.0
 10
204.4913249808505
 20
65.30317457252704
 30
0.0
 10
204.4710329925761
 20
65.2842389992476
 30
0.0
 10
204.441495260681
 20
65.26290991833376
 30
0.0
 10
204.4136849087358
 20
65.24800219586828
 30
0.0
 10
204.387603481702
 20
65.23963912835778
 30
0.0
 10
204.3633149177301
 20
65.23825974969363
 30
0.0
 10
204.3407706971718
 20
65.2434550950456
 30
0.0
 10
204.3198531866502
 20
65.2549713118992
 30
0.0
 10
204.3012180599854
 20
65.27372234945689
 30
0.0
 10
204.2844518607512
 20
65.2968966447153
 30
0.0
 10
204.2696206289463
 20
65.32359331290594
 30
0.0
 10
204.2573648620987
 20
65.3544201381151
 30
0.0
 10
204.2469040800388
 20
65.38796570114691
 30
0.0
 10
204.2391640301151
 20
65.42571590551132
 30
0.0
 10
204.2333853640295
 20
65.46653044628714
 30
0.0
 10
204.2301475481428
 20
65.51114501785747
 30
0.0
 10
204.229643194556
 20
65.54295744680738
 30
0.0
 10
204.2293890309901
 20
65.55898897824518
 30
0.0
  0
SPLINE
  5
355
330
1F
100
AcDbEntity
  8
SLD-0
  6
SLD-DURCHGEHEND
 62
     7
100
AcDbSpline
210
0.0
220
0.0
230
1.0
 70
     8
 71
     3
 72
    19
 73
    15
 74
     0
 42
0.000000001
 43
0.00000001
 40
0.0
 40
0.0
 40
0.0
 40
0.0
 40
0.0933789322631536
 40
0.1816784234524896
 40
0.2655306173294002
 40
0.3456729645101135
 40
0.4242267260971047
 40
0.5019411122490922
 40
0.5800376096215046
 40
0.6583110939221227
 40
0.7385476981005997
 40
0.8218768365915731
 40
0.908791927506185
 40
1.0
 40
1.0
 40
1.0
 40
1.0
 10
204.7518036610664
 20
65.83145860740186
 30
0.0
 10
204.7470934777483
 20
65.81153117671579
 30
0.0
 10
204.737929326278
 20
65.7727602880071
 30
0.0
 10
204.7222453733825
 20
65.7164514562274
 30
0.0
 10
204.7056335562437
 20
65.66369887701121
 30
0.0
 10
204.6877637506617
 20
65.61435187142406
 30
0.0
 10
204.6688601281645
 20
65.56787972436732
 30
0.0
 10
204.6486411751563
 20
65.52413499867166
 30
0.0
 10
204.6274433225281
 20
65.48259856299121
 30
0.0
 10
204.6049591014061
 20
65.44366209110794
 30
0.0
 10
204.5812099648822
 20
65.4071082920956
 30
0.0
 10
204.5560496043254
 20
65.37267858142778
 30
0.0
 10
204.5293615907441
 20
65.34090416967103
 30
0.0
 10
204.511085581199
 20
65.32237133578356
 30
0.0
 10
204.5017273395668
 20
65.31288158709293
 30
0.0
  0
SPLINE
  5
356
330
1F
100
AcDbEntity
  8
SLD-0
  6
SLD-DURCHGEHEND
 62
     7
100
AcDbSpline
210
0.0
220
0.0
230
1.0
 70
     8
 71
     3
 72
    19
 73
    15
 74
     0
 42
0.000000001
 43
0.00000001
 40
0.0
 40
0.0
 40
0.0
 40
0.0
 40
0.0825855786813792
 40
0.1638656304704686
 40
0.2462419654968085
 40
0.328475433964209
 40
0.4087765823988802
 40
0.4856459212053344
 40
0.5595927718824172
 40
0.6306864370722273
 40
0.7057179164413462
 40
0.7915997423912753
 40
0.8898053567957775
 40
1.0
 40
1.0
 40
1.0
 40
1.0
 10
204.4934159630363
 20
65.42688893950326
 30
0.0
 10
204.5000528232212
 20
65.43359957351548
 30
0.0
 10
204.513221626975
 20
65.44691475869463
 30
0.0
 10
204.5328731878188
 20
65.47072010489583
 30
0.0
 10
204.5522516316863
 20
65.49684230759166
 30
0.0
 10
204.5711056789506
 20
65.52570355922869
 30
0.0
 10
204.5891333888871
 20
65.55566861161599
 30
0.0
 10
204.605968745285
 20
65.58656323337854
 30
0.0
 10
204.6214536611521
 20
65.61797835908114
 30
0.0
 10
204.6358987625056
 20
65.65089059023487
 30
0.0
 10
204.6498336915143
 20
65.68734109061744
 30
0.0
 10
204.6637013795833
 20
65.72944425610761
 30
0.0
 10
204.6784378262384
 20
65.77781599460077
 30
0.0
 10
204.6877899065792
 20
65.81245901657122
 30
0.0
 10
204.692734954
 20
65.8307770143
 30
0.0
  0
SPLINE
  5
357
330
1F
100
AcDbEntity
  8
SLD-0
  6
SLD-DURCHGEHEND
 62
     7
100
AcDbSpline
210
0.0
220
0.0
230
1.0
 70
     8
 71
     3
 72
    23
 73
    19
 74
     0
 42
0.000000001
 43
0.00000001
 40
0.0
 40
0.0
 40
0.0
 40
0.0
 40
0.0684003466196313
 40
0.1345065229349147
 40
0.1984366965883435
 40
0.2608134623948045
 40
0.3221034354366065
 40
0.3833255316859321
 40
0.4449555907183549
 40
0.5077149129426881
 40
0.5701565007621625
 40
0.6311229251954872
 40
0.6912878085150835
 40
0.7508878389482718
 40
0.8110060096695408
 40
0.872301482940765
 40
0.9349891416279057
 40
1.0
 40
1.0
 40
1.0
 40
1.0
 10
204.2958779310386
 20
65.60044236558265
 30
0.0
 10
204.2962041439409
 20
65.58765873556094
 30
0.0
 10
204.2968456284565
 20
65.56252024270692
 30
0.0
 10
204.2998291187574
 20
65.52772751331247
 30
0.0
 10
204.3045546727178
 20
65.49643993064197
 30
0.0
 10
204.3111233299522
 20
65.46890907319974
 30
0.0
 10
204.3193597483651
 20
65.44485235842181
 30
0.0
 10
204.3291320247163
 20
65.42391984489575
 30
0.0
 10
204.3408618549158
 20
65.40698587390577
 30
0.0
 10
204.3539234644937
 20
65.39307186720067
 30
0.0
 10
204.3684693528247
 20
65.38353389484857
 30
0.0
 10
204.3837667259578
 20
65.37720402198849
 30
0.0
 10
204.4000163651971
 20
65.37534341558458
 30
0.0
 10
204.4170544600057
 20
65.37737258175497
 30
0.0
 10
204.4349693710342
 20
65.38362053287024
 30
0.0
 10
204.4537359053206
 20
65.39419868602327
 30
0.0
 10
204.4732956836883
 20
65.40811988205024
 30
0.0
 10
204.4866283501961
 20
65.42055716382745
 30
0.0
 10
204.4934159630363
 20
65.42688893950326
 30
0.0
  0
SPLINE
  5
358
330
1F
100
AcDbEntity
  8
SLD-0
  6
SLD-DURCHGEHEND
 62
     7
100
AcDbSpline
210
0.0
220
0.0
230
1.0
 70
     8
 71
     3
 72
    15
 73
    11
 74
     0
 42
0.000000001
 43
0.00000001
 40
0.0
 40
0.0
 40
0.0
 40
0.0
 40
0.1310991074852454
 40
0.2591553732672511
 40
0.3841826613699394
 40
0.5072450190986146
 40
0.629077912821599
 40
0.7506555601572382
 40
0.8740320855016763
 40
1.0
 40
1.0
 40
1.0
 40
1.0
 10
204.5067733899709
 20
66.22497541355763
 30
0.0
 10
204.5001370311629
 20
66.21826207036335
 30
0.0
 10
204.4870183450251
 20
66.20499120227926
 30
0.0
 10
204.4676963754152
 20
66.18164756165156
 30
0.0
 10
204.4490587392797
 20
66.15615449739163
 30
0.0
 10
204.4311947847139
 20
66.12827094703272
 30
0.0
 10
204.4140641606626
 20
66.09841347841686
 30
0.0
 10
204.3975882696146
 20
66.06652167740532
 30
0.0
 10
204.3819654232053
 20
66.03203563173305
 30
0.0
 10
204.3721989332376
 20
66.00781991130705
 30
0.0
 10
204.367264937621
 20
65.99558621641472
 30
0.0
  0
SPLINE
  5
359
330
1F
100
AcDbEntity
  8
SLD-0
  6
SLD-DURCHGEHEND
 62
     7
100
AcDbSpline
210
0.0
220
0.0
230
1.0
 70
     8
 71
     3
 72
    19
 73
    15
 74
     0
 42
0.000000001
 43
0.00000001
 40
0.0
 40
0.0
 40
0.0
 40
0.0
 40
0.0962465801078454
 40
0.1847621654988761
 40
0.2672510442489457
 40
0.3441560607047082
 40
0.4197101844779604
 40
0.4966786859386282
 40
0.5767183147488709
 40
0.660353857478705
 40
0.7452884489360027
 40
0.8300839513433014
 40
0.9144415130412478
 40
1.0
 40
1.0
 40
1.0
 40
1.0
 10
204.7138098697881
 20
66.13047497347516
 30
0.0
 10
204.7113902583611
 20
66.14432328831703
 30
0.0
 10
204.7067453904975
 20
66.17090755381331
 30
0.0
 10
204.6967908463643
 20
66.20416639149646
 30
0.0
 10
204.6860998380383
 20
66.23236450826832
 30
0.0
 10
204.6729709848604
 20
66.25286440534758
 30
0.0
 10
204.6581131362591
 20
66.26779234145475
 30
0.0
 10
204.6408982352484
 20
66.27655337121537
 30
0.0
 10
204.6218950086201
 20
66.28145379354345
 30
0.0
 10
204.6007579790265
 20
66.28037036934899
 30
0.0
 10
204.5783040810674
 20
66.27451192831806
 30
0.0
 10
204.5549995029833
 20
66.26357441365161
 30
0.0
 10
204.531038165633
 20
66.2471284613953
 30
0.0
 10
204.514899669512
 20
66.23239447491319
 30
0.0
 10
204.5067733899709
 20
66.22497541355763
 30
0.0
  0
SPLINE
  5
35A
330
1F
100
AcDbEntity
  8
SLD-0
  6
SLD-DURCHGEHEND
 62
     7
100
AcDbSpline
210
0.0
220
0.0
230
1.0
 70
     8
 71
     3
 72
    15
 73
    11
 74
     0
 42
0.000000001
 43
0.00000001
 40
0.0
 40
0.0
 40
0.0
 40
0.0
 40
0.1099881983153781
 40
0.222589307186816
 40
0.3385132689194122
 40
0.4596958728817779
 40
0.5855189417853054
 40
0.7175065621879477
 40
0.8546610674070464
 40
1.0
 40
1.0
 40
1.0
 40
1.0
 10
204.367264937621
 20
65.99558621641472
 30
0.0
 10
204.3637307549968
 20
65.98626889502759
 30
0.0
 10
204.3565784307126
 20
65.9674129073474
 30
0.0
 10
204.3470317426413
 20
65.93762388990311
 30
0.0
 10
204.3378229583518
 20
65.9065486540498
 30
0.0
 10
204.3296396117005
 20
65.87389412815178
 30
0.0
 10
204.3218625555283
 20
65.83977133139355
 30
0.0
 10
204.3147756409432
 20
65.80426371257322
 30
0.0
 10
204.3083318900255
 20
65.76720473833687
 30
0.0
 10
204.3047146221835
 20
65.74222220777392
 30
0.0
 10
204.3028535883445
 20
65.729369044339
 30
0.0
  0
SPLINE
  5
35B
330
1F
100
AcDbEntity
  8
SLD-0
  6
SLD-DURCHGEHEND
 62
     7
100
AcDbSpline
210
0.0
220
0.0
230
1.0
 70
     8
 71
     3
 72
    19
 73
    15
 74
     0
 42
0.000000001
 43
0.00000001
 40
0.0
 40
0.0
 40
0.0
 40
0.0
 40
0.0859316353012352
 40
0.1696153800701755
 40
0.2525081845375798
 40
0.3362879861099486
 40
0.419796486365681
 40
0.5020538565398813
 40
0.5851301200390708
 40
0.6696053338340962
 40
0.7541530585556003
 40
0.8366371023340333
 40
0.917999116382483
 40
1.0
 40
1.0
 40
1.0
 40
1.0
 10
205.3884964914719
 20
67.08556419109388
 30
0.0
 10
205.3787775617808
 20
67.07544254460078
 30
0.0
 10
205.3595939404327
 20
67.05546402434054
 30
0.0
 10
205.3314282864983
 20
67.0181941269376
 30
0.0
 10
205.3044896705646
 20
66.97558787630639
 30
0.0
 10
205.2788218997645
 20
66.92835354106768
 30
0.0
 10
205.2551336147337
 20
66.8768188420934
 30
0.0
 10
205.233611706276
 20
66.82231024683836
 30
0.0
 10
205.2148395964025
 20
66.76498672278208
 30
0.0
 10
205.1989672493451
 20
66.70589070226981
 30
0.0
 10
205.1857902596553
 20
66.64656406602026
 30
0.0
 10
205.1766971133431
 20
66.58876212283812
 30
0.0
 10
205.1706574043702
 20
66.53280155608829
 30
0.0
 10
205.1700435117995
 20
66.4982353314274
 30
0.0
 10
205.1697353651275
 20
66.4808846293646
 30
0.0
  0
SPLINE
  5
35C
330
1F
100
AcDbEntity
  8
SLD-0
  6
SLD-DURCHGEHEND
 62
     7
100
AcDbSpline
210
0.0
220
0.0
230
1.0
 70
     8
 71
     3
 72
    19
 73
    15
 74
     0
 42
0.000000001
 43
0.00000001
 40
0.0
 40
0.0
 40
0.0
 40
0.0
 40
0.0816029563018766
 40
0.1628860565710326
 40
0.2452599711799502
 40
0.3305976512007716
 40
0.4160530886965685
 40
0.4997957006631235
 40
0.5829645219766723
 40
0.6670882457538491
 40
0.7512563580964831
 40
0.833327426405867
 40
0.9162425219057507
 40
0.9999999999999999
 40
0.9999999999999999
 40
0.9999999999999999
 40
0.9999999999999999
 10
205.1697353651275
 20
66.48088462936458
 30
0.0
 10
205.1701353775152
 20
66.464331171592
 30
0.0
 10
205.1709338343771
 20
66.43128914001146
 30
0.0
 10
205.1765115646196
 20
66.38659082645356
 30
0.0
 10
205.1863020978569
 20
66.34753914198174
 30
0.0
 10
205.1991908465232
 20
66.31305450318455
 30
0.0
 10
205.2153130447682
 20
66.28486090029169
 30
0.0
 10
205.2340481039317
 20
66.26342538351835
 30
0.0
 10
205.2556792188467
 20
66.25051902139163
 30
0.0
 10
205.279576093701
 20
66.24534858627176
 30
0.0
 10
205.3050721500837
 20
66.24731196902289
 30
0.0
 10
205.3318938099624
 20
66.25732408953758
 30
0.0
 10
205.3595735801992
 20
66.27413291790644
 30
0.0
 10
205.378427988264
 20
66.29130531423216
 30
0.0
 10
205.3879028384832
 20
66.29993490804033
 30
0.0
  0
SPLINE
  5
35D
330
1F
100
AcDbEntity
  8
SLD-0
  6
SLD-DURCHGEHEND
 62
     7
100
AcDbSpline
210
0.0
220
0.0
230
1.0
 70
     8
 71
     3
 72
    23
 73
    19
 74
     0
 42
0.000000001
 43
0.00000001
 40
0.0
 40
0.0
 40
0.0
 40
0.0
 40
0.0656289188354492
 40
0.1291784810189617
 40
0.1912044631851453
 40
0.2518940844507608
 40
0.3124842348504703
 40
0.3734666589599347
 40
0.4351192397198709
 40
0.4984087324490505
 40
0.5617577637546378
 40
0.6241941724705065
 40
0.6851039146656144
 40
0.7461156962495895
 40
0.8076259433578024
 40
0.8699762505581936
 40
0.9339559306300013
 40
1.0
 40
1.0
 40
1.0
 40
1.0
 10
205.6066639648276
 20
66.90379670949925
 30
0.0
 10
205.60646082185
 20
66.91733730529593
 30
0.0
 10
205.6060609721838
 20
66.94398948284426
 30
0.0
 10
205.6030063595141
 20
66.98071397302344
 30
0.0
 10
205.5981470997687
 20
67.01396847196835
 30
0.0
 10
205.5913006835802
 20
67.04361643430892
 30
0.0
 10
205.5823038689255
 20
67.06929162050129
 30
0.0
 10
205.5714643222404
 20
67.09156441237396
 30
0.0
 10
205.5585597082863
 20
67.10991178702727
 30
0.0
 10
205.5439827473782
 20
67.12467786552794
 30
0.0
 10
205.5278470328932
 20
67.13524173533877
 30
0.0
 10
205.5106887917722
 20
67.14168666635653
 30
0.0
 10
205.4925511939714
 20
67.1436105442188
 30
0.0
 10
205.4734469710691
 20
67.14067075409943
 30
0.0
 10
205.4535232651706
 20
67.13402031205548
 30
0.0
 10
205.4325891112582
 20
67.12203927849775
 30
0.0
 10
205.410855487336
 20
67.10664826587113
 30
0.0
 10
205.3960279623825
 20
67.09266621377985
 30
0.0
 10
205.3884964914719
 20
67.08556419109388
 30
0.0
  0
SPLINE
  5
35E
330
1F
100
AcDbEntity
  8
SLD-0
  6
SLD-DURCHGEHEND
 62
     7
100
AcDbSpline
210
0.0
220
0.0
230
1.0
 70
     8
 71
     3
 72
    19
 73
    15
 74
     0
 42
0.000000001
 43
0.00000001
 40
0.0
 40
0.0
 40
0.0
 40
0.0
 40
0.0848108644148095
 40
0.1682513946314713
 40
0.2526978084348679
 40
0.3383941380662107
 40
0.4232655920964674
 40
0.5057272230231882
 40
0.5863265449704909
 40
0.667654840499065
 40
0.7490264327974109
 40
0.830435452381033
 40
0.9134470560506098
 40
1.0
 40
1.0
 40
1.0
 40
1.0
 10
205.3879028384832
 20
66.29993490804034
 30
0.0
 10
205.3975227871513
 20
66.30996739378776
 30
0.0
 10
205.4166072498656
 20
66.32987026507992
 30
0.0
 10
205.4448702926022
 20
66.36730266024911
 30
0.0
 10
205.4722473320487
 20
66.41053938653133
 30
0.0
 10
205.4985154131713
 20
66.4586676119214
 30
0.0
 10
205.5229447820067
 20
66.51039327292824
 30
0.0
 10
205.5447684818476
 20
66.56448043268145
 30
0.0
 10
205.5636220594682
 20
66.62042884132731
 30
0.0
 10
205.579144873487
 20
66.67766215024723
 30
0.0
 10
205.5915473921833
 20
66.73539359410576
 30
0.0
 10
205.6003293162195
 20
66.79269823861554
 30
0.0
 10
205.6056631476106
 20
66.84945486074157
 30
0.0
 10
205.6063257463173
 20
66.88543229806906
 30
0.0
 10
205.6066639648276
 20
66.90379670949925
 30
0.0
  0
SPLINE
  5
35F
330
1F
100
AcDbEntity
  8
SLD-0
  6
SLD-DURCHGEHEND
 62
     7
100
AcDbSpline
210
0.0
220
0.0
230
1.0
 70
     8
 71
     3
 72
    19
 73
    15
 74
     0
 42
0.000000001
 43
0.00000001
 40
0.0
 40
0.0
 40
0.0
 40
0.0
 40
0.0816029563018766
 40
0.1628860565710326
 40
0.2452599711799502
 40
0.3305976512007716
 40
0.4160530886965685
 40
0.4997957006631235
 40
0.5829645219766723
 40
0.6670882457538491
 40
0.7512563580964831
 40
0.833327426405867
 40
0.9162425219057507
 40
0.9999999999999999
 40
0.9999999999999999
 40
0.9999999999999999
 40
0.9999999999999999
 10
206.8319637335522
 20
68.10327047491344
 30
0.0
 10
206.8323637459399
 20
68.08671701714087
 30
0.0
 10
206.8331622028018
 20
68.05367498556033
 30
0.0
 10
206.8387399330443
 20
68.00897667200245
 30
0.0
 10
206.8485304662816
 20
67.96992498753063
 30
0.0
 10
206.861419214948
 20
67.93544034873344
 30
0.0
 10
206.8775414131929
 20
67.90724674584058
 30
0.0
 10
206.8962764723563
 20
67.88581122906722
 30
0.0
 10
206.9179075872714
 20
67.87290486694046
 30
0.0
 10
206.9418044621257
 20
67.86773443182064
 30
0.0
 10
206.9673005185084
 20
67.86969781457175
 30
0.0
 10
206.9941221783871
 20
67.87970993508648
 30
0.0
 10
207.0218019486239
 20
67.89651876345533
 30
0.0
 10
207.0406563566886
 20
67.91369115978105
 30
0.0
 10
207.0501312069079
 20
67.92232075358922
 30
0.0
  0
SPLINE
  5
360
330
1F
100
AcDbEntity
  8
SLD-0
  6
SLD-DURCHGEHEND
 62
     7
100
AcDbSpline
210
0.0
220
0.0
230
1.0
 70
     8
 71
     3
 72
    19
 73
    15
 74
     0
 42
0.000000001
 43
0.00000001
 40
0.0
 40
0.0
 40
0.0
 40
0.0
 40
0.0859316353012353
 40
0.1696153800701756
 40
0.2525081845375814
 40
0.3362879861099481
 40
0.4197964863656806
 40
0.5020538565398809
 40
0.5851301200390705
 40
0.6696053338340958
 40
0.7541530585556001
 40
0.8366371023340331
 40
0.9179991163824828
 40
0.9999999999999999
 40
0.9999999999999999
 40
0.9999999999999999
 40
0.9999999999999999
 10
207.0507248598966
 20
68.70795003664276
 30
0.0
 10
207.0410059302055
 20
68.69782839014967
 30
0.0
 10
207.0218223088575
 20
68.6778498698894
 30
0.0
 10
206.993656654923
 20
68.64057997248649
 30
0.0
 10
206.9667180389894
 20
68.59797372185528
 30
0.0
 10
206.9410502681892
 20
68.55073938661656
 30
0.0
 10
206.9173619831584
 20
68.49920468764226
 30
0.0
 10
206.8958400747007
 20
68.44469609238722
 30
0.0
 10
206.8770679648272
 20
68.38737256833097
 30
0.0
 10
206.8611956177698
 20
68.32827654781869
 30
0.0
 10
206.84801862808
 20
68.26894991156915
 30
0.0
 10
206.8389254817679
 20
68.21114796838701
 30
0.0
 10
206.8328857727949
 20
68.15518740163718
 30
0.0
 10
206.8322718802242
 20
68.12062117697626
 30
0.0
 10
206.8319637335522
 20
68.10327047491346
 30
0.0
  0
SPLINE
  5
361
330
1F
100
AcDbEntity
  8
SLD-0
  6
SLD-DURCHGEHEND
 62
     7
100
AcDbSpline
210
0.0
220
0.0
230
1.0
 70
     8
 71
     3
 72
    23
 73
    19
 74
     0
 42
0.000000001
 43
0.00000001
 40
0.0
 40
0.0
 40
0.0
 40
0.0
 40
0.0656289188354492
 40
0.1291784810189617
 40
0.1912044631851453
 40
0.2518940844507608
 40
0.3124842348504703
 40
0.3734666589599347
 40
0.4351192397198709
 40
0.4984087324490505
 40
0.5617577637546378
 40
0.6241941724705065
 40
0.6851039146656144
 40
0.7461156962495895
 40
0.8076259433578024
 40
0.8699762505581936
 40
0.9339559306300013
 40
1.0
 40
1.0
 40
1.0
 40
1.0
 10
207.2688923332524
 20
68.52618255504814
 30
0.0
 10
207.2686891902747
 20
68.53972315084482
 30
0.0
 10
207.2682893406085
 20
68.56637532839314
 30
0.0
 10
207.2652347279387
 20
68.60309981857232
 30
0.0
 10
207.2603754681934
 20
68.63635431751725
 30
0.0
 10
207.253529052005
 20
68.66600227985779
 30
0.0
 10
207.2445322373502
 20
68.69167746605017
 30
0.0
 10
207.2336926906651
 20
68.71395025792283
 30
0.0
 10
207.220788076711
 20
68.73229763257615
 30
0.0
 10
207.2062111158028
 20
68.74706371107683
 30
0.0
 10
207.1900754013179
 20
68.75762758088763
 30
0.0
 10
207.1729171601969
 20
68.76407251190541
 30
0.0
 10
207.1547795623961
 20
68.7659963897677
 30
0.0
 10
207.1356753394938
 20
68.76305659964831
 30
0.0
 10
207.1157516335953
 20
68.75640615760436
 30
0.0
 10
207.0948174796828
 20
68.74442512404661
 30
0.0
 10
207.0730838557606
 20
68.72903411142
 30
0.0
 10
207.0582563308072
 20
68.71505205932876
 30
0.0
 10
207.0507248598966
 20
68.70795003664276
 30
0.0
  0
SPLINE
  5
362
330
1F
100
AcDbEntity
  8
SLD-0
  6
SLD-DURCHGEHEND
 62
     7
100
AcDbSpline
210
0.0
220
0.0
230
1.0
 70
     8
 71
     3
 72
    19
 73
    15
 74
     0
 42
0.000000001
 43
0.00000001
 40
0.0
 40
0.0
 40
0.0
 40
0.0
 40
0.0848108644148095
 40
0.1682513946314713
 40
0.2526978084348679
 40
0.3383941380662107
 40
0.4232655920964674
 40
0.5057272230231882
 40
0.5863265449704909
 40
0.667654840499065
 40
0.7490264327974109
 40
0.830435452381033
 40
0.9134470560506098
 40
1.0
 40
1.0
 40
1.0
 40
1.0
 10
207.0501312069079
 20
67.92232075358922
 30
0.0
 10
207.059751155576
 20
67.93235323933662
 30
0.0
 10
207.0788356182904
 20
67.95225611062877
 30
0.0
 10
207.107098661027
 20
67.989688505798
 30
0.0
 10
207.1344757004734
 20
68.0329252320802
 30
0.0
 10
207.160743781596
 20
68.08105345747028
 30
0.0
 10
207.1851731504314
 20
68.13277911847712
 30
0.0
 10
207.2069968502723
 20
68.18686627823034
 30
0.0
 10
207.2258504278929
 20
68.2428146868762
 30
0.0
 10
207.2413732419117
 20
68.30004799579612
 30
0.0
 10
207.253775760608
 20
68.35777943965464
 30
0.0
 10
207.2625576846442
 20
68.41508408416442
 30
0.0
 10
207.2678915160354
 20
68.47184070629046
 30
0.0
 10
207.268554114742
 20
68.50781814361795
 30
0.0
 10
207.2688923332524
 20
68.52618255504814
 30
0.0
  0
INSERT
  5
363
330
1F
100
AcDbEntity
  8
0
  6
CONTINUOUS
 62
     7
100
AcDbBlockReference
  2
SW_CENTERMARKSYMBOL_0
 10
151.2007958288
 20
157.0804610318
 30
0.0
  0
INSERT
  5
364
330
1F
100
AcDbEntity
  8
0
  6
CONTINUOUS
 62
     7
100
AcDbBlockReference
  2
SW_CENTERMARKSYMBOL_1
 10
205.7563940724
 20
157.0804610318
 30
0.0
  0
MTEXT
  5
366
330
1F
100
AcDbEntity
  8
SLD-0
 62
     7
100
AcDbMText
 10
280.2769372799
 20
19.3202132263
 30
0.0
 40
1.5
 41
0.0
 71
     1
 72
     1
  1
Blattformat
  7
SLDTEXTSTYLE0
  0
MTEXT
  5
367
330
1F
100
AcDbEntity
  8
SLD-0
 62
     7
100
AcDbMText
 10
162.3642408927
 20
25.762698748
 30
0.0
 40
1.5
 41
0.0
 71
     1
 72
     1
  1
Ch. Höfig
  7
SLDTEXTSTYLE0
  0
MTEXT
  5
368
330
1F
100
AcDbEntity
  8
SLD-0
 62
     7
100
AcDbMText
 10
166.7782811014
 20
32.0913340944
 30
0.0
 40
1.5
 41
0.0
 71
     2
 72
     1
  1
Name
  7
SLDTEXTSTYLE0
  0
MTEXT
  5
369
330
1F
100
AcDbEntity
  8
SLD-0
 62
     7
100
AcDbMText
 10
160.4458623088
 20
20.8738245678
 30
0.0
 40
1.5
 41
0.0
 71
     1
 72
     1
  1
Werkstoff:
  7
SLDTEXTSTYLE0
  0
MTEXT
  5
36A
330
1F
100
AcDbEntity
  8
SLD-0
 62
     7
100
AcDbMText
 10
204.8649859034
 20
32.1338697416
 30
0.0
 40
1.5
 41
0.0
 71
     1
 72
     1
  1
Artikelnummer
  7
SLDTEXTSTYLE0
  0
MTEXT
  5
36B
330
1F
100
AcDbEntity
  8
SLD-0
 62
     7
100
AcDbMText
 10
204.8739661175
 20
19.7564061056
 30
0.0
 40
1.5
 41
0.0
 71
     1
 72
     1
  1
Hersteller
  7
SLDTEXTSTYLE0
  0
MTEXT
  5
36C
330
1F
100
AcDbEntity
  8
SLD-0
 62
     7
100
AcDbMText
 10
204.8739661175
 20
7.7878555531
 30
0.0
 40
1.5
 41
0.0
 71
     1
 72
     1
  1
Massstab: 1:1
  7
SLDTEXTSTYLE0
  0
MTEXT
  5
36E
330
1F
100
AcDbEntity
  8
SLD-0
 62
     7
100
AcDbMText
 10
249.2782944278
 20
7.7878555531
 30
0.0
 40
1.5
 41
0.0
 71
     1
 72
     1
  1
Blatt 1 von 1
  7
SLDTEXTSTYLE1
  0
MTEXT
  5
36F
330
1F
100
AcDbEntity
  8
SLD-0
 62
     7
100
AcDbMText
 10
283.018201252
 20
13.9967329986
 30
0.0
 40
2.9104166667
 41
0.0
 71
     1
 72
     1
  1
A4
  7
SLDTEXTSTYLE0
  0
MTEXT
  5
370
330
1F
100
AcDbEntity
  8
SLD-0
 62
     7
100
AcDbMText
 10
244.8123655999
 20
17.8917906376
 30
0.0
 40
5.2916666667
 41
0.0
 71
     2
 72
     1
  1
Feldmann GmbH
  7
SLDTEXTSTYLE0
  0
MTEXT
  5
371
330
1F
100
AcDbEntity
  8
SLD-0
 62
     7
100
AcDbMText
 10
196.2569529745
 20
32.0913340944
 30
0.0
 40
1.5
 41
0.0
 71
     2
 72
     1
  1
Datum
  7
SLDTEXTSTYLE0
  0
MTEXT
  5
372
330
1F
100
AcDbEntity
  8
SLD-0
 62
     7
100
AcDbMText
 10
180.0267509503
 20
25.762698748
 30
0.0
 40
1.5
 41
0.0
 71
     1
 72
     1
  1
CH
  7
SLDTEXTSTYLE0
  0
MTEXT
  5
373
330
1F
100
AcDbEntity
  8
SLD-0
 62
     7
100
AcDbMText
 10
191.3972993064
 20
25.7647353615
 30
0.0
 40
1.5
 41
0.0
 71
     1
 72
     1
  1
26.05.2014
  7
SLDTEXTSTYLE0
  0
MTEXT
  5
374
330
1F
100
AcDbEntity
  8
SLD-0
 62
     7
100
AcDbMText
 10
181.5600635982
 20
7.800204648
 30
0.0
 40
1.5
 41
0.0
 71
     2
 72
     1
  1
Gewicht 0.005 kg
  7
SLDTEXTSTYLE0
  0
MTEXT
  5
375
330
1F
100
AcDbEntity
  8
SLD-0
 62
     7
100
AcDbMText
 10
181.5310022266
 20
15.4195522706
 30
0.0
 40
2.38125
 41
0.0
 71
     2
 72
     1
  1
EPDM 60 Durometer
  7
SLDTEXTSTYLE0
  0
MTEXT
  5
376
330
1F
100
AcDbEntity
  8
SLD-0
 62
     7
100
AcDbMText
 10
230.8788040405
 20
29.0594768169
 30
0.0
 40
4.2333333333
 41
0.0
 71
     2
 72
     1
  1
1411-GU
  7
SLDTEXTSTYLE0
  0
MTEXT
  5
377
330
1F
100
AcDbEntity
  8
SLD-0
 62
     7
100
AcDbMText
 10
181.7632714765
 20
31.9468072886
 30
0.0
 40
1.5
 41
0.0
 71
     2
 72
     1
  1
Signatur
  7
SLDTEXTSTYLE0
  0
ENDSEC
  0
SECTION
  2
OBJECTS
  0
DICTIONARY
  5
C
330
0
100
AcDbDictionary
  3
ACAD_GROUP
350
D
  3
ACAD_MLINESTYLE
350
17
  3
ACAD_SCALELIST
350
47
1001
ACAD
1000
TREAT_AS_HARD
1070
     0
  0
DICTIONARY
  5
D
102
{ACAD_REACTORS
330
C
102
}
330
C
100
AcDbDictionary
1001
ACAD
1000
TREAT_AS_HARD
1070
     0
  0
DICTIONARY
  5
17
102
{ACAD_REACTORS
330
C
102
}
330
C
100
AcDbDictionary
  3
STANDARD
350
18
1001
ACAD
1000
TREAT_AS_HARD
1070
     0
  0
DICTIONARY
  5
47
102
{ACAD_REACTORS
330
C
102
}
330
C
100
AcDbDictionary
1001
ACAD
1000
TREAT_AS_HARD
1070
     0
  0
MLINESTYLE
  5
18
102
{ACAD_REACTORS
330
17
102
}
330
17
100
AcDbMlineStyle
  2
Standard
 70
     0
  3

 62
   256
 51
90.0
 52
90.0
 71
     2
 49
0.5
 62
   256
  6
BYLAYER
 49
-0.5
 62
   256
  6
BYLAYER
  0
ENDSEC
  0
EOF
