  0
SECTION
  2
HEADER
  9
$ACADVER
  1
AC1012
  9
$DWGCODEPAGE
  3
ansi_1252
  9
$INSBASE
 10
0.0
 20
0.0
 30
0.0
  9
$EXTMIN
 10
0.0
 20
0.0
 30
0.0
  9
$EXTMAX
 10
594.0
 20
420.0
 30
0.0
  9
$LIMMIN
 10
0.0
 20
0.0
  9
$LIMMAX
 10
594.0
 20
420.0
  9
$ORTHOMODE
 70
     0
  9
$REGENMODE
 70
     1
  9
$FILLMODE
 70
     1
  9
$QTEXTMODE
 70
     0
  9
$MIRRTEXT
 70
     1
  9
$DRAGMODE
 70
     2
  9
$LTSCALE
 40
1.0
  9
$OSMODE
 70
    37
  9
$ATTMODE
 70
     1
  9
$TEXTSIZE
 40
7.0
  9
$TRACEWID
 40
1.0
  9
$TEXTSTYLE
  7
STANDARD
  9
$CLAYER
  8
0
  9
$CELTYPE
  6
BYLAYER
  9
$CECOLOR
 62
   256
  9
$CELTSCALE
 40
1.0
  9
$DELOBJ
 70
     1
  9
$DISPSILH
 70
     0
  9
$DIMSCALE
 40
1.0
  9
$DIMASZ
 40
6.604
  9
$DIMEXO
 40
2.0
  9
$DIMDLI
 40
3.75
  9
$DIMRND
 40
0.0
  9
$DIMDLE
 40
0.0
  9
$DIMEXE
 40
2.0
  9
$DIMTP
 40
0.0
  9
$DIMTM
 40
0.0
  9
$DIMTXT
 40
7.0
  9
$DIMCEN
 40
2.5
  9
$DIMTSZ
 40
0.0
  9
$DIMTOL
 70
     0
  9
$DIMLIM
 70
     0
  9
$DIMTIH
 70
     1
  9
$DIMTOH
 70
     1
  9
$DIMSE1
 70
     0
  9
$DIMSE2
 70
     0
  9
$DIMTAD
 70
     1
  9
$DIMZIN
 70
     1
  9
$DIMBLK
  1

  9
$DIMASO
 70
     1
  9
$DIMSHO
 70
     1
  9
$DIMPOST
  1

  9
$DIMAPOST
  1

  9
$DIMALT
 70
     0
  9
$DIMALTD
 70
     3
  9
$DIMALTF
 40
0.0393700787
  9
$DIMLFAC
 40
1.0
  9
$DIMTOFL
 70
     1
  9
$DIMTVP
 40
0.0
  9
$DIMTIX
 70
     0
  9
$DIMSOXD
 70
     0
  9
$DIMSAH
 70
     0
  9
$DIMBLK1
  1

  9
$DIMBLK2
  1

  9
$DIMSTYLE
  2
ISO-25
  9
$DIMCLRD
 70
     0
  9
$DIMCLRE
 70
     0
  9
$DIMCLRT
 70
     0
  9
$DIMTFAC
 40
1.0
  9
$DIMGAP
 40
3.048
  9
$DIMJUST
 70
     0
  9
$DIMSD1
 70
     0
  9
$DIMSD2
 70
     0
  9
$DIMTOLJ
 70
     0
  9
$DIMTZIN
 70
     1
  9
$DIMALTZ
 70
     0
  9
$DIMALTTZ
 70
     0
  9
$DIMFIT
 70
     3
  9
$DIMUPT
 70
     0
  9
$DIMUNIT
 70
     2
  9
$DIMDEC
 70
     2
  9
$DIMTDEC
 70
     2
  9
$DIMALTU
 70
     2
  9
$DIMALTTD
 70
     3
  9
$DIMTXSTY
  7
STANDARD
  9
$DIMAUNIT
 70
     0
  9
$LUNITS
 70
     2
  9
$LUPREC
 70
     2
  9
$SKETCHINC
 40
1.0
  9
$FILLETRAD
 40
10.0
  9
$AUNITS
 70
     0
  9
$AUPREC
 70
     2
  9
$MENU
  1
.
  9
$ELEVATION
 40
0.0
  9
$PELEVATION
 40
0.0
  9
$THICKNESS
 40
0.0
  9
$LIMCHECK
 70
     0
  9
$CHAMFERA
 40
0.0
  9
$CHAMFERB
 40
0.0
  9
$CHAMFERC
 40
0.0
  9
$CHAMFERD
 40
0.0
  9
$SKPOLY
 70
     0
  9
$TDCREATE
 40
2456813.576231759
  9
$TDUPDATE
 40
2456813.576232245
  9
$TDINDWG
 40
0.0000000116
  9
$TDUSRTIMER
 40
0.0000000116
  9
$USRTIMER
 70
     1
  9
$ANGBASE
 50
0.0
  9
$ANGDIR
 70
     0
  9
$PDMODE
 70
     0
  9
$PDSIZE
 40
-1.0
  9
$PLINEWID
 40
0.0
  9
$COORDS
 70
     1
  9
$SPLFRAME
 70
     0
  9
$SPLINETYPE
 70
     6
  9
$SPLINESEGS
 70
     8
  9
$ATTDIA
 70
     0
  9
$ATTREQ
 70
     1
  9
$HANDLING
 70
     1
  9
$HANDSEED
  5
1DF
  9
$SURFTAB1
 70
     6
  9
$SURFTAB2
 70
     6
  9
$SURFTYPE
 70
     6
  9
$SURFU
 70
     6
  9
$SURFV
 70
     6
  9
$UCSNAME
  2

  9
$UCSORG
 10
0.0
 20
0.0
 30
0.0
  9
$UCSXDIR
 10
1.0
 20
0.0
 30
0.0
  9
$UCSYDIR
 10
0.0
 20
1.0
 30
0.0
  9
$PUCSNAME
  2

  9
$PUCSORG
 10
0.0
 20
0.0
 30
0.0
  9
$PUCSXDIR
 10
1.0
 20
0.0
 30
0.0
  9
$PUCSYDIR
 10
0.0
 20
1.0
 30
0.0
  9
$USERI1
 70
     0
  9
$USERI2
 70
     0
  9
$USERI3
 70
     0
  9
$USERI4
 70
     0
  9
$USERI5
 70
     0
  9
$USERR1
 40
0.0
  9
$USERR2
 40
0.0
  9
$USERR3
 40
0.0
  9
$USERR4
 40
0.0
  9
$USERR5
 40
0.0
  9
$WORLDVIEW
 70
     1
  9
$SHADEDGE
 70
     3
  9
$SHADEDIF
 70
    70
  9
$TILEMODE
 70
     1
  9
$MAXACTVP
 70
    64
  9
$PINSBASE
 10
0.0
 20
0.0
 30
0.0
  9
$PLIMCHECK
 70
     0
  9
$PEXTMIN
 10
1.0000000000E+20
 20
1.0000000000E+20
 30
1.0000000000E+20
  9
$PEXTMAX
 10
-1.0000000000E+20
 20
-1.0000000000E+20
 30
-1.0000000000E+20
  9
$PLIMMIN
 10
0.0
 20
0.0
  9
$PLIMMAX
 10
420.0
 20
297.0
  9
$UNITMODE
 70
     0
  9
$VISRETAIN
 70
     1
  9
$PLINEGEN
 70
     0
  9
$PSLTSCALE
 70
     1
  9
$TREEDEPTH
 70
  3020
  9
$PICKSTYLE
 70
     1
  9
$CMLSTYLE
  2
STANDARD
  9
$CMLJUST
 70
     0
  9
$CMLSCALE
 40
20.0
  9
$SAVEIMAGES
 70
     1
  0
ENDSEC
  0
SECTION
  2
CLASSES
  0
CLASS
  1
ACDBDICTIONARYWDFLT
  2
AcDbDictionaryWithDefault
  3
ObjectDBX Classes
 90
    32768
280
     0
281
     0
  0
CLASS
  1
VISUALSTYLE
  2
AcDbVisualStyle
  3
ObjectDBX Classes
 90
     4095
280
     0
281
     0
  0
CLASS
  1
MATERIAL
  2
AcDbMaterial
  3
ObjectDBX Classes
 90
     1153
280
     0
281
     0
  0
CLASS
  1
SCALE
  2
AcDbScale
  3
ObjectDBX Classes
 90
     1153
280
     0
281
     0
  0
CLASS
  1
SUN
  2
AcDbSun
  3
SCENEOE
 90
     1153
280
     0
281
     0
  0
CLASS
  1
XRECORD
  2
AcDbXrecord
  3
ObjectDBX Classes
 90
    32768
280
     0
281
     0
  0
ENDSEC
  0
SECTION
  2
TABLES
  0
TABLE
  2
VPORT
  5
8
330
0
100
AcDbSymbolTable
 70
     1
  0
VPORT
  5
29
330
8
100
AcDbSymbolTableRecord
100
AcDbViewportTableRecord
  2
*ACTIVE
 70
     0
 10
0.0
 20
0.0
 11
1.0
 21
1.0
 12
297.0
 22
210.0
 13
0.0
 23
0.0
 14
10.0
 24
10.0
 15
10.0
 25
10.0
 16
0.0
 26
0.0
 36
1.0
 17
0.0
 27
0.0
 37
0.0
 40
420.0
 41
1.4142857143
 42
50.0
 43
0.0
 44
0.0
 50
0.0
 51
0.0
 71
     0
 72
  2000
 73
     1
 74
     3
 75
     0
 76
     0
 77
     0
 78
     0
  0
ENDTAB
  0
TABLE
  2
LTYPE
  5
5
330
0
100
AcDbSymbolTable
 70
     8
  0
LTYPE
  5
14
330
5
100
AcDbSymbolTableRecord
100
AcDbLinetypeTableRecord
  2
BYBLOCK
 70
     0
  3

 72
    65
 73
     0
 40
0.0
  0
LTYPE
  5
15
330
5
100
AcDbSymbolTableRecord
100
AcDbLinetypeTableRecord
  2
BYLAYER
 70
     0
  3

 72
    65
 73
     0
 40
0.0
  0
LTYPE
  5
16
330
5
100
AcDbSymbolTableRecord
100
AcDbLinetypeTableRecord
  2
CONTINUOUS
 70
     0
  3
Solid line
 72
    65
 73
     0
 40
0.0
  0
LTYPE
  5
6A
330
5
100
AcDbSymbolTableRecord
100
AcDbLinetypeTableRecord
  2
SLD-DURCHGEHEND
 70
     0
  3
SolidWorks Line Style
 72
    65
 73
     0
 40
0.0
  0
LTYPE
  5
6B
330
5
100
AcDbSymbolTableRecord
100
AcDbLinetypeTableRecord
  2
SLD-GESTRICHELT
 70
     0
  3
SolidWorks Line Style
 72
    65
 73
     2
 40
1.905
 49
1.27
 74
     0
 49
-0.635
 74
     0
  0
LTYPE
  5
6C
330
5
100
AcDbSymbolTableRecord
100
AcDbLinetypeTableRecord
  2
SLD-PHANTOM
 70
     0
  3
SolidWorks Line Style
 72
    65
 73
     6
 40
12.7
 49
6.35
 74
     0
 49
-1.27
 74
     0
 49
1.27
 74
     0
 49
-1.27
 74
     0
 49
1.27
 74
     0
 49
-1.27
 74
     0
  0
LTYPE
  5
6D
330
5
100
AcDbSymbolTableRecord
100
AcDbLinetypeTableRecord
  2
SLD-KETTE
 70
     0
  3
SolidWorks Line Style
 72
    65
 73
     4
 40
10.16
 49
6.35
 74
     0
 49
-1.27
 74
     0
 49
1.27
 74
     0
 49
-1.27
 74
     0
  0
LTYPE
  5
6E
330
5
100
AcDbSymbolTableRecord
100
AcDbLinetypeTableRecord
  2
SLD-PUNKTSTRICH
 70
     0
  3
SolidWorks Line Style
 72
    65
 73
     4
 40
19.05
 49
15.24
 74
     0
 49
-1.27
 74
     0
 49
1.27
 74
     0
 49
-1.27
 74
     0
  0
LTYPE
  5
6F
330
5
100
AcDbSymbolTableRecord
100
AcDbLinetypeTableRecord
  2
SLD-NAHT
 70
     0
  3
SolidWorks Line Style
 72
    65
 73
     2
 40
0.635
 49
0.0
 74
     0
 49
-0.635
 74
     0
  0
LTYPE
  5
70
330
5
100
AcDbSymbolTableRecord
100
AcDbLinetypeTableRecord
  2
SLD-DICKE-DÜNNE-KETTE
 70
     0
  3
SolidWorks Line Style
 72
    65
 73
     4
 40
10.16
 49
6.35
 74
     0
 49
-1.27
 74
     0
 49
1.27
 74
     0
 49
-1.27
 74
     0
  0
ENDTAB
  0
TABLE
  2
LAYER
  5
2
330
0
100
AcDbSymbolTable
 70
     3
  0
LAYER
  5
10
330
2
100
AcDbSymbolTableRecord
100
AcDbLayerTableRecord
  2
0
 70
     0
 62
     7
  6
CONTINUOUS
  0
LAYER
  5
71
330
2
100
AcDbSymbolTableRecord
100
AcDbLayerTableRecord
  2
FORMAT
 70
     0
 62
     7
  6
SLD-DURCHGEHEND
  0
LAYER
  5
72
330
2
100
AcDbSymbolTableRecord
100
AcDbLayerTableRecord
  2
SLD-0
 70
     0
 62
     7
  6
SLD-DURCHGEHEND
  0
ENDTAB
  0
TABLE
  2
STYLE
  5
3
330
0
100
AcDbSymbolTable
 70
     3
  0
STYLE
  5
11
330
3
100
AcDbSymbolTableRecord
100
AcDbTextStyleTableRecord
  2
STANDARD
 70
     0
 40
0.0
 41
1.0
 50
0.0
 71
     0
 42
7.0
  3
txt
  4

  0
STYLE
  5
1CC
330
3
100
AcDbSymbolTableRecord
100
AcDbTextStyleTableRecord
  2
SLDTEXTSTYLE0
 70
     0
 40
0.0
 41
0.75
 50
0.0
 71
     0
 42
7.0
  3
TXT
  4

  0
STYLE
  5
1D4
330
3
100
AcDbSymbolTableRecord
100
AcDbTextStyleTableRecord
  2
SLDTEXTSTYLE1
 70
     0
 40
0.0
 41
0.6923076923
 50
0.0
 71
     0
 42
7.0
  3
TXT
  4

  0
ENDTAB
  0
TABLE
  2
VIEW
  5
6
330
0
100
AcDbSymbolTable
 70
     0
  0
ENDTAB
  0
TABLE
  2
UCS
  5
7
330
0
100
AcDbSymbolTable
 70
     0
  0
ENDTAB
  0
TABLE
  2
APPID
  5
9
330
0
100
AcDbSymbolTable
 70
     1
  0
APPID
  5
12
330
9
100
AcDbSymbolTableRecord
100
AcDbRegAppTableRecord
  2
ACAD
 70
     0
  0
ENDTAB
  0
TABLE
  2
DIMSTYLE
  5
A
330
0
100
AcDbSymbolTable
 70
     1
  0
DIMSTYLE
105
27
330
A
100
AcDbSymbolTableRecord
100
AcDbDimStyleTableRecord
  2
ISO-25
 70
     0
  3

  4

  5

  6

  7

 40
1.0
 41
2.5
 42
0.625
 43
3.75
 44
1.25
 45
0.0
 46
0.0
 47
0.0
 48
0.0
140
2.5
141
2.5
142
0.0
143
0.0393700787
144
1.0
145
0.0
146
1.0
147
0.625
 71
     0
 72
     0
 73
     0
 74
     0
 75
     0
 76
     0
 77
     1
 78
     8
170
     0
171
     3
172
     1
173
     0
174
     0
175
     0
176
     0
177
     0
178
     0
270
     2
271
     2
272
     2
273
     2
274
     3
340
11
275
     0
280
     0
281
     0
282
     0
283
     0
284
     8
285
     0
286
     0
287
     3
288
     0
  0
ENDTAB
  0
TABLE
  2
BLOCK_RECORD
  5
1
330
0
100
AcDbSymbolTable
 70
     1
  0
BLOCK_RECORD
  5
1F
330
1
100
AcDbSymbolTableRecord
100
AcDbBlockTableRecord
  2
*MODEL_SPACE
  0
BLOCK_RECORD
  5
1B
330
1
100
AcDbSymbolTableRecord
100
AcDbBlockTableRecord
  2
*PAPER_SPACE
  0
BLOCK_RECORD
  5
23
330
1
100
AcDbSymbolTableRecord
100
AcDbBlockTableRecord
  2
*PAPER_SPACE0
  0
ENDTAB
  0
ENDSEC
  0
SECTION
  2
BLOCKS
  0
BLOCK
  5
20
330
1F
100
AcDbEntity
  8
0
100
AcDbBlockBegin
  2
*MODEL_SPACE
 70
     0
 10
0.0
 20
0.0
 30
0.0
  3
*MODEL_SPACE
  1

  0
ENDBLK
  5
21
330
1F
100
AcDbEntity
  8
0
100
AcDbBlockEnd
  0
BLOCK
  5
1C
330
1B
100
AcDbEntity
 67
     1
  8
0
100
AcDbBlockBegin
  2
*PAPER_SPACE
 70
     0
 10
0.0
 20
0.0
 30
0.0
  3
*PAPER_SPACE
  1

  0
ENDBLK
  5
1D
330
1B
100
AcDbEntity
 67
     1
  8
0
100
AcDbBlockEnd
  0
BLOCK
  5
24
330
23
100
AcDbEntity
  8
0
100
AcDbBlockBegin
  2
*PAPER_SPACE0
 70
     0
 10
0.0
 20
0.0
 30
0.0
  3
*PAPER_SPACE0
  1
*PAPER_SPACE0
  0
ENDBLK
  5
25
330
23
100
AcDbEntity
  8
0
100
AcDbBlockEnd
  0
ENDSEC
  0
SECTION
  2
ENTITIES
  0
LINE
  5
73
330
1F
100
AcDbEntity
  8
SLD-0
  6
SLD-DURCHGEHEND
 62
     7
100
AcDbLine
 10
584.0
 20
410.0
 30
0.0
 11
584.0
 21
10.0
 31
0.0
  0
LINE
  5
74
330
1F
100
AcDbEntity
  8
SLD-0
  6
SLD-DURCHGEHEND
 62
     7
100
AcDbLine
 10
318.8
 20
69.5
 30
0.0
 11
348.26
 21
69.5
 31
0.0
  0
LINE
  5
75
330
1F
100
AcDbEntity
  8
SLD-0
  6
SLD-DURCHGEHEND
 62
     7
100
AcDbLine
 10
407.2
 20
69.5
 30
0.0
 11
584.0
 21
69.5
 31
0.0
  0
LINE
  5
76
330
1F
100
AcDbEntity
  8
SLD-0
  6
SLD-DURCHGEHEND
 62
     7
100
AcDbLine
 10
318.8
 20
18.5
 30
0.0
 11
584.0
 21
18.5
 31
0.0
  0
LINE
  5
77
330
1F
100
AcDbEntity
  8
SLD-0
  6
SLD-DURCHGEHEND
 62
     7
100
AcDbLine
 10
318.8
 20
69.5
 30
0.0
 11
318.8
 21
56.75
 31
0.0
  0
LINE
  5
78
330
1F
100
AcDbEntity
  8
SLD-0
  6
SLD-DURCHGEHEND
 62
     7
100
AcDbLine
 10
584.0
 20
44.0
 30
0.0
 11
558.0
 21
44.0
 31
0.0
  0
LINE
  5
79
330
1F
100
AcDbEntity
  8
SLD-0
  6
SLD-DURCHGEHEND
 62
     7
100
AcDbLine
 10
377.72
 20
44.0
 30
0.0
 11
407.2
 21
44.0
 31
0.0
  0
LINE
  5
7A
330
1F
100
AcDbEntity
  8
SLD-0
  6
SLD-DURCHGEHEND
 62
     7
100
AcDbLine
 10
407.2
 20
69.5
 30
0.0
 11
407.2
 21
10.0
 31
0.0
  0
LINE
  5
7B
330
1F
100
AcDbEntity
  8
SLD-0
  6
SLD-DURCHGEHEND
 62
     7
100
AcDbLine
 10
495.6
 20
10.0
 30
0.0
 11
495.6
 21
18.5
 31
0.0
  0
LINE
  5
7C
330
1F
100
AcDbEntity
  8
SLD-0
  6
SLD-DURCHGEHEND
 62
     7
100
AcDbLine
 10
348.26
 20
69.5
 30
0.0
 11
377.72
 21
69.5
 31
0.0
  0
LINE
  5
7D
330
1F
100
AcDbEntity
  8
SLD-0
  6
SLD-DURCHGEHEND
 62
     7
100
AcDbLine
 10
558.0
 20
18.5
 30
0.0
 11
558.0
 21
30.9899387204
 31
0.0
  0
LINE
  5
7E
330
1F
100
AcDbEntity
  8
SLD-0
  6
SLD-DURCHGEHEND
 62
     7
100
AcDbLine
 10
377.72
 20
69.5
 30
0.0
 11
407.2
 21
69.5
 31
0.0
  0
LINE
  5
7F
330
1F
100
AcDbEntity
  8
SLD-0
  6
SLD-DURCHGEHEND
 62
     7
100
AcDbLine
 10
584.0
 20
30.9899387204
 30
0.0
 11
558.0
 21
30.9899387204
 31
0.0
  0
LINE
  5
80
330
1F
100
AcDbEntity
  8
SLD-0
  6
SLD-DURCHGEHEND
 62
     7
100
AcDbLine
 10
407.2
 20
44.0
 30
0.0
 11
558.0
 21
44.0
 31
0.0
  0
LINE
  5
81
330
1F
100
AcDbEntity
  8
SLD-0
  6
SLD-DURCHGEHEND
 62
     7
100
AcDbLine
 10
377.72
 20
69.5
 30
0.0
 11
377.72
 21
44.0
 31
0.0
  0
LINE
  5
82
330
1F
100
AcDbEntity
  8
SLD-0
  6
SLD-DURCHGEHEND
 62
     7
100
AcDbLine
 10
377.72
 20
44.0
 30
0.0
 11
348.26
 21
44.0
 31
0.0
  0
LINE
  5
83
330
1F
100
AcDbEntity
  8
SLD-0
  6
SLD-DURCHGEHEND
 62
     7
100
AcDbLine
 10
584.0
 20
410.0
 30
0.0
 11
10.0
 21
410.0
 31
0.0
  0
LINE
  5
84
330
1F
100
AcDbEntity
  8
SLD-0
  6
SLD-DURCHGEHEND
 62
     7
100
AcDbLine
 10
10.0
 20
410.0
 30
0.0
 11
10.0
 21
10.0
 31
0.0
  0
LINE
  5
85
330
1F
100
AcDbEntity
  8
SLD-0
  6
SLD-DURCHGEHEND
 62
     7
100
AcDbLine
 10
10.0
 20
10.0
 30
0.0
 11
584.0
 21
10.0
 31
0.0
  0
LINE
  5
86
330
1F
100
AcDbEntity
  8
SLD-0
  6
SLD-DURCHGEHEND
 62
     7
100
AcDbLine
 10
348.26
 20
44.0
 30
0.0
 11
348.26
 21
69.5
 31
0.0
  0
LINE
  5
87
330
1F
100
AcDbEntity
  8
SLD-0
  6
SLD-DURCHGEHEND
 62
     7
100
AcDbLine
 10
348.26
 20
44.0
 30
0.0
 11
318.8
 21
44.0
 31
0.0
  0
LINE
  5
88
330
1F
100
AcDbEntity
  8
SLD-0
  6
SLD-DURCHGEHEND
 62
     7
100
AcDbLine
 10
558.0
 20
30.9899387204
 30
0.0
 11
558.0
 21
44.0
 31
0.0
  0
LINE
  5
89
330
1F
100
AcDbEntity
  8
SLD-0
  6
SLD-DURCHGEHEND
 62
     7
100
AcDbLine
 10
318.8
 20
56.75
 30
0.0
 11
348.26
 21
56.75
 31
0.0
  0
LINE
  5
8A
330
1F
100
AcDbEntity
  8
SLD-0
  6
SLD-DURCHGEHEND
 62
     7
100
AcDbLine
 10
348.26
 20
56.75
 30
0.0
 11
377.72
 21
56.75
 31
0.0
  0
LINE
  5
8B
330
1F
100
AcDbEntity
  8
SLD-0
  6
SLD-DURCHGEHEND
 62
     7
100
AcDbLine
 10
377.72
 20
56.75
 30
0.0
 11
407.2
 21
56.75
 31
0.0
  0
LINE
  5
8C
330
1F
100
AcDbEntity
  8
SLD-0
  6
SLD-DURCHGEHEND
 62
     7
100
AcDbLine
 10
318.8
 20
44.0
 30
0.0
 11
318.8
 21
56.75
 31
0.0
  0
LINE
  5
8D
330
1F
100
AcDbEntity
  8
SLD-0
  6
SLD-DURCHGEHEND
 62
     7
100
AcDbLine
 10
318.8
 20
44.0
 30
0.0
 11
318.8
 21
18.5
 31
0.0
  0
LINE
  5
8E
330
1F
100
AcDbEntity
  8
SLD-0
  6
SLD-DURCHGEHEND
 62
     7
100
AcDbLine
 10
318.8
 20
10.0
 30
0.0
 11
318.8
 21
18.5
 31
0.0
  0
LINE
  5
8F
330
1F
100
AcDbEntity
  8
SLD-0
  6
SLD-DURCHGEHEND
 62
     7
100
AcDbLine
 10
176.8420689784
 20
305.9936745268
 30
0.0
 11
198.356719238
 21
306.1129111742
 31
0.0
  0
LINE
  5
90
330
1F
100
AcDbEntity
  8
SLD-0
  6
SLD-DURCHGEHEND
 62
     7
100
AcDbLine
 10
164.1884531677
 20
305.9235467437
 30
0.0
 11
170.9029405613
 21
305.9607591991
 31
0.0
  0
LINE
  5
91
330
1F
100
AcDbEntity
  8
SLD-0
  6
SLD-DURCHGEHEND
 62
     7
100
AcDbLine
 10
238.4726304273
 20
305.9732611788
 30
0.0
 11
245.2195812039
 21
305.938480902
 31
0.0
  0
LINE
  5
92
330
1F
100
AcDbEntity
  8
SLD-0
  6
SLD-DURCHGEHEND
 62
     7
100
AcDbLine
 10
210.9601240822
 20
306.1150871108
 30
0.0
 11
232.5217792052
 21
306.0039375922
 31
0.0
  0
LINE
  5
93
330
1F
100
AcDbEntity
  8
SLD-0
  6
SLD-DURCHGEHEND
 62
     7
100
AcDbLine
 10
162.9502812366
 20
310.6559952804
 30
0.0
 11
162.1602250324
 21
307.100500403
 31
0.0
  0
LINE
  5
94
330
1F
100
AcDbEntity
  8
SLD-0
  6
SLD-DURCHGEHEND
 62
     7
100
AcDbLine
 10
247.1907136426
 20
307.0913070918
 30
0.0
 11
246.4144556406
 21
310.6512591874
 31
0.0
  0
LINE
  5
95
330
1F
100
AcDbEntity
  8
SLD-0
  6
SLD-DURCHGEHEND
 62
     7
100
AcDbLine
 10
204.5752876259
 20
309.6433056584
 30
0.0
 11
168.4427108642
 21
309.4430547937
 31
0.0
  0
LINE
  5
96
330
1F
100
AcDbEntity
  8
SLD-0
  6
SLD-DURCHGEHEND
 62
     7
100
AcDbLine
 10
204.5837950819
 20
313.088504639
 30
0.0
 11
204.5752876259
 21
309.6433056584
 31
0.0
  0
LINE
  5
97
330
1F
100
AcDbEntity
  8
SLD-0
  6
SLD-DURCHGEHEND
 62
     7
100
AcDbLine
 10
169.2091919797
 20
312.892454551
 30
0.0
 11
168.4427108642
 21
309.4430547937
 31
0.0
  0
LINE
  5
98
330
1F
100
AcDbEntity
  8
SLD-0
  6
SLD-DURCHGEHEND
 62
     7
100
AcDbLine
 10
204.5837950819
 20
313.088504639
 30
0.0
 11
169.2091919797
 21
312.892454551
 31
0.0
  0
LINE
  5
99
330
1F
100
AcDbEntity
  8
SLD-0
  6
SLD-DURCHGEHEND
 62
     7
100
AcDbLine
 10
204.5752876259
 20
309.6433056584
 30
0.0
 11
240.8329741503
 21
309.4563986524
 31
0.0
  0
LINE
  5
9A
330
1F
100
AcDbEntity
  8
SLD-0
  6
SLD-DURCHGEHEND
 62
     7
100
AcDbLine
 10
204.5837950819
 20
313.088504639
 30
0.0
 11
240.0808834479
 21
312.905518488
 31
0.0
  0
LINE
  5
9B
330
1F
100
AcDbEntity
  8
SLD-0
  6
SLD-DURCHGEHEND
 62
     7
100
AcDbLine
 10
240.8329741503
 20
309.4563986524
 30
0.0
 11
240.0808834479
 21
312.905518488
 31
0.0
  0
LINE
  5
9C
330
1F
100
AcDbEntity
  8
SLD-0
  6
SLD-DURCHGEHEND
 62
     7
100
AcDbLine
 10
371.8594041658
 20
305.9747290166
 30
0.0
 11
374.6053975624
 21
305.9401444866
 31
0.0
  0
LINE
  5
9D
330
1F
100
AcDbEntity
  8
SLD-0
  6
SLD-DURCHGEHEND
 62
     7
100
AcDbLine
 10
360.5853272372
 20
306.1167208548
 30
0.0
 11
369.4005004124
 21
306.0056977838
 31
0.0
  0
LINE
  5
9E
330
1F
100
AcDbEntity
  8
SLD-0
  6
SLD-DURCHGEHEND
 62
     7
100
AcDbLine
 10
383.2175297576
 20
308.865893559
 30
0.0
 11
381.4255174692
 21
312.3641274878
 31
0.0
  0
LINE
  5
9F
330
1F
100
AcDbEntity
  8
SLD-0
  6
SLD-DURCHGEHEND
 62
     7
100
AcDbLine
 10
372.1262187098
 20
305.9624233716
 30
0.0
 11
374.9285765156
 21
305.9253630946
 31
0.0
  0
LINE
  5
A0
330
1F
100
AcDbEntity
  8
SLD-0
  6
SLD-DURCHGEHEND
 62
     7
100
AcDbLine
 10
360.6114960838
 20
306.1147018598
 30
0.0
 11
369.6179481988
 21
305.995594439
 31
0.0
  0
LINE
  5
A1
330
1F
100
AcDbEntity
  8
SLD-0
  6
SLD-DURCHGEHEND
 62
     7
100
AcDbLine
 10
383.4734688188
 20
308.8428946118
 30
0.0
 11
381.6878751686
 21
312.3406860848
 31
0.0
  0
LINE
  5
A2
330
1F
100
AcDbEntity
  8
SLD-0
  6
SLD-DURCHGEHEND
 62
     7
100
AcDbLine
 10
344.4445678607
 20
309.6433056587
 30
0.0
 11
359.2848853592
 21
309.4563986524
 31
0.0
  0
LINE
  5
A3
330
1F
100
AcDbEntity
  8
SLD-0
  6
SLD-DURCHGEHEND
 62
     7
100
AcDbLine
 10
374.103664907
 20
309.9551814678
 30
0.0
 11
372.0169428956
 21
306.128712954
 31
0.0
  0
LINE
  5
A4
330
1F
100
AcDbEntity
  8
SLD-0
  6
SLD-DURCHGEHEND
 62
     7
100
AcDbLine
 10
359.2848853592
 20
309.4563986524
 30
0.0
 11
361.1658244692
 21
312.905518488
 31
0.0
  0
LINE
  5
A5
330
1F
100
AcDbEntity
  8
SLD-0
  6
SLD-DURCHGEHEND
 62
     7
100
AcDbLine
 10
369.3993228518
 20
312.7945774101
 30
0.0
 11
380.6284002746
 21
312.6531523198
 31
0.0
  0
LINE
  5
A6
330
1F
100
AcDbEntity
  8
SLD-0
  6
SLD-DURCHGEHEND
 62
     7
100
AcDbLine
 10
346.6368207704
 20
313.088504639
 30
0.0
 11
361.1658244692
 21
312.905518488
 31
0.0
  0
LINE
  5
A7
330
1F
100
AcDbEntity
  8
SLD-0
  6
SLD-DURCHGEHEND
 62
     7
100
AcDbLine
 10
377.1817920458
 20
306.0617416958
 30
0.0
 11
375.1945770646
 21
309.9410358929
 31
0.0
  0
LINE
  5
A8
330
1F
100
AcDbEntity
  8
SLD-0
  6
SLD-DURCHGEHEND
 62
     7
100
AcDbLine
 10
346.6368207704
 20
313.088504639
 30
0.0
 11
344.4445678607
 21
309.6433056587
 31
0.0
  0
LINE
  5
A9
330
1F
100
AcDbEntity
  8
SLD-0
  6
SLD-DURCHGEHEND
 62
     7
100
AcDbLine
 10
488.8082586976
 20
305.995594439
 30
0.0
 11
497.8147108126
 21
306.1147018598
 31
0.0
  0
LINE
  5
AA
330
1F
100
AcDbEntity
  8
SLD-0
  6
SLD-DURCHGEHEND
 62
     7
100
AcDbLine
 10
483.497630381
 20
305.9253630946
 30
0.0
 11
486.2999881868
 21
305.9624233716
 31
0.0
  0
LINE
  5
AB
330
1F
100
AcDbEntity
  8
SLD-0
  6
SLD-DURCHGEHEND
 62
     7
100
AcDbLine
 10
476.7383317278
 20
312.3406860848
 30
0.0
 11
474.9527380778
 21
308.8428946118
 31
0.0
  0
LINE
  5
AC
330
1F
100
AcDbEntity
  8
SLD-0
  6
SLD-DURCHGEHEND
 62
     7
100
AcDbLine
 10
513.9816390357
 20
309.6433056584
 30
0.0
 11
498.8394269807
 21
309.4430547937
 31
0.0
  0
LINE
  5
AD
330
1F
100
AcDbEntity
  8
SLD-0
  6
SLD-DURCHGEHEND
 62
     7
100
AcDbLine
 10
511.7893861261
 20
313.088504639
 30
0.0
 11
496.9648208849
 21
312.892454551
 31
0.0
  0
LINE
  5
AE
330
1F
100
AcDbEntity
  8
SLD-0
  6
SLD-DURCHGEHEND
 62
     7
100
AcDbLine
 10
489.0268840446
 20
312.79457741
 30
0.0
 11
477.5693750301
 21
312.6430555533
 31
0.0
  0
LINE
  5
AF
330
1F
100
AcDbEntity
  8
SLD-0
  6
SLD-DURCHGEHEND
 62
     7
100
AcDbLine
 10
491.7787635273
 20
311.594986659
 30
0.0
 11
491.7775747966
 21
311.6009404628
 31
0.0
  0
LINE
  5
B0
330
1F
100
AcDbEntity
  8
SLD-0
  6
SLD-DURCHGEHEND
 62
     7
100
AcDbLine
 10
486.0613023696
 20
306.1133329124
 30
0.0
 11
483.9816062317
 21
309.9401119725
 31
0.0
  0
LINE
  5
B1
330
1F
100
AcDbEntity
  8
SLD-0
  6
SLD-DURCHGEHEND
 62
     7
100
AcDbLine
 10
496.9648208849
 20
312.892454551
 30
0.0
 11
498.8394269807
 21
309.4430547937
 31
0.0
  0
LINE
  5
B2
330
1F
100
AcDbEntity
  8
SLD-0
  6
SLD-DURCHGEHEND
 62
     7
100
AcDbLine
 10
482.8944568277
 20
309.926132713
 30
0.0
 11
480.91426772
 21
306.0471490622
 31
0.0
  0
LINE
  5
B3
330
1F
100
AcDbEntity
  8
SLD-0
  6
SLD-DURCHGEHEND
 62
     7
100
AcDbLine
 10
511.7893861261
 20
313.088504639
 30
0.0
 11
513.9816390357
 21
309.6433056584
 31
0.0
  0
LINE
  5
B4
330
1F
100
AcDbEntity
  8
SLD-0
  6
SLD-DURCHGEHEND
 62
     7
100
AcDbLine
 10
489.0268840446
 20
312.79457741
 30
0.0
 11
477.797806622
 21
312.65315232
 31
0.0
  0
LINE
  5
B5
330
1F
100
AcDbEntity
  8
SLD-0
  6
SLD-DURCHGEHEND
 62
     7
100
AcDbLine
 10
477.7374737148
 20
312.645278604
 30
0.0
 11
477.797806622
 21
312.65315232
 31
0.0
  0
LINE
  5
B6
330
1F
100
AcDbEntity
  8
SLD-0
  6
SLD-DURCHGEHEND
 62
     7
100
AcDbLine
 10
497.2603824273
 20
312.905518488
 30
0.0
 11
497.1223771159
 21
312.8945381814
 31
0.0
  0
LINE
  5
B7
330
1F
100
AcDbEntity
  8
SLD-0
  6
SLD-DURCHGEHEND
 62
     7
100
AcDbLine
 10
511.7893861261
 20
313.088504639
 30
0.0
 11
497.2603824273
 21
312.905518488
 31
0.0
  0
LINE
  5
B8
330
1F
100
AcDbEntity
  8
SLD-0
  6
SLD-DURCHGEHEND
 62
     8
100
AcDbLine
 10
477.797806622
 20
312.65315232
 30
0.0
 11
477.794157219
 21
312.6460282252
 31
0.0
  0
LINE
  5
B9
330
1F
100
AcDbEntity
  8
SLD-0
  6
SLD-DURCHGEHEND
 62
     7
100
AcDbLine
 10
236.9646456456
 20
241.9469660958
 30
0.0
 11
243.6791330392
 21
241.9097536402
 31
0.0
  0
LINE
  5
BA
330
1F
100
AcDbEntity
  8
SLD-0
  6
SLD-DURCHGEHEND
 62
     7
100
AcDbLine
 10
209.5108669688
 20
242.0991180708
 30
0.0
 11
231.0255172284
 21
241.9798814234
 31
0.0
  0
LINE
  5
BB
330
1F
100
AcDbEntity
  8
SLD-0
  6
SLD-DURCHGEHEND
 62
     7
100
AcDbLine
 10
175.3458070016
 20
241.9901444888
 30
0.0
 11
196.9074621246
 21
242.1012940074
 31
0.0
  0
LINE
  5
BC
330
1F
100
AcDbEntity
  8
SLD-0
  6
SLD-DURCHGEHEND
 62
     7
100
AcDbLine
 10
162.648005003
 20
241.9246877986
 30
0.0
 11
169.3949557796
 21
241.9594680752
 31
0.0
  0
LINE
  5
BD
330
1F
100
AcDbEntity
  8
SLD-0
  6
SLD-DURCHGEHEND
 62
     7
100
AcDbLine
 10
161.4531305664
 20
246.637466084
 30
0.0
 11
160.6768725644
 21
243.0775139882
 31
0.0
  0
LINE
  5
BE
330
1F
100
AcDbEntity
  8
SLD-0
  6
SLD-DURCHGEHEND
 62
     7
100
AcDbLine
 10
245.707357609
 20
243.0867233458
 30
0.0
 11
244.917304746
 21
246.6422031866
 31
0.0
  0
LINE
  5
BF
330
1F
100
AcDbEntity
  8
SLD-0
  6
SLD-DURCHGEHEND
 62
     7
100
AcDbLine
 10
203.1793950284
 20
245.280127358
 30
0.0
 11
229.7615036804
 21
245.1328062778
 31
0.0
  0
LINE
  5
C0
330
1F
100
AcDbEntity
  8
SLD-0
  6
SLD-DURCHGEHEND
 62
     7
100
AcDbLine
 10
203.2837911252
 20
249.0747115356
 30
0.0
 11
238.6583942274
 21
248.8786614476
 31
0.0
  0
LINE
  5
C1
330
1F
100
AcDbEntity
  8
SLD-0
  6
SLD-DURCHGEHEND
 62
     7
100
AcDbLine
 10
203.1888087714
 20
248.7807843066
 30
0.0
 11
230.5288910829
 21
248.6292624498
 31
0.0
  0
LINE
  5
C2
330
1F
100
AcDbEntity
  8
SLD-0
  6
SLD-DURCHGEHEND
 62
     7
100
AcDbLine
 10
203.1793950284
 20
245.280127358
 30
0.0
 11
203.1888087714
 21
248.7807843066
 31
0.0
  0
LINE
  5
C3
330
1F
100
AcDbEntity
  8
SLD-0
  6
SLD-DURCHGEHEND
 62
     7
100
AcDbLine
 10
229.7615036804
 20
245.1328062778
 30
0.0
 11
230.5288910829
 21
248.6292624498
 31
0.0
  0
LINE
  5
C4
330
1F
100
AcDbEntity
  8
SLD-0
  6
SLD-DURCHGEHEND
 62
     7
100
AcDbLine
 10
163.5719964104
 20
242.0479485925
 30
0.0
 11
162.7386291602
 21
245.9272427896
 31
0.0
  0
LINE
  5
C5
330
1F
100
AcDbEntity
  8
SLD-0
  6
SLD-DURCHGEHEND
 62
     7
100
AcDbLine
 10
175.7540608835
 20
248.6393592165
 30
0.0
 11
176.5052452988
 21
245.1426231228
 31
0.0
  0
LINE
  5
C6
330
1F
100
AcDbEntity
  8
SLD-0
  6
SLD-DURCHGEHEND
 62
     7
100
AcDbLine
 10
203.1793950284
 20
245.280127358
 30
0.0
 11
176.5052452988
 21
245.1426231228
 31
0.0
  0
LINE
  5
C7
330
1F
100
AcDbEntity
  8
SLD-0
  6
SLD-DURCHGEHEND
 62
     7
100
AcDbLine
 10
243.5881907296
 20
245.9123396095
 30
0.0
 11
242.736847815
 21
242.0333559587
 31
0.0
  0
LINE
  5
C8
330
1F
100
AcDbEntity
  8
SLD-0
  6
SLD-DURCHGEHEND
 62
     7
100
AcDbLine
 10
203.1888087714
 20
248.7807843066
 30
0.0
 11
175.7540608835
 21
248.6393592165
 31
0.0
  0
LINE
  5
C9
330
1F
100
AcDbEntity
  8
SLD-0
  6
SLD-DURCHGEHEND
 62
     7
100
AcDbLine
 10
203.2837911252
 20
249.0747115356
 30
0.0
 11
167.7867027591
 21
248.8917253846
 31
0.0
  0
LINE
  5
CA
330
1F
100
AcDbEntity
  8
SLD-0
  6
SLD-DURCHGEHEND
 62
     7
100
AcDbLine
 10
244.8942013857
 20
242.0995398091
 30
0.0
 11
244.04386391
 21
245.9263188691
 31
0.0
  0
LINE
  5
CB
330
1F
100
AcDbEntity
  8
SLD-0
  6
SLD-DURCHGEHEND
 62
     7
100
AcDbLine
 10
162.2920444978
 20
245.9413883644
 30
0.0
 11
161.4576718087
 21
242.1149198506
 31
0.0
  0
LINE
  5
CC
330
1F
100
AcDbEntity
  8
SLD-0
  6
SLD-DURCHGEHEND
 62
     7
100
AcDbLine
 10
535.7644043582
 20
233.6205279588
 30
0.0
 11
536.5957494788
 21
235.6029210486
 31
0.0
  0
LINE
  5
CD
330
1F
100
AcDbEntity
  8
SLD-0
  6
SLD-DURCHGEHEND
 62
     7
100
AcDbLine
 10
537.1237706852
 20
236.8926461244
 30
0.0
 11
537.9566183596
 21
238.9755541544
 31
0.0
  0
LINE
  5
CE
330
1F
100
AcDbEntity
  8
SLD-0
  6
SLD-DURCHGEHEND
 62
     7
100
AcDbLine
 10
496.1971566959
 20
239.3974286887
 30
0.0
 11
469.6150480437
 21
228.2575664881
 31
0.0
  0
LINE
  5
CF
330
1F
100
AcDbEntity
  8
SLD-0
  6
SLD-DURCHGEHEND
 62
     7
100
AcDbLine
 10
456.639703909
 20
233.3873711681
 30
0.0
 11
456.3707707326
 21
234.0298906584
 31
0.0
  0
LINE
  5
D0
330
1F
100
AcDbEntity
  8
SLD-0
  6
SLD-DURCHGEHEND
 62
     7
100
AcDbLine
 10
456.3707707326
 20
234.0298906584
 30
0.0
 11
456.1012118992
 21
234.6736472936
 31
0.0
  0
LINE
  5
D1
330
1F
100
AcDbEntity
  8
SLD-0
  6
SLD-DURCHGEHEND
 62
     7
100
AcDbLine
 10
456.1012118992
 20
234.6736472936
 30
0.0
 11
455.8312348494
 21
235.3181456674
 31
0.0
  0
LINE
  5
D2
330
1F
100
AcDbEntity
  8
SLD-0
  6
SLD-DURCHGEHEND
 62
     7
100
AcDbLine
 10
455.8312348494
 20
235.3181456674
 30
0.0
 11
455.5610473454
 21
235.9628898026
 31
0.0
  0
LINE
  5
D3
330
1F
100
AcDbEntity
  8
SLD-0
  6
SLD-DURCHGEHEND
 62
     7
100
AcDbLine
 10
455.5610473454
 20
235.9628898026
 30
0.0
 11
455.290857311
 21
236.6073835336
 31
0.0
  0
LINE
  5
D4
330
1F
100
AcDbEntity
  8
SLD-0
  6
SLD-DURCHGEHEND
 62
     7
100
AcDbLine
 10
455.290857311
 20
236.6073835336
 30
0.0
 11
455.0208726728
 21
237.2511308864
 31
0.0
  0
LINE
  5
D5
330
1F
100
AcDbEntity
  8
SLD-0
  6
SLD-DURCHGEHEND
 62
     7
100
AcDbLine
 10
455.0208726728
 20
237.2511308864
 30
0.0
 11
454.7513011984
 21
237.8936364622
 31
0.0
  0
LINE
  5
D6
330
1F
100
AcDbEntity
  8
SLD-0
  6
SLD-DURCHGEHEND
 62
     7
100
AcDbLine
 10
454.7513011984
 20
237.8936364622
 30
0.0
 11
454.4823503384
 21
238.5344058176
 31
0.0
  0
LINE
  5
D7
330
1F
100
AcDbEntity
  8
SLD-0
  6
SLD-DURCHGEHEND
 62
     7
100
AcDbLine
 10
496.0842531432
 20
266.4547424837
 30
0.0
 11
459.9516763814
 21
251.3125304287
 31
0.0
  0
LINE
  5
D8
330
1F
100
AcDbEntity
  8
SLD-0
  6
SLD-DURCHGEHEND
 62
     7
100
AcDbLine
 10
454.4823503384
 20
238.5344058176
 30
0.0
 11
455.332687814
 21
236.4547096798
 31
0.0
  0
LINE
  5
D9
330
1F
100
AcDbEntity
  8
SLD-0
  6
SLD-DURCHGEHEND
 62
     7
100
AcDbLine
 10
455.332687814
 20
236.4547096798
 30
0.0
 11
455.2923871678
 21
236.5603501648
 31
0.0
  0
LINE
  5
DA
330
1F
100
AcDbEntity
  8
SLD-0
  6
SLD-DURCHGEHEND
 62
     7
100
AcDbLine
 10
535.8045553138
 20
233.7175182987
 30
0.0
 11
536.6379225641
 21
235.7047332799
 31
0.0
  0
LINE
  5
DB
330
1F
100
AcDbEntity
  8
SLD-0
  6
SLD-DURCHGEHEND
 62
     7
100
AcDbLine
 10
536.6379225641
 20
235.7047332799
 30
0.0
 11
536.5929047661
 21
235.6041932251
 31
0.0
  0
LINE
  5
DC
330
1F
100
AcDbEntity
  8
SLD-0
  6
SLD-DURCHGEHEND
 62
     7
100
AcDbLine
 10
496.0842531432
 20
266.4547424837
 30
0.0
 11
532.3419396674
 21
251.6144249853
 31
0.0
  0
LINE
  5
DD
330
1F
100
AcDbEntity
  8
SLD-0
  6
SLD-DURCHGEHEND
 62
     7
100
AcDbLine
 10
537.9188799155
 20
238.882367449
 30
0.0
 11
537.6553108565
 21
238.2393772855
 31
0.0
  0
LINE
  5
DE
330
1F
100
AcDbEntity
  8
SLD-0
  6
SLD-DURCHGEHEND
 62
     7
100
AcDbLine
 10
537.6553108565
 20
238.2393772855
 30
0.0
 11
537.3911285691
 21
237.5946457563
 31
0.0
  0
LINE
  5
DF
330
1F
100
AcDbEntity
  8
SLD-0
  6
SLD-DURCHGEHEND
 62
     7
100
AcDbLine
 10
537.3911285691
 20
237.5946457563
 30
0.0
 11
537.1265363563
 21
236.9486690173
 31
0.0
  0
LINE
  5
E0
330
1F
100
AcDbEntity
  8
SLD-0
  6
SLD-DURCHGEHEND
 62
     7
100
AcDbLine
 10
537.1265363563
 20
236.9486690173
 30
0.0
 11
536.8617378363
 21
236.3019441835
 31
0.0
  0
LINE
  5
E1
330
1F
100
AcDbEntity
  8
SLD-0
  6
SLD-DURCHGEHEND
 62
     7
100
AcDbLine
 10
536.8617378363
 20
236.3019441835
 30
0.0
 11
536.5969367861
 21
235.6549689453
 31
0.0
  0
LINE
  5
E2
330
1F
100
AcDbEntity
  8
SLD-0
  6
SLD-DURCHGEHEND
 62
     7
100
AcDbLine
 10
536.5969367861
 20
235.6549689453
 30
0.0
 11
536.3323369849
 21
235.0082411855
 31
0.0
  0
LINE
  5
E3
330
1F
100
AcDbEntity
  8
SLD-0
  6
SLD-DURCHGEHEND
 62
     7
100
AcDbLine
 10
536.3323369849
 20
235.0082411855
 30
0.0
 11
536.0681420565
 21
234.3622585969
 31
0.0
  0
LINE
  5
E4
330
1F
100
AcDbEntity
  8
SLD-0
  6
SLD-DURCHGEHEND
 62
     7
100
AcDbLine
 10
536.0681420565
 20
234.3622585969
 30
0.0
 11
535.8045553138
 21
233.7175182987
 31
0.0
  0
LINE
  5
E5
330
1F
100
AcDbEntity
  8
SLD-0
  6
SLD-DURCHGEHEND
 62
     7
100
AcDbLine
 10
496.1971566959
 20
239.3974286887
 30
0.0
 11
522.8713064254
 21
228.4796650657
 31
0.0
  0
LINE
  5
E6
330
1F
100
AcDbEntity
  8
SLD-0
  6
SLD-DURCHGEHEND
 62
     7
100
AcDbLine
 10
455.332687814
 20
236.4547096798
 30
0.0
 11
455.3896377944
 21
236.3188852884
 31
0.0
  0
LINE
  5
E7
330
1F
100
AcDbEntity
  8
SLD-0
  6
SLD-DURCHGEHEND
 62
     7
100
AcDbLine
 10
455.3896377944
 20
236.3188852884
 30
0.0
 11
455.4465958996
 21
236.183027968
 31
0.0
  0
LINE
  5
E8
330
1F
100
AcDbEntity
  8
SLD-0
  6
SLD-DURCHGEHEND
 62
     7
100
AcDbLine
 10
455.4465958996
 20
236.183027968
 30
0.0
 11
455.503559377
 21
236.047144284
 31
0.0
  0
LINE
  5
E9
330
1F
100
AcDbEntity
  8
SLD-0
  6
SLD-DURCHGEHEND
 62
     7
100
AcDbLine
 10
455.503559377
 20
236.047144284
 30
0.0
 11
455.5605254736
 21
235.9112408032
 31
0.0
  0
LINE
  5
EA
330
1F
100
AcDbEntity
  8
SLD-0
  6
SLD-DURCHGEHEND
 62
     7
100
AcDbLine
 10
455.5605254736
 20
235.9112408032
 30
0.0
 11
455.6174914366
 21
235.7753240934
 31
0.0
  0
LINE
  5
EB
330
1F
100
AcDbEntity
  8
SLD-0
  6
SLD-DURCHGEHEND
 62
     7
100
AcDbLine
 10
455.6174914366
 20
235.7753240934
 30
0.0
 11
455.6744545128
 21
235.639400723
 31
0.0
  0
LINE
  5
EC
330
1F
100
AcDbEntity
  8
SLD-0
  6
SLD-DURCHGEHEND
 62
     7
100
AcDbLine
 10
455.6744545128
 20
235.639400723
 30
0.0
 11
455.7314119498
 21
235.503477261
 31
0.0
  0
LINE
  5
ED
330
1F
100
AcDbEntity
  8
SLD-0
  6
SLD-DURCHGEHEND
 62
     7
100
AcDbLine
 10
455.7314119498
 20
235.503477261
 30
0.0
 11
455.7883609946
 21
235.3675602758
 31
0.0
  0
LINE
  5
EE
330
1F
100
AcDbEntity
  8
SLD-0
  6
SLD-DURCHGEHEND
 62
     7
100
AcDbLine
 10
537.0845072263
 20
236.7956454375
 30
0.0
 11
537.9188799155
 21
238.882367449
 31
0.0
  0
LINE
  5
EF
330
1F
100
AcDbEntity
  8
SLD-0
  6
SLD-DURCHGEHEND
 62
     7
100
AcDbLine
 10
536.6379225641
 20
235.7047332799
 30
0.0
 11
536.6937366719
 21
235.8411205297
 31
0.0
  0
LINE
  5
F0
330
1F
100
AcDbEntity
  8
SLD-0
  6
SLD-DURCHGEHEND
 62
     7
100
AcDbLine
 10
536.6937366719
 20
235.8411205297
 30
0.0
 11
536.7495587397
 21
235.9775143245
 31
0.0
  0
LINE
  5
F1
330
1F
100
AcDbEntity
  8
SLD-0
  6
SLD-DURCHGEHEND
 62
     7
100
AcDbLine
 10
536.7495587397
 20
235.9775143245
 30
0.0
 11
536.8053860699
 21
236.1139080731
 31
0.0
  0
LINE
  5
F2
330
1F
100
AcDbEntity
  8
SLD-0
  6
SLD-DURCHGEHEND
 62
     7
100
AcDbLine
 10
536.8053860699
 20
236.1139080731
 30
0.0
 11
536.8612159645
 21
236.2502951841
 31
0.0
  0
LINE
  5
F3
330
1F
100
AcDbEntity
  8
SLD-0
  6
SLD-DURCHGEHEND
 62
     7
100
AcDbLine
 10
536.8612159645
 20
236.2502951841
 30
0.0
 11
536.9170457255
 21
236.3866690659
 31
0.0
  0
LINE
  5
F4
330
1F
100
AcDbEntity
  8
SLD-0
  6
SLD-DURCHGEHEND
 62
     7
100
AcDbLine
 10
536.9170457255
 20
236.3866690659
 30
0.0
 11
536.9728726547
 21
236.5230231283
 31
0.0
  0
LINE
  5
F5
330
1F
100
AcDbEntity
  8
SLD-0
  6
SLD-DURCHGEHEND
 62
     7
100
AcDbLine
 10
536.9728726547
 20
236.5230231283
 30
0.0
 11
537.0286940543
 21
236.6593507815
 31
0.0
  0
LINE
  5
F6
330
1F
100
AcDbEntity
  8
SLD-0
  6
SLD-DURCHGEHEND
 62
     7
100
AcDbLine
 10
537.0286940543
 20
236.6593507815
 30
0.0
 11
537.0845072263
 21
236.7956454375
 31
0.0
  0
LINE
  5
F7
330
1F
100
AcDbEntity
  8
SLD-0
  6
SLD-DURCHGEHEND
 62
     7
100
AcDbLine
 10
537.1185174875
 20
236.8944659777
 30
0.0
 11
537.0845072263
 21
236.7956454375
 31
0.0
  0
LINE
  5
F8
330
1F
100
AcDbEntity
  8
SLD-0
  6
SLD-DURCHGEHEND
 62
     7
100
AcDbLine
 10
320.3684742754
 20
244.5011861508
 30
0.0
 11
319.5194951626
 21
242.4248122024
 31
0.0
  0
LINE
  5
F9
330
1F
100
AcDbEntity
  8
SLD-0
  6
SLD-DURCHGEHEND
 62
     7
100
AcDbLine
 10
403.035377675
 20
242.0834094946
 30
0.0
 11
402.2025909758
 21
244.166165029
 31
0.0
  0
LINE
  5
FA
330
1F
100
AcDbEntity
  8
SLD-0
  6
SLD-DURCHGEHEND
 62
     7
100
AcDbLine
 10
401.6743419508
 20
245.456456583
 30
0.0
 11
400.8430237606
 21
247.4387854556
 31
0.0
  0
LINE
  5
FB
330
1F
100
AcDbEntity
  8
SLD-0
  6
SLD-DURCHGEHEND
 62
     7
100
AcDbLine
 10
321.7624762528
 20
247.7760360192
 30
0.0
 11
320.9127158986
 21
245.7995278824
 31
0.0
  0
LINE
  5
FC
330
1F
100
AcDbEntity
  8
SLD-0
  6
SLD-DURCHGEHEND
 62
     7
100
AcDbLine
 10
361.1713812886
 20
216.7968207704
 30
0.0
 11
325.7967781864
 21
231.6213860116
 31
0.0
  0
LINE
  5
FD
330
1F
100
AcDbEntity
  8
SLD-0
  6
SLD-DURCHGEHEND
 62
     7
100
AcDbLine
 10
320.4113085037
 20
244.6046006648
 30
0.0
 11
320.468258484
 21
244.7404250562
 31
0.0
  0
LINE
  5
FE
330
1F
100
AcDbEntity
  8
SLD-0
  6
SLD-DURCHGEHEND
 62
     7
100
AcDbLine
 10
320.468258484
 20
244.7404250562
 30
0.0
 11
320.5252165892
 21
244.8762823766
 31
0.0
  0
LINE
  5
FF
330
1F
100
AcDbEntity
  8
SLD-0
  6
SLD-DURCHGEHEND
 62
     7
100
AcDbLine
 10
320.5252165892
 20
244.8762823766
 30
0.0
 11
320.5821800666
 21
245.0121660608
 31
0.0
  0
LINE
  5
100
330
1F
100
AcDbEntity
  8
SLD-0
  6
SLD-DURCHGEHEND
 62
     7
100
AcDbLine
 10
320.5821800666
 20
245.0121660608
 30
0.0
 11
320.6391461632
 21
245.1480695416
 31
0.0
  0
LINE
  5
101
330
1F
100
AcDbEntity
  8
SLD-0
  6
SLD-DURCHGEHEND
 62
     7
100
AcDbLine
 10
320.6391461632
 20
245.1480695416
 30
0.0
 11
320.6961121262
 21
245.2839862512
 31
0.0
  0
LINE
  5
102
330
1F
100
AcDbEntity
  8
SLD-0
  6
SLD-DURCHGEHEND
 62
     7
100
AcDbLine
 10
320.6961121262
 20
245.2839862512
 30
0.0
 11
320.7530752026
 21
245.4199096216
 31
0.0
  0
LINE
  5
103
330
1F
100
AcDbEntity
  8
SLD-0
  6
SLD-DURCHGEHEND
 62
     7
100
AcDbLine
 10
320.7530752026
 20
245.4199096216
 30
0.0
 11
320.8100326394
 21
245.5558330836
 31
0.0
  0
LINE
  5
104
330
1F
100
AcDbEntity
  8
SLD-0
  6
SLD-DURCHGEHEND
 62
     7
100
AcDbLine
 10
320.8100326394
 20
245.5558330836
 30
0.0
 11
320.8669816842
 21
245.6917500688
 31
0.0
  0
LINE
  5
105
330
1F
100
AcDbEntity
  8
SLD-0
  6
SLD-DURCHGEHEND
 62
     7
100
AcDbLine
 10
361.2663636424
 20
239.559322852
 30
0.0
 11
333.9262813309
 21
251.0168318664
 31
0.0
  0
LINE
  5
106
330
1F
100
AcDbEntity
  8
SLD-0
  6
SLD-DURCHGEHEND
 62
     7
100
AcDbLine
 10
361.2663636424
 20
239.559322852
 30
0.0
 11
388.7011115304
 21
250.7884002746
 31
0.0
  0
LINE
  5
107
330
1F
100
AcDbEntity
  8
SLD-0
  6
SLD-DURCHGEHEND
 62
     7
100
AcDbLine
 10
401.7165432537
 20
245.3545770647
 30
0.0
 11
401.7723573614
 21
245.218189815
 31
0.0
  0
LINE
  5
108
330
1F
100
AcDbEntity
  8
SLD-0
  6
SLD-DURCHGEHEND
 62
     7
100
AcDbLine
 10
401.7723573614
 20
245.218189815
 30
0.0
 11
401.8281794292
 21
245.08179602
 31
0.0
  0
LINE
  5
109
330
1F
100
AcDbEntity
  8
SLD-0
  6
SLD-DURCHGEHEND
 62
     7
100
AcDbLine
 10
401.8281794292
 20
245.08179602
 30
0.0
 11
401.8840067594
 21
244.9454022714
 31
0.0
  0
LINE
  5
10A
330
1F
100
AcDbEntity
  8
SLD-0
  6
SLD-DURCHGEHEND
 62
     7
100
AcDbLine
 10
401.8840067594
 20
244.9454022714
 30
0.0
 11
401.939836654
 21
244.8090151606
 31
0.0
  0
LINE
  5
10B
330
1F
100
AcDbEntity
  8
SLD-0
  6
SLD-DURCHGEHEND
 62
     7
100
AcDbLine
 10
401.939836654
 20
244.8090151606
 30
0.0
 11
401.995666415
 21
244.6726412786
 31
0.0
  0
LINE
  5
10C
330
1F
100
AcDbEntity
  8
SLD-0
  6
SLD-DURCHGEHEND
 62
     7
100
AcDbLine
 10
401.995666415
 20
244.6726412786
 30
0.0
 11
402.0514933442
 21
244.5362872164
 31
0.0
  0
LINE
  5
10D
330
1F
100
AcDbEntity
  8
SLD-0
  6
SLD-DURCHGEHEND
 62
     7
100
AcDbLine
 10
402.0514933442
 20
244.5362872164
 30
0.0
 11
402.1073147438
 21
244.399959563
 31
0.0
  0
LINE
  5
10E
330
1F
100
AcDbEntity
  8
SLD-0
  6
SLD-DURCHGEHEND
 62
     7
100
AcDbLine
 10
402.1073147438
 20
244.399959563
 30
0.0
 11
402.1631279159
 21
244.263664907
 31
0.0
  0
LINE
  5
10F
330
1F
100
AcDbEntity
  8
SLD-0
  6
SLD-DURCHGEHEND
 62
     7
100
AcDbLine
 10
361.1713812886
 20
216.7968207704
 30
0.0
 11
396.6684696546
 21
231.3258244692
 31
0.0
  0
LINE
  5
110
330
1F
100
AcDbEntity
  8
SLD-0
  6
SLD-DURCHGEHEND
 62
     7
100
AcDbLine
 10
325.7967781864
 20
231.6213860116
 30
0.0
 11
325.030297071
 21
229.7467799159
 31
0.0
  0
LINE
  5
111
330
1F
100
AcDbEntity
  8
SLD-0
  6
SLD-DURCHGEHEND
 62
     7
100
AcDbLine
 10
397.420560357
 20
229.4448853593
 30
0.0
 11
396.6684696546
 21
231.3258244692
 31
0.0
  0
LINE
  5
112
330
1F
100
AcDbEntity
  8
SLD-0
  6
SLD-DURCHGEHEND
 62
     7
100
AcDbLine
 10
388.7011115304
 20
250.7884002746
 30
0.0
 11
387.949927115
 21
252.5796452789
 31
0.0
  0
LINE
  5
113
330
1F
100
AcDbEntity
  8
SLD-0
  6
SLD-DURCHGEHEND
 62
     7
100
AcDbLine
 10
334.6936687333
 20
252.8017438564
 30
0.0
 11
333.9262813309
 21
251.0168318664
 31
0.0
  0
LINE
  5
114
330
1F
100
AcDbEntity
  8
SLD-0
  6
SLD-DURCHGEHEND
 62
     7
100
AcDbLine
 10
361.1713812886
 20
216.7968207704
 30
0.0
 11
361.1628738328
 21
214.6045678608
 31
0.0
  0
LINE
  5
115
330
1F
100
AcDbEntity
  8
SLD-0
  6
SLD-DURCHGEHEND
 62
     7
100
AcDbLine
 10
361.1628738328
 20
214.6045678608
 30
0.0
 11
325.030297071
 21
229.7467799159
 31
0.0
  0
LINE
  5
116
330
1F
100
AcDbEntity
  8
SLD-0
  6
SLD-DURCHGEHEND
 62
     7
100
AcDbLine
 10
361.1628738328
 20
214.6045678608
 30
0.0
 11
397.420560357
 21
229.4448853593
 31
0.0
  0
LINE
  5
117
330
1F
100
AcDbEntity
  8
SLD-0
  6
SLD-DURCHGEHEND
 62
     7
100
AcDbLine
 10
361.2757773854
 20
241.6618816558
 30
0.0
 11
361.2663636424
 21
239.559322852
 31
0.0
  0
LINE
  5
118
330
1F
100
AcDbEntity
  8
SLD-0
  6
SLD-DURCHGEHEND
 62
     7
100
AcDbLine
 10
361.2757773854
 20
241.6618816558
 30
0.0
 11
334.6936687333
 21
252.8017438564
 31
0.0
  0
LINE
  5
119
330
1F
100
AcDbEntity
  8
SLD-0
  6
SLD-DURCHGEHEND
 62
     7
100
AcDbLine
 10
361.2757773854
 20
241.6618816558
 30
0.0
 11
387.949927115
 21
252.5796452789
 31
0.0
  0
LINE
  5
11A
330
1F
100
AcDbEntity
  8
SLD-0
  6
SLD-DURCHGEHEND
 62
     7
100
AcDbLine
 10
249.2482997918
 20
116.3783462414
 30
0.0
 11
249.0642935864
 21
118.5237406358
 31
0.0
  0
LINE
  5
11B
330
1F
100
AcDbEntity
  8
SLD-0
  6
SLD-DURCHGEHEND
 62
     7
100
AcDbLine
 10
173.0490152132
 20
134.6759570418
 30
0.0
 11
171.4798319668
 21
131.011224376
 31
0.0
  0
LINE
  5
11C
330
1F
100
AcDbEntity
  8
SLD-0
  6
SLD-DURCHGEHEND
 62
     7
100
AcDbLine
 10
248.9065346243
 20
116.9219834125
 30
0.0
 11
248.6706054101
 21
112.4909843166
 31
0.0
  0
LINE
  5
11D
330
1F
100
AcDbEntity
  8
SLD-0
  6
SLD-DURCHGEHEND
 62
     7
100
AcDbLine
 10
237.7962658474
 20
110.8843070337
 30
0.0
 11
238.0089288105
 21
114.8783414333
 31
0.0
  0
LINE
  5
11E
330
1F
100
AcDbEntity
  8
SLD-0
  6
SLD-DURCHGEHEND
 62
     7
100
AcDbLine
 10
199.8340415608
 20
116.9493885374
 30
0.0
 11
198.8034030884
 21
112.9997305836
 31
0.0
  0
LINE
  5
11F
330
1F
100
AcDbEntity
  8
SLD-0
  6
SLD-DURCHGEHEND
 62
     7
100
AcDbLine
 10
199.8340415608
 20
116.9493885374
 30
0.0
 11
238.0089288105
 21
114.8783414333
 31
0.0
  0
LINE
  5
120
330
1F
100
AcDbEntity
  8
SLD-0
  6
SLD-DURCHGEHEND
 62
     7
100
AcDbLine
 10
198.8034030884
 20
112.9997305836
 30
0.0
 11
237.7962658474
 21
110.8843070337
 31
0.0
  0
LINE
  5
121
330
1F
100
AcDbEntity
  8
SLD-0
  6
SLD-DURCHGEHEND
 62
     7
100
AcDbLine
 10
210.5412004381
 20
127.043137925
 30
0.0
 11
240.0455472882
 21
125.4424811451
 31
0.0
  0
LINE
  5
122
330
1F
100
AcDbEntity
  8
SLD-0
  6
SLD-DURCHGEHEND
 62
     7
100
AcDbLine
 10
198.8034030884
 20
112.9997305836
 30
0.0
 11
173.9138979618
 21
128.410535205
 31
0.0
  0
LINE
  5
123
330
1F
100
AcDbEntity
  8
SLD-0
  6
SLD-DURCHGEHEND
 62
     7
100
AcDbLine
 10
175.466657771
 20
132.0369119258
 30
0.0
 11
173.9138979618
 21
128.410535205
 31
0.0
  0
LINE
  5
124
330
1F
100
AcDbEntity
  8
SLD-0
  6
SLD-DURCHGEHEND
 62
     7
100
AcDbLine
 10
199.8340415608
 20
116.9493885374
 30
0.0
 11
175.466657771
 21
132.0369119258
 31
0.0
  0
LINE
  5
125
330
1F
100
AcDbEntity
  8
SLD-0
  6
SLD-DURCHGEHEND
 62
     7
100
AcDbLine
 10
210.5412004381
 20
127.043137925
 30
0.0
 11
191.7083028185
 21
138.7038802415
 31
0.0
  0
LINE
  5
126
330
1F
100
AcDbEntity
  8
SLD-0
  6
SLD-DURCHGEHEND
 62
     7
100
AcDbLine
 10
213.819516635
 20
119.5252383937
 30
0.0
 11
213.7935769128
 21
119.8791959835
 31
0.0
  0
LINE
  5
127
330
1F
100
AcDbEntity
  8
SLD-0
  6
SLD-DURCHGEHEND
 62
     7
100
AcDbLine
 10
213.7935769128
 20
119.8791959835
 30
0.0
 11
213.7023597638
 21
120.2580246329
 31
0.0
  0
LINE
  5
128
330
1F
100
AcDbEntity
  8
SLD-0
  6
SLD-DURCHGEHEND
 62
     7
100
AcDbLine
 10
213.7023597638
 20
120.2580246329
 30
0.0
 11
213.5462041226
 21
120.6317347805
 31
0.0
  0
LINE
  5
129
330
1F
100
AcDbEntity
  8
SLD-0
  6
SLD-DURCHGEHEND
 62
     7
100
AcDbLine
 10
213.5462041226
 20
120.6317347805
 30
0.0
 11
213.3262984278
 21
120.9974822665
 31
0.0
  0
LINE
  5
12A
330
1F
100
AcDbEntity
  8
SLD-0
  6
SLD-DURCHGEHEND
 62
     7
100
AcDbLine
 10
213.3262984278
 20
120.9974822665
 30
0.0
 11
213.0443162948
 21
121.3524835317
 31
0.0
  0
LINE
  5
12B
330
1F
100
AcDbEntity
  8
SLD-0
  6
SLD-DURCHGEHEND
 62
     7
100
AcDbLine
 10
213.0443162948
 20
121.3524835317
 30
0.0
 11
212.7024037776
 21
121.6940368019
 31
0.0
  0
LINE
  5
12C
330
1F
100
AcDbEntity
  8
SLD-0
  6
SLD-DURCHGEHEND
 62
     7
100
AcDbLine
 10
212.7024037776
 20
121.6940368019
 30
0.0
 11
212.3031630372
 21
122.0195426509
 31
0.0
  0
LINE
  5
12D
330
1F
100
AcDbEntity
  8
SLD-0
  6
SLD-DURCHGEHEND
 62
     7
100
AcDbLine
 10
212.3031630372
 20
122.0195426509
 30
0.0
 11
211.8496325366
 21
122.3265237823
 31
0.0
  0
LINE
  5
12E
330
1F
100
AcDbEntity
  8
SLD-0
  6
SLD-DURCHGEHEND
 62
     7
100
AcDbLine
 10
211.8496325366
 20
122.3265237823
 30
0.0
 11
211.3452639166
 21
122.6126438845
 31
0.0
  0
LINE
  5
12F
330
1F
100
AcDbEntity
  8
SLD-0
  6
SLD-DURCHGEHEND
 62
     7
100
AcDbLine
 10
211.3452639166
 20
122.6126438845
 30
0.0
 11
210.793895727
 21
122.8757254107
 31
0.0
  0
LINE
  5
130
330
1F
100
AcDbEntity
  8
SLD-0
  6
SLD-DURCHGEHEND
 62
     7
100
AcDbLine
 10
210.793895727
 20
122.8757254107
 30
0.0
 11
210.1997242128
 21
123.1137661517
 31
0.0
  0
LINE
  5
131
330
1F
100
AcDbEntity
  8
SLD-0
  6
SLD-DURCHGEHEND
 62
     7
100
AcDbLine
 10
210.1997242128
 20
123.1137661517
 30
0.0
 11
209.567271378
 21
123.3249544737
 31
0.0
  0
LINE
  5
132
330
1F
100
AcDbEntity
  8
SLD-0
  6
SLD-DURCHGEHEND
 62
     7
100
AcDbLine
 10
209.567271378
 20
123.3249544737
 30
0.0
 11
208.9013505702
 21
123.5076831059
 31
0.0
  0
LINE
  5
133
330
1F
100
AcDbEntity
  8
SLD-0
  6
SLD-DURCHGEHEND
 62
     7
100
AcDbLine
 10
208.9013505702
 20
123.5076831059
 30
0.0
 11
208.2070298494
 21
123.6605613733
 31
0.0
  0
LINE
  5
134
330
1F
100
AcDbEntity
  8
SLD-0
  6
SLD-DURCHGEHEND
 62
     7
100
AcDbLine
 10
208.2070298494
 20
123.6605613733
 30
0.0
 11
207.489593415
 21
123.7824257797
 31
0.0
  0
LINE
  5
135
330
1F
100
AcDbEntity
  8
SLD-0
  6
SLD-DURCHGEHEND
 62
     7
100
AcDbLine
 10
207.489593415
 20
123.7824257797
 30
0.0
 11
206.7545013918
 21
123.8723488637
 31
0.0
  0
LINE
  5
136
330
1F
100
AcDbEntity
  8
SLD-0
  6
SLD-DURCHGEHEND
 62
     7
100
AcDbLine
 10
206.7545013918
 20
123.8723488637
 30
0.0
 11
206.0073482738
 21
123.9296462561
 31
0.0
  0
LINE
  5
137
330
1F
100
AcDbEntity
  8
SLD-0
  6
SLD-DURCHGEHEND
 62
     7
100
AcDbLine
 10
206.0073482738
 20
123.9296462561
 30
0.0
 11
205.2538203476
 21
123.9538818893
 31
0.0
  0
LINE
  5
138
330
1F
100
AcDbEntity
  8
SLD-0
  6
SLD-DURCHGEHEND
 62
     7
100
AcDbLine
 10
205.2538203476
 20
123.9538818893
 30
0.0
 11
204.4996524152
 21
123.9448713153
 31
0.0
  0
LINE
  5
139
330
1F
100
AcDbEntity
  8
SLD-0
  6
SLD-DURCHGEHEND
 62
     7
100
AcDbLine
 10
204.4996524152
 20
123.9448713153
 30
0.0
 11
203.7505841506
 21
123.9026831103
 31
0.0
  0
LINE
  5
13A
330
1F
100
AcDbEntity
  8
SLD-0
  6
SLD-DURCHGEHEND
 62
     7
100
AcDbLine
 10
203.7505841506
 20
123.9026831103
 30
0.0
 11
203.0123164152
 21
123.8276383517
 31
0.0
  0
LINE
  5
13B
330
1F
100
AcDbEntity
  8
SLD-0
  6
SLD-DURCHGEHEND
 62
     7
100
AcDbLine
 10
203.0123164152
 20
123.8276383517
 30
0.0
 11
202.2904678722
 21
123.7203081757
 31
0.0
  0
LINE
  5
13C
330
1F
100
AcDbEntity
  8
SLD-0
  6
SLD-DURCHGEHEND
 62
     7
100
AcDbLine
 10
202.2904678722
 20
123.7203081757
 30
0.0
 11
201.590532225
 21
123.5815094297
 31
0.0
  0
LINE
  5
13D
330
1F
100
AcDbEntity
  8
SLD-0
  6
SLD-DURCHGEHEND
 62
     7
100
AcDbLine
 10
201.590532225
 20
123.5815094297
 30
0.0
 11
200.9178364066
 21
123.4122984557
 31
0.0
  0
LINE
  5
13E
330
1F
100
AcDbEntity
  8
SLD-0
  6
SLD-DURCHGEHEND
 62
     7
100
AcDbLine
 10
200.9178364066
 20
123.4122984557
 30
0.0
 11
200.2775000382
 21
123.2139630517
 31
0.0
  0
LINE
  5
13F
330
1F
100
AcDbEntity
  8
SLD-0
  6
SLD-DURCHGEHEND
 62
     7
100
AcDbLine
 10
200.2775000382
 20
123.2139630517
 30
0.0
 11
199.6743964664
 21
122.9880126696
 31
0.0
  0
LINE
  5
140
330
1F
100
AcDbEntity
  8
SLD-0
  6
SLD-DURCHGEHEND
 62
     7
100
AcDbLine
 10
249.2110696998
 20
115.2944255755
 30
0.0
 11
249.0206907294
 21
117.5141223239
 31
0.0
  0
ARC
  5
141
330
1F
100
AcDbEntity
  8
SLD-0
  6
SLD-DURCHGEHEND
 62
     7
100
AcDbCircle
 10
164.1774343337
 20
309.8375111116
 30
0.0
 40
3.913979878270043
100
AcDbArc
 50
252.083663699
 51
270.1613021878
  0
ARC
  5
142
330
1F
100
AcDbEntity
  8
SLD-0
  6
SLD-DURCHGEHEND
 62
     7
100
AcDbCircle
 10
245.2299238683
 20
309.6929978159
 30
0.0
 40
3.75453115953367
100
AcDbArc
 50
269.8421662404
 51
288.317618401
  0
ARC
  5
143
330
1F
100
AcDbEntity
  8
SLD-0
  6
SLD-DURCHGEHEND
 62
     7
100
AcDbCircle
 10
203.7900176376
 20
613.4346776378
 30
0.0
 40
306.5798974245536
100
AcDbArc
 50
269.0767383466
 51
270.0835404253
  0
ARC
  5
144
330
1F
100
AcDbEntity
  8
SLD-0
  6
SLD-DURCHGEHEND
 62
     7
100
AcDbCircle
 10
205.264005492
 20
613.3307840178
 30
0.0
 40
306.4753577083781
100
AcDbArc
 50
269.966980226
 51
270.9646639283
  0
ARC
  5
145
330
1F
100
AcDbEntity
  8
SLD-0
  6
SLD-DURCHGEHEND
 62
     7
100
AcDbCircle
 10
374.8773713211
 20
327.5349910351
 30
0.0
 40
21.59654583634942
100
AcDbArc
 50
262.3888997158
 51
276.1253045539
  0
ARC
  5
146
330
1F
100
AcDbEntity
  8
SLD-0
  6
SLD-DURCHGEHEND
 62
     7
100
AcDbCircle
 10
374.8844489392
 20
328.0966906081
 30
0.0
 40
18.15830326853457
100
AcDbArc
 50
267.535594279
 51
270.9786099729
  0
ARC
  5
147
330
1F
100
AcDbEntity
  8
SLD-0
  6
SLD-DURCHGEHEND
 62
     7
100
AcDbCircle
 10
375.2118766858
 20
327.3763577986
 30
0.0
 40
21.45286537455916
100
AcDbArc
 50
269.2433469551
 51
276.154779876
  0
ARC
  5
148
330
1F
100
AcDbEntity
  8
SLD-0
  6
SLD-DURCHGEHEND
 62
     7
100
AcDbCircle
 10
483.2140035106
 20
327.371885983
 30
0.0
 40
21.44838430856802
100
AcDbArc
 50
263.8448070629
 51
277.6286029951
  0
ARC
  5
149
330
1F
100
AcDbEntity
  8
SLD-0
  6
SLD-DURCHGEHEND
 62
     7
100
AcDbCircle
 10
483.2062731956
 20
327.9566760088
 30
0.0
 40
18.03323933706933
100
AcDbArc
 50
269.0092377793
 51
272.4641722788
  0
ARC
  5
14A
330
1F
100
AcDbEntity
  8
SLD-0
  6
SLD-DURCHGEHEND
 62
     7
100
AcDbCircle
 10
243.7022943532
 20
245.7573434212
 30
0.0
 40
3.847098859978811
100
AcDbArc
 50
255.4660018225
 51
288.0483653945
  0
ARC
  5
14B
330
1F
100
AcDbEntity
  8
SLD-0
  6
SLD-DURCHGEHEND
 62
     7
100
AcDbCircle
 10
243.7188814358
 20
249.0859328554
 30
0.0
 40
3.176283071638615
100
AcDbArc
 50
267.6418536472
 51
275.8725135659
  0
ARC
  5
14C
330
1F
100
AcDbEntity
  8
SLD-0
  6
SLD-DURCHGEHEND
 62
     7
100
AcDbCircle
 10
162.6270516281
 20
245.6242116258
 30
0.0
 40
3.698996880935001
100
AcDbArc
 50
251.5706954854
 51
284.8008286199
  0
ARC
  5
14D
330
1F
100
AcDbEntity
  8
SLD-0
  6
SLD-DURCHGEHEND
 62
     7
100
AcDbCircle
 10
162.6116787664
 20
248.9758909352
 30
0.0
 40
3.051290205474684
100
AcDbArc
 50
263.9870174192
 51
272.3845066862
  0
ARC
  5
14E
330
1F
100
AcDbEntity
  8
SLD-0
  6
SLD-DURCHGEHEND
 62
     7
100
AcDbCircle
 10
496.1583034622
 20
252.9712822642
 30
0.0
 40
6.999008616390205
100
AcDbArc
 50
358.2749850395
 51
41.885324786
  0
ARC
  5
14F
330
1F
100
AcDbEntity
  8
SLD-0
  6
SLD-DURCHGEHEND
 62
     7
100
AcDbCircle
 10
496.1562623416
 20
252.9713596084
 30
0.0
 40
6.998948859890977
100
AcDbArc
 50
138.5718403965
 51
178.2742978371
  0
ARC
  5
150
330
1F
100
AcDbEntity
  8
SLD-0
  6
SLD-DURCHGEHEND
 62
     7
100
AcDbCircle
 10
361.217852937
 20
228.1390453062
 30
0.0
 40
8.648628487714365
100
AcDbArc
 50
157.2591131907
 51
180.3543499694
  0
ARC
  5
151
330
1F
100
AcDbEntity
  8
SLD-0
  6
SLD-DURCHGEHEND
 62
     7
100
AcDbCircle
 10
361.2191453226
 20
228.1383650054
 30
0.0
 40
8.650083387406191
100
AcDbArc
 50
0.3590133562
 51
157.2582665077
  0
ARC
  5
152
330
1F
100
AcDbEntity
  8
SLD-0
  6
SLD-DURCHGEHEND
 62
     7
100
AcDbCircle
 10
214.4155632997
 20
123.8784338715
 30
0.0
 40
35.18549851718655
100
AcDbArc
 50
348.5970457657
 51
349.579047083
  0
ARC
  5
153
330
1F
100
AcDbEntity
  8
SLD-0
  6
SLD-DURCHGEHEND
 62
     7
100
AcDbCircle
 10
170.1742509584
 20
154.0612036732
 30
0.0
 40
18.55560310180829
100
AcDbArc
 50
290.7979600104
 51
293.836969655
  0
ARC
  5
154
330
1F
100
AcDbEntity
  8
SLD-0
  6
SLD-DURCHGEHEND
 62
     7
100
AcDbCircle
 10
200.9635751626
 20
118.4745073945
 30
0.0
 40
4.694008050622992
100
AcDbArc
 50
105.9407689055
 51
158.8509275859
  0
ARC
  5
155
330
1F
100
AcDbEntity
  8
SLD-0
  6
SLD-DURCHGEHEND
 62
     7
100
AcDbCircle
 10
208.2933474182
 20
121.728972895
 30
0.0
 40
41.42056730562159
100
AcDbArc
 50
347.1129954682
 51
351.0630973104
  0
ARC
  5
156
330
1F
100
AcDbEntity
  8
SLD-0
  6
SLD-DURCHGEHEND
 62
     7
100
AcDbCircle
 10
205.0902466748
 20
106.6782615754
 30
0.0
 40
13.66968568103981
100
AcDbArc
 50
82.7538281608
 51
96.1691763105
  0
SPLINE
  5
157
330
1F
100
AcDbEntity
  8
SLD-0
  6
SLD-DURCHGEHEND
 62
     7
100
AcDbSpline
210
0.0
220
0.0
230
1.0
 70
     8
 71
     3
 72
    36
 73
    32
 74
     0
 42
0.000000001
 43
0.00000001
 40
0.0
 40
0.0
 40
0.0
 40
0.0
 40
0.0242336770941458
 40
0.0592165083397379
 40
0.0952030394609346
 40
0.1303860244275176
 40
0.166577045718233
 40
0.2019640594561765
 40
0.2383826603060152
 40
0.2736605600596621
 40
0.309976255382145
 40
0.3450045020416732
 40
0.3810497677425039
 40
0.4160742427722772
 40
0.4521006589483594
 40
0.4873711123608112
 40
0.5236567126236338
 40
0.559045699052604
 40
0.5954717885611178
 40
0.6306623428574674
 40
0.6668860371979369
 40
0.7018701991578336
 40
0.7378636486051091
 40
0.7729553085544186
 40
0.8090500099865282
 40
0.8443946460381319
 40
0.8807629111246489
 40
0.9161132697486165
 40
0.9525030060535074
 40
0.987604556235947
 40
1.0
 40
1.0
 40
1.0
 40
1.0
 10
174.6502027794806
 20
306.1453593587929
 30
0.0
 10
174.5313611995161
 20
306.143122194792
 30
0.0
 10
174.2409643528579
 20
306.1376555443866
 30
0.0
 10
173.7527447853374
 20
306.1175166217192
 30
0.0
 10
173.211587315276
 20
306.0893242412184
 30
0.0
 10
172.6785764830704
 20
306.0563946109086
 30
0.0
 10
172.1783154755933
 20
306.0234936666204
 30
0.0
 10
171.716556239461
 20
305.9939270639156
 30
0.0
 10
171.3154665352302
 20
305.9719105746902
 30
0.0
 10
170.9800114655162
 20
305.9600055287654
 30
0.0
 10
170.7263607733934
 20
305.9601840062775
 30
0.0
 10
170.556283557175
 20
305.9728518626582
 30
0.0
 10
170.4768823228147
 20
305.9968301546472
 30
0.0
 10
170.4883580383793
 20
306.0304564232386
 30
0.0
 10
170.5901784867896
 20
306.0701317876592
 30
0.0
 10
170.7819596909674
 20
306.112748403734
 30
0.0
 10
171.0559720769913
 20
306.1534700023586
 30
0.0
 10
171.4095036830581
 20
306.1887941399986
 30
0.0
 10
171.8258914504327
 20
306.2144989099738
 30
0.0
 10
172.3000551043431
 20
306.2284698118458
 30
0.0
 10
172.8085464303645
 20
306.2292617098624
 30
0.0
 10
173.3465889587856
 20
306.2171463352314
 30
0.0
 10
173.8896547060145
 20
306.1938956670468
 30
0.0
 10
174.4334602504194
 20
306.1617253418226
 30
0.0
 10
174.9544296314128
 20
306.124576829619
 30
0.0
 10
175.4470085562683
 20
306.0857925764088
 30
0.0
 10
175.8877613862458
 20
306.0501496803441
 30
0.0
 10
176.2730284652433
 20
306.0205483780144
 30
0.0
 10
176.5761660402477
 20
306.0014042817318
 30
0.0
 10
176.7689113385204
 20
305.992824026062
 30
0.0
 10
176.8269208398318
 20
305.9945633223803
 30
0.0
 10
176.8420597665625
 20
305.9950172321526
 30
0.0
  0
SPLINE
  5
158
330
1F
100
AcDbEntity
  8
SLD-0
  6
SLD-DURCHGEHEND
 62
     7
100
AcDbSpline
210
0.0
220
0.0
230
1.0
 70
     8
 71
     3
 72
    30
 73
    26
 74
     0
 42
0.000000001
 43
0.00000001
 40
0.0
 40
0.0
 40
0.0
 40
0.0
 40
0.1249999999999988
 40
0.1249999999999988
 40
0.1874999999999982
 40
0.1874999999999982
 40
0.2499999999999976
 40
0.2499999999999976
 40
0.3749999999999969
 40
0.3749999999999969
 40
0.4374999999999969
 40
0.4374999999999969
 40
0.4999999999999969
 40
0.4999999999999969
 40
0.6249999999999977
 40
0.6249999999999977
 40
0.687499999999998
 40
0.687499999999998
 40
0.7499999999999984
 40
0.7499999999999984
 40
0.8124999999999988
 40
0.8124999999999988
 40
0.8749999999999992
 40
0.8749999999999992
 40
1.0
 40
1.0
 40
1.0
 40
1.0
 10
168.4427108642129
 20
309.4430547937336
 30
0.0
 10
167.8232890204048
 20
309.439621887175
 30
0.0
 10
167.2368060755546
 20
309.4021203043361
 30
0.0
 10
166.4049321493451
 20
309.298810488412
 30
0.0
 10
166.1356852781382
 20
309.2565077727869
 30
0.0
 10
165.613858782838
 20
309.1566053586579
 30
0.0
 10
165.3610815569556
 20
309.0988239443388
 30
0.0
 10
164.6452798674404
 20
308.9079561218542
 30
0.0
 10
164.2182687774922
 20
308.7564053302235
 30
0.0
 10
163.6546540736944
 20
308.5014306347343
 30
0.0
 10
163.478835614633
 20
308.4112902282581
 30
0.0
 10
163.1590104723469
 20
308.2258164335761
 30
0.0
 10
163.0153690386499
 20
308.1308573947541
 30
0.0
 10
162.6322686143257
 20
307.842221249295
 30
0.0
 10
162.4402068633208
 20
307.6447743382358
 30
0.0
 10
162.251075041044
 20
307.3520372645525
 30
0.0
 10
162.20545157659
 20
307.2561312045365
 30
0.0
 10
162.148708884356
 20
307.0712297110271
 30
0.0
 10
162.1373783167114
 20
306.9819062231071
 30
0.0
 10
162.147966813547
 20
306.8109128019294
 30
0.0
 10
162.1698877719388
 20
306.7292404027995
 30
0.0
 10
162.2469272225375
 20
306.574933340757
 30
0.0
 10
162.3023188086477
 20
306.5022905248501
 30
0.0
 10
162.5138214532419
 20
306.3037649691132
 30
0.0
 10
162.715443063635
 20
306.1955925601104
 30
0.0
 10
162.9733848212103
 20
306.1133329124279
 30
0.0
  0
SPLINE
  5
159
330
1F
100
AcDbEntity
  8
SLD-0
  6
SLD-DURCHGEHEND
 62
     7
100
AcDbSpline
210
0.0
220
0.0
230
1.0
 70
     8
 71
     3
 72
    14
 73
    10
 74
     0
 42
0.000000001
 43
0.00000001
 40
0.0
 40
0.0
 40
0.0
 40
0.0
 40
0.5000000000000026
 40
0.5000000000000026
 40
0.6250000000000019
 40
0.6250000000000019
 40
0.7500000000000011
 40
0.7500000000000011
 40
1.0
 40
1.0
 40
1.0
 40
1.0
 10
199.3995832417677
 20
307.0110773081412
 30
0.0
 10
200.1320342748712
 20
307.0975513646602
 30
0.0
 10
200.942947247648
 20
307.1500200796388
 30
0.0
 10
202.0509996734476
 20
307.1640246963954
 30
0.0
 10
202.2772677579144
 20
307.1642239512536
 30
0.0
 10
202.7318573803292
 20
307.1594973775662
 30
0.0
 10
202.9611161639672
 20
307.1545892546283
 30
0.0
 10
203.654715128622
 20
307.1325498819078
 30
0.0
 10
204.1248310898682
 20
307.1080963347854
 30
0.0
 10
204.603013049089
 20
307.0748089527748
 30
0.0
  0
SPLINE
  5
15A
330
1F
100
AcDbEntity
  8
SLD-0
  6
SLD-DURCHGEHEND
 62
     7
100
AcDbSpline
210
0.0
220
0.0
230
1.0
 70
     8
 71
     3
 72
    32
 73
    28
 74
     0
 42
0.000000001
 43
0.00000001
 40
0.0
 40
0.0
 40
0.0
 40
0.0
 40
0.1250000000000002
 40
0.1250000000000002
 40
0.1875000000000004
 40
0.1875000000000004
 40
0.2500000000000005
 40
0.2500000000000005
 40
0.3125000000000006
 40
0.3125000000000006
 40
0.3750000000000008
 40
0.3750000000000008
 40
0.4375000000000009
 40
0.4375000000000009
 40
0.500000000000001
 40
0.500000000000001
 40
0.5625000000000011
 40
0.5625000000000011
 40
0.6250000000000012
 40
0.6250000000000012
 40
0.7500000000000008
 40
0.7500000000000008
 40
0.8750000000000004
 40
0.8750000000000004
 40
0.9375000000000002
 40
0.9375000000000002
 40
1.0
 40
1.0
 40
1.0
 40
1.0
 10
204.2370279789206
 20
306.8551060962604
 30
0.0
 10
203.5806506899822
 20
306.7810531652414
 30
0.0
 10
202.9470047709162
 20
306.6943840793714
 30
0.0
 10
202.0274649257294
 20
306.5610032006488
 30
0.0
 10
201.7250681986026
 20
306.5157907871136
 30
0.0
 10
201.1487145356654
 20
306.4295293680626
 30
0.0
 10
200.8724848793018
 20
306.3881521298892
 30
0.0
 10
200.3435525141424
 20
306.3112795734322
 30
0.0
 10
200.0896786341756
 20
306.2756246361872
 30
0.0
 10
199.6118037907949
 20
306.2133507556782
 30
0.0
 10
199.3909398862748
 20
306.1871302386468
 30
0.0
 10
198.9842649002913
 20
306.1458228280388
 30
0.0
 10
198.7984543714003
 20
306.1307308630946
 30
0.0
 10
198.4629521609405
 20
306.1130378903498
 30
0.0
 10
198.3138840605079
 20
306.1105911720264
 30
0.0
 10
198.0621759399665
 20
306.1188217147188
 30
0.0
 10
197.9580027409679
 20
306.1293920464022
 30
0.0
 10
197.7929565423611
 20
306.1630738990788
 30
0.0
 10
197.7318907962542
 20
306.1864566370088
 30
0.0
 10
197.6195590204334
 20
306.2725889469778
 30
0.0
 10
197.6358195535687
 20
306.3508991938352
 30
0.0
 10
197.8511495714854
 20
306.5340508727088
 30
0.0
 10
198.04529516006
 20
306.634714640049
 30
0.0
 10
198.4636034973002
 20
306.7840114877342
 30
0.0
 10
198.6250597407762
 20
306.8335158019966
 30
0.0
 10
198.9838834022919
 20
306.9267626884188
 30
0.0
 10
199.1820567586328
 20
306.9708412145206
 30
0.0
 10
199.3995832417677
 20
307.0110773081412
 30
0.0
  0
SPLINE
  5
15B
330
1F
100
AcDbEntity
  8
SLD-0
  6
SLD-DURCHGEHEND
 62
     7
100
AcDbSpline
210
0.0
220
0.0
230
1.0
 70
     8
 71
     3
 72
     8
 73
     4
 74
     0
 42
0.000000001
 43
0.00000001
 40
0.0
 40
0.0
 40
0.0
 40
0.0
 40
1.0
 40
1.0
 40
1.0
 40
1.0
 10
204.6609928653657
 20
306.888277697679
 30
0.0
 10
204.5199339859157
 20
306.8778566964228
 30
0.0
 10
204.3786144931463
 20
306.8667858155361
 30
0.0
 10
204.2370279789206
 20
306.8551060962604
 30
0.0
  0
SPLINE
  5
15C
330
1F
100
AcDbEntity
  8
SLD-0
  6
SLD-DURCHGEHEND
 62
     7
100
AcDbSpline
210
0.0
220
0.0
230
1.0
 70
     8
 71
     3
 72
    20
 73
    16
 74
     0
 42
0.000000001
 43
0.00000001
 40
0.0
 40
0.0
 40
0.0
 40
0.0
 40
0.0116591089422979
 40
0.0875715371420612
 40
0.1634843181728875
 40
0.2332051463478372
 40
0.3029273711229326
 40
0.374613609887026
 40
0.4463015660633675
 40
0.5171889757462952
 40
0.5880775334407216
 40
0.6608881901284634
 40
0.7336994279763717
 40
0.8653521774182351
 40
1.0
 40
1.0
 40
1.0
 40
1.0
 10
162.9544589774059
 20
310.6551230345381
 30
0.0
 10
162.9552722094566
 20
310.665051676272
 30
0.0
 10
162.9613803932884
 20
310.739625678682
 30
0.0
 10
163.0432595479017
 20
310.8975818918984
 30
0.0
 10
163.201885599503
 20
311.117555875641
 30
0.0
 10
163.4301921140006
 20
311.3399051781142
 30
0.0
 10
163.7135339715728
 20
311.5589121733965
 30
0.0
 10
164.0610431696659
 20
311.7766868318381
 30
0.0
 10
164.4689490522645
 20
311.9872743116431
 30
0.0
 10
164.9306796736652
 20
312.1839656650377
 30
0.0
 10
165.445933488931
 20
312.3644816415787
 30
0.0
 10
166.0144026050954
 20
312.5250227090773
 30
0.0
 10
166.7999609759202
 20
312.6970741485491
 30
0.0
 10
167.8456705384472
 20
312.8514854462695
 30
0.0
 10
168.7512896771046
 20
312.8786961700584
 30
0.0
 10
169.2091919796869
 20
312.8924545509781
 30
0.0
  0
SPLINE
  5
15D
330
1F
100
AcDbEntity
  8
SLD-0
  6
SLD-DURCHGEHEND
 62
     7
100
AcDbSpline
210
0.0
220
0.0
230
1.0
 70
     8
 71
     3
 72
    27
 73
    23
 74
     0
 42
0.000000001
 43
0.00000001
 40
0.0
 40
0.0
 40
0.0
 40
0.0
 40
0.0508650230170719
 40
0.1032125695525486
 40
0.1540754893197391
 40
0.2063992051141283
 40
0.2575230830567742
 40
0.3101184561499157
 40
0.3614130409158963
 40
0.4142109251895621
 40
0.4652167884247146
 40
0.517720049485363
 40
0.5684277968116725
 40
0.6205983641334987
 40
0.6714634588782612
 40
0.7237824679875073
 40
0.7750138991544094
 40
0.8277291597907
 40
0.8789671938893303
 40
0.9317117678924031
 40
0.9825887743243616
 40
1.0
 40
1.0
 40
1.0
 40
1.0
 10
238.6431280124592
 20
305.9748350963092
 30
0.0
 10
238.7030841592268
 20
305.9781438950694
 30
0.0
 10
238.8247439482388
 20
305.9848579315904
 30
0.0
 10
238.8948109518132
 20
306.0096104150946
 30
0.0
 10
238.8796515554176
 20
306.0431243619265
 30
0.0
 10
238.772366746058
 20
306.0828737642162
 30
0.0
 10
238.5756565894564
 20
306.1254217884658
 30
0.0
 10
238.2971295862182
 20
306.1660074702144
 30
0.0
 10
237.9395755114108
 20
306.2011379338528
 30
0.0
 10
237.5198197499406
 20
306.2266098598198
 30
0.0
 10
237.0429913290654
 20
306.2403163328814
 30
0.0
 10
236.5326584202798
 20
306.2408327718952
 30
0.0
 10
235.9936021203192
 20
306.2284402577677
 30
0.0
 10
235.4503818202742
 20
306.2049289750862
 30
0.0
 10
234.9072829203918
 20
306.1725213010056
 30
0.0
 10
234.3878553136338
 20
306.1351721850944
 30
0.0
 10
233.8976462805692
 20
306.096227729858
 30
0.0
 10
233.4600076424302
 20
306.0604737288776
 30
0.0
 10
233.0785179090868
 20
306.0308030640154
 30
0.0
 10
232.779796250692
 20
306.0116500969458
 30
0.0
 10
232.5913435267648
 20
306.00308412328
 30
0.0
 10
232.535919200037
 20
306.0048174108584
 30
0.0
 10
232.5217878419568
 20
306.0052593414848
 30
0.0
  0
SPLINE
  5
15E
330
1F
100
AcDbEntity
  8
SLD-0
  6
SLD-DURCHGEHEND
 62
     7
100
AcDbSpline
210
0.0
220
0.0
230
1.0
 70
     8
 71
     3
 72
    16
 73
    12
 74
     0
 42
0.000000001
 43
0.00000001
 40
0.0
 40
0.0
 40
0.0
 40
0.0
 40
0.0440673343845341
 40
0.1593685019368702
 40
0.2713953226059588
 40
0.3866261108642426
 40
0.4994530583301649
 40
0.6155273587645803
 40
0.7287333270033127
 40
0.8452566737798551
 40
1.0
 40
1.0
 40
1.0
 40
1.0
 10
234.7072670092998
 20
306.157206784117
 30
0.0
 10
234.7738853466832
 20
306.1563724961882
 30
0.0
 10
235.0148090326426
 20
306.153355313069
 30
0.0
 10
235.449350831356
 20
306.1374815903631
 30
0.0
 10
235.9961214375396
 20
306.1116959371557
 30
0.0
 10
236.5304578821556
 20
306.0801956122738
 30
0.0
 10
237.0449189740694
 20
306.046907480645
 30
0.0
 10
237.5175474039274
 20
306.0159506132782
 30
0.0
 10
237.9397150719104
 20
305.9911003274054
 30
0.0
 10
238.3440750746128
 20
305.9726602193964
 30
0.0
 10
238.5345004065266
 20
305.9740450968064
 30
0.0
 10
238.6431280124592
 20
305.9748350963092
 30
0.0
  0
SPLINE
  5
15F
330
1F
100
AcDbEntity
  8
SLD-0
  6
SLD-DURCHGEHEND
 62
     7
100
AcDbSpline
210
0.0
220
0.0
230
1.0
 70
     8
 71
     3
 72
    32
 73
    28
 74
     0
 42
0.000000001
 43
0.00000001
 40
0.0
 40
0.0
 40
0.0
 40
0.0
 40
0.1249999999999999
 40
0.1249999999999999
 40
0.1874999999999998
 40
0.1874999999999998
 40
0.2499999999999997
 40
0.2499999999999997
 40
0.3124999999999997
 40
0.3124999999999997
 40
0.3749999999999996
 40
0.3749999999999996
 40
0.4374999999999995
 40
0.4374999999999995
 40
0.4999999999999994
 40
0.4999999999999994
 40
0.5624999999999993
 40
0.5624999999999993
 40
0.6249999999999993
 40
0.6249999999999993
 40
0.7499999999999991
 40
0.7499999999999991
 40
0.874999999999999
 40
0.874999999999999
 40
0.9374999999999996
 40
0.9374999999999996
 40
1.0
 40
1.0
 40
1.0
 40
1.0
 10
205.0873825964266
 20
306.855477203616
 30
0.0
 10
205.7449016729052
 20
306.7821412215666
 30
0.0
 10
206.3792421429566
 20
306.6959701834197
 30
0.0
 10
207.2991675313044
 20
306.563064280982
 30
0.0
 10
207.6015353325476
 20
306.5179711574521
 30
0.0
 10
208.177541885665
 20
306.4318762010686
 30
0.0
 10
208.4534780610264
 20
306.3905440617888
 30
0.0
 10
208.981577294608
 20
306.3137068710882
 30
0.0
 10
209.2349759338202
 20
306.2780333845054
 30
0.0
 10
209.711287182366
 20
306.2157371097946
 30
0.0
 10
209.9312572154046
 20
306.1894876095426
 30
0.0
 10
210.33590500816
 20
306.1481139041854
 30
0.0
 10
210.520582465862
 20
306.1329845011496
 30
0.0
 10
210.8535411643668
 20
306.1152369624826
 30
0.0
 10
211.0010851854922
 20
306.1127770558027
 30
0.0
 10
211.249592620126
 20
306.1210066848273
 30
0.0
 10
211.352063540715
 20
306.131591915978
 30
0.0
 10
211.5134595582624
 20
306.1653559677162
 30
0.0
 10
211.5725462685306
 20
306.1888099388278
 30
0.0
 10
211.6786163169708
 20
306.2751642486786
 30
0.0
 10
211.6578139785812
 20
306.3538022127368
 30
0.0
 10
211.4329440086512
 20
306.5374700435733
 30
0.0
 10
211.233973012081
 20
306.6384599735445
 30
0.0
 10
210.8080067989088
 20
306.7882924624913
 30
0.0
 10
210.6440776676884
 20
306.8379311859552
 30
0.0
 10
210.2804399414468
 20
306.9314160738048
 30
0.0
 10
210.0798827148472
 20
306.9756032561991
 30
0.0
 10
209.8599778972268
 20
307.0159278960397
 30
0.0
  0
SPLINE
  5
160
330
1F
100
AcDbEntity
  8
SLD-0
  6
SLD-DURCHGEHEND
 62
     7
100
AcDbSpline
210
0.0
220
0.0
230
1.0
 70
     8
 71
     3
 72
    10
 73
     6
 74
     0
 42
0.000000001
 43
0.00000001
 40
0.0
 40
0.0
 40
0.0
 40
0.0
 40
0.5
 40
0.5
 40
1.0
 40
1.0
 40
1.0
 40
1.0
 10
209.8599778972268
 20
307.0159278960397
 30
0.0
 10
209.1184753003928
 20
307.1025726619146
 30
0.0
 10
208.2958029483922
 20
307.1550184261026
 30
0.0
 10
206.5006498970098
 20
307.1755874500814
 30
0.0
 10
205.5691809808888
 20
307.1433511705732
 30
0.0
 10
204.603013049089
 20
307.0748089527748
 30
0.0
  0
SPLINE
  5
161
330
1F
100
AcDbEntity
  8
SLD-0
  6
SLD-DURCHGEHEND
 62
     7
100
AcDbSpline
210
0.0
220
0.0
230
1.0
 70
     8
 71
     3
 72
    28
 73
    24
 74
     0
 42
0.000000001
 43
0.00000001
 40
0.0
 40
0.0
 40
0.0
 40
0.0
 40
0.125
 40
0.125
 40
0.1875000000000001
 40
0.1875000000000001
 40
0.2500000000000001
 40
0.2500000000000001
 40
0.3750000000000001
 40
0.3750000000000001
 40
0.4375
 40
0.4375
 40
0.4999999999999999
 40
0.4999999999999999
 40
0.6249999999999999
 40
0.6249999999999999
 40
0.7499999999999999
 40
0.7499999999999999
 40
0.8125
 40
0.8125
 40
0.875
 40
0.875
 40
1.0
 40
1.0
 40
1.0
 40
1.0
 10
246.4099143983065
 20
306.1287129539806
 30
0.0
 10
246.6625888661469
 20
306.2110330671105
 30
0.0
 10
246.8580008211939
 20
306.318938750568
 30
0.0
 10
247.0606371951084
 20
306.5158018916822
 30
0.0
 10
247.1130240159102
 20
306.58726256561
 30
0.0
 10
247.1856129099158
 20
306.7413251488691
 30
0.0
 10
247.2055726150693
 20
306.8240779255496
 30
0.0
 10
247.2142499549111
 20
307.0815068896325
 30
0.0
 10
247.1533428865258
 20
307.2671302371302
 30
0.0
 10
246.9596324303936
 20
307.5570982381785
 30
0.0
 10
246.8772841007672
 20
307.6562545427731
 30
0.0
 10
246.6798396613091
 20
307.8535810431064
 30
0.0
 10
246.5652328231935
 20
307.9514894559621
 30
0.0
 10
246.1752482619493
 20
308.2402612243547
 30
0.0
 10
245.853713238674
 20
308.4264451713357
 30
0.0
 10
245.0876085693811
 20
308.7698272491849
 30
0.0
 10
244.6552649031879
 20
308.9215471199576
 30
0.0
 10
243.937316209406
 20
309.1116663612099
 30
0.0
 10
243.6863327905317
 20
309.1687866472001
 30
0.0
 10
243.1606503739958
 20
309.2690589989199
 30
0.0
 10
242.886634076843
 20
309.3119708276489
 30
0.0
 10
242.0454687961954
 20
309.415894452817
 30
0.0
 10
241.4545097332974
 20
309.4531946599004
 30
0.0
 10
240.8329741502866
 20
309.4563986523766
 30
0.0
  0
SPLINE
  5
162
330
1F
100
AcDbEntity
  8
SLD-0
  6
SLD-DURCHGEHEND
 62
     7
100
AcDbSpline
210
0.0
220
0.0
230
1.0
 70
     8
 71
     3
 72
     8
 73
     4
 74
     0
 42
0.000000001
 43
0.00000001
 40
0.0
 40
0.0
 40
0.0
 40
0.0
 40
1.0
 40
1.0
 40
1.0
 40
1.0
 10
204.6609928653657
 20
306.888277697679
 30
0.0
 10
204.8024031529573
 20
306.8780238014111
 30
0.0
 10
204.9448194841662
 20
306.867057204127
 30
0.0
 10
205.0873825964266
 20
306.855477203616
 30
0.0
  0
SPLINE
  5
163
330
1F
100
AcDbEntity
  8
SLD-0
  6
SLD-DURCHGEHEND
 62
     7
100
AcDbSpline
210
0.0
220
0.0
230
1.0
 70
     8
 71
     3
 72
    18
 73
    14
 74
     0
 42
0.000000001
 43
0.00000001
 40
0.0
 40
0.0
 40
0.0
 40
0.0
 40
0.0989482234844175
 40
0.1982106321696125
 40
0.2971579205880752
 40
0.3961435072518111
 40
0.4954460830894902
 40
0.5944183380120905
 40
0.6924554579802819
 40
0.7908216892541118
 40
0.8888394111742779
 40
0.9832665060418079
 40
1.0
 40
1.0
 40
1.0
 40
1.0
 10
240.0808834478866
 20
312.9055184879782
 30
0.0
 10
240.4226580341816
 20
312.8973190439195
 30
0.0
 10
241.1072924260234
 20
312.8808941205295
 30
0.0
 10
242.068242832949
 20
312.7772251284882
 30
0.0
 10
242.9660558057858
 20
312.6210353701312
 30
0.0
 10
243.7818673346674
 20
312.4094112213489
 30
0.0
 10
244.5073957100916
 20
312.1562499773887
 30
0.0
 10
245.130315983063
 20
311.8720528004608
 30
0.0
 10
245.6363885676262
 20
311.5684229773236
 30
0.0
 10
246.0271530775146
 20
311.2589298790089
 30
0.0
 10
246.2816330655774
 20
310.9629133874439
 30
0.0
 10
246.4018138515174
 20
310.7567305386078
 30
0.0
 10
246.405405450398
 20
310.6635678175531
 30
0.0
 10
246.4059461096262
 20
310.6495436220503
 30
0.0
  0
SPLINE
  5
164
330
1F
100
AcDbEntity
  8
SLD-0
  6
SLD-DURCHGEHEND
 62
     7
100
AcDbSpline
210
0.0
220
0.0
230
1.0
 70
     8
 71
     3
 72
    15
 73
    11
 74
     0
 42
0.000000001
 43
0.00000001
 40
0.0
 40
0.0
 40
0.0
 40
0.0
 40
0.0593282050218325
 40
0.2076042668164717
 40
0.3497056808828731
 40
0.4957414505814632
 40
0.6413999389607024
 40
0.7910538543153994
 40
0.8948143671081569
 40
1.0
 40
1.0
 40
1.0
 40
1.0
 10
360.5853827439283
 20
306.1229432779184
 30
0.0
 10
360.4429548115266
 20
306.1232259149557
 30
0.0
 10
359.9445637600937
 20
306.1242149328249
 30
0.0
 10
359.0362060808122
 20
306.1818690054521
 30
0.0
 10
357.8935401853388
 20
306.2892979785973
 30
0.0
 10
356.758045104965
 20
306.4361148548854
 30
0.0
 10
355.6384284536868
 20
306.6084521384063
 30
0.0
 10
354.6841155232362
 20
306.7706453721513
 30
0.0
 10
353.8848258071603
 20
306.9100791206921
 30
0.0
 10
353.4660252293086
 20
306.9804849032633
 30
0.0
 10
353.2551967227934
 20
307.0159278963596
 30
0.0
  0
SPLINE
  5
165
330
1F
100
AcDbEntity
  8
SLD-0
  6
SLD-DURCHGEHEND
 62
     7
100
AcDbSpline
210
0.0
220
0.0
230
1.0
 70
     8
 71
     3
 72
    10
 73
     6
 74
     0
 42
0.000000001
 43
0.00000001
 40
0.0
 40
0.0
 40
0.0
 40
0.0
 40
0.5
 40
0.5
 40
1.0
 40
1.0
 40
1.0
 40
1.0
 10
353.2551967227934
 20
307.0159278963596
 30
0.0
 10
352.6247904876166
 20
307.1025726622345
 30
0.0
 10
352.1164197221792
 20
307.1550184264225
 30
0.0
 10
351.3402376021412
 20
307.1755874504013
 30
0.0
 10
351.0897725186648
 20
307.1433511708931
 30
0.0
 10
350.9792237087989
 20
307.0748089530948
 30
0.0
  0
SPLINE
  5
166
330
1F
100
AcDbEntity
  8
SLD-0
  6
SLD-DURCHGEHEND
 62
     7
100
AcDbSpline
210
0.0
220
0.0
230
1.0
 70
     8
 71
     3
 72
    28
 73
    24
 74
     0
 42
0.000000001
 43
0.00000001
 40
0.0
 40
0.0
 40
0.0
 40
0.0
 40
0.125
 40
0.125
 40
0.1875000000000001
 40
0.1875000000000001
 40
0.2500000000000001
 40
0.2500000000000001
 40
0.3750000000000001
 40
0.3750000000000001
 40
0.4375
 40
0.4375
 40
0.4999999999999999
 40
0.4999999999999999
 40
0.6249999999999999
 40
0.6249999999999999
 40
0.7499999999999999
 40
0.7499999999999999
 40
0.8125
 40
0.8125
 40
0.875
 40
0.875
 40
1.0
 40
1.0
 40
1.0
 40
1.0
 10
372.0169428955904
 20
306.1287129540028
 30
0.0
 10
371.4006484367492
 20
306.2110330671326
 30
0.0
 10
370.7754630185446
 20
306.3189387505901
 30
0.0
 10
369.8225796055668
 20
306.5158018917043
 30
0.0
 10
369.5024163384944
 20
306.587262565632
 30
0.0
 10
368.8564615748824
 20
306.7413251488912
 30
0.0
 10
368.5303533358723
 20
306.8240779255717
 30
0.0
 10
367.5660135875132
 20
307.0815068896546
 30
0.0
 10
366.9339995272598
 20
307.2671302371522
 30
0.0
 10
365.9997919107974
 20
307.5570982382006
 30
0.0
 10
365.68892998544
 20
307.6562545427953
 30
0.0
 10
365.0810133449882
 20
307.8535810431287
 30
0.0
 10
364.7846484843178
 20
307.9514894559843
 30
0.0
 10
363.916709136853
 20
308.240261224377
 30
0.0
 10
363.3655101458344
 20
308.4264451713581
 30
0.0
 10
362.31778630002
 20
308.7698272492074
 30
0.0
 10
361.8375872567028
 20
308.9215471199803
 30
0.0
 10
361.1760353607822
 20
309.1116663612327
 30
0.0
 10
360.965401925157
 20
309.1687866472229
 30
0.0
 10
360.563853673718
 20
309.2690589989429
 30
0.0
 10
360.373671164534
 20
309.3119708276719
 30
0.0
 10
359.8434220927268
 20
309.4158944528402
 30
0.0
 10
359.539280668794
 20
309.4531946599237
 30
0.0
 10
359.2848853592
 20
309.4563986524
 30
0.0
  0
SPLINE
  5
167
330
1F
100
AcDbEntity
  8
SLD-0
  6
SLD-DURCHGEHEND
 62
     7
100
AcDbSpline
210
0.0
220
0.0
230
1.0
 70
     8
 71
     3
 72
    18
 73
    14
 74
     0
 42
0.000000001
 43
0.00000001
 40
0.0
 40
0.0
 40
0.0
 40
0.0
 40
0.0856196892193979
 40
0.1752422750881852
 40
0.2645706121599907
 40
0.3532980940590029
 40
0.442319102203456
 40
0.5310341876050227
 40
0.6174066331592307
 40
0.7040633213798274
 40
0.7904483718237549
 40
0.8952115491100153
 40
0.9999999999999999
 40
0.9999999999999999
 40
0.9999999999999999
 40
0.9999999999999999
 10
383.2152557845185
 20
308.8647566988176
 30
0.0
 10
383.2351626778024
 20
308.8030330958184
 30
0.0
 10
383.275907152593
 20
308.6767001843722
 30
0.0
 10
383.1896702626454
 20
308.4307795120674
 30
0.0
 10
382.992473805714
 20
308.1533474038944
 30
0.0
 10
382.6692194236473
 20
307.8523588786338
 30
0.0
 10
382.2301511644339
 20
307.5423307926371
 30
0.0
 10
381.6820948127062
 20
307.2361055402914
 30
0.0
 10
381.0298575486892
 20
306.9464449051292
 30
0.0
 10
380.2900477040189
 20
306.681587789221
 30
0.0
 10
379.406977664325
 20
306.432183965755
 30
0.0
 10
378.3760427144282
 20
306.2122654447028
 30
0.0
 10
377.5799076087964
 20
306.111920312933
 30
0.0
 10
377.1817920458471
 20
306.061741695835
 30
0.0
  0
SPLINE
  5
168
330
1F
100
AcDbEntity
  8
SLD-0
  6
SLD-DURCHGEHEND
 62
     7
100
AcDbSpline
210
0.0
220
0.0
230
1.0
 70
     8
 71
     3
 72
    28
 73
    24
 74
     0
 42
0.000000001
 43
0.00000001
 40
0.0
 40
0.0
 40
0.0
 40
0.0
 40
0.1249999999999997
 40
0.1249999999999997
 40
0.1874999999999996
 40
0.1874999999999996
 40
0.2499999999999995
 40
0.2499999999999995
 40
0.3749999999999993
 40
0.3749999999999993
 40
0.4374999999999992
 40
0.4374999999999992
 40
0.4999999999999992
 40
0.4999999999999992
 40
0.6249999999999993
 40
0.6249999999999993
 40
0.7499999999999996
 40
0.7499999999999996
 40
0.8124999999999997
 40
0.8124999999999997
 40
0.8749999999999997
 40
0.8749999999999997
 40
1.0
 40
1.0
 40
1.0
 40
1.0
 10
361.1658244692456
 20
312.9055184880338
 30
0.0
 10
361.4222400301388
 20
312.902289051417
 30
0.0
 10
361.7283555748922
 20
312.8643982063704
 30
0.0
 10
362.2603935650712
 20
312.760088750363
 30
0.0
 10
362.4500025923818
 20
312.7173904013088
 30
0.0
 10
362.8549165497274
 20
312.6167422066334
 30
0.0
 10
363.0705057520944
 20
312.5586596930828
 30
0.0
 10
363.7423654144836
 20
312.3674422083538
 30
0.0
 10
364.227907536862
 20
312.2163075859248
 30
0.0
 10
365.0178653587166
 20
311.9648452637122
 30
0.0
 10
365.2932825757766
 20
311.8763314659726
 30
0.0
 10
365.8570277995874
 20
311.695971541867
 30
0.0
 10
366.1449056962734
 20
311.6042788710548
 30
0.0
 10
367.0272595041938
 20
311.3281440872832
 30
0.0
 10
367.640272270424
 20
311.1425869593558
 30
0.0
 10
368.923688596122
 20
310.7870402575988
 30
0.0
 10
369.5707118690636
 20
310.623750346643
 30
0.0
 10
370.5498249616314
 20
310.4113871847094
 30
0.0
 10
370.8777145057314
 20
310.345993540673
 30
0.0
 10
371.5369225661762
 20
310.2277402287458
 30
0.0
 10
371.8666375589154
 20
310.1752442685272
 30
0.0
 10
372.8413007075646
 20
310.041266228947
 30
0.0
 10
373.4780209248978
 20
309.9821077316702
 30
0.0
 10
374.10366490698
 20
309.9551814677944
 30
0.0
  0
SPLINE
  5
169
330
1F
100
AcDbEntity
  8
SLD-0
  6
SLD-DURCHGEHEND
 62
     7
100
AcDbSpline
210
0.0
220
0.0
230
1.0
 70
     8
 71
     3
 72
    28
 73
    24
 74
     0
 42
0.000000001
 43
0.00000001
 40
0.0
 40
0.0
 40
0.0
 40
0.0
 40
0.125
 40
0.125
 40
0.1875000000000001
 40
0.1875000000000001
 40
0.2500000000000001
 40
0.2500000000000001
 40
0.3749999999999999
 40
0.3749999999999999
 40
0.4374999999999999
 40
0.4374999999999999
 40
0.4999999999999999
 40
0.4999999999999999
 40
0.5624999999999999
 40
0.5624999999999999
 40
0.6249999999999999
 40
0.6249999999999999
 40
0.7499999999999999
 40
0.7499999999999999
 40
0.875
 40
0.875
 40
1.0
 40
1.0
 40
1.0
 40
1.0
 10
375.1945770646434
 20
309.9410358928698
 30
0.0
 10
375.820435357713
 20
309.951726093623
 30
0.0
 10
376.4165269172392
 20
309.9948146545768
 30
0.0
 10
377.2620254511952
 20
310.1042563572105
 30
0.0
 10
377.5357159605774
 20
310.1482156158092
 30
0.0
 10
378.0656017580112
 20
310.2505385293097
 30
0.0
 10
378.3215516390998
 20
310.3089936009586
 30
0.0
 10
379.0435438131962
 20
310.4996991128184
 30
0.0
 10
379.4707240353648
 20
310.6484505746814
 30
0.0
 10
380.0286874231172
 20
310.892578797264
 30
0.0
 10
380.2017211463652
 20
310.9780106732602
 30
0.0
 10
380.5131557743194
 20
311.1505744268629
 30
0.0
 10
380.6518342098902
 20
311.237671562467
 30
0.0
 10
380.896516340529
 20
311.4111701444991
 30
0.0
 10
381.0025185635676
 20
311.4975761669936
 30
0.0
 10
381.1823331226626
 20
311.6674211242462
 30
0.0
 10
381.25638694531
 20
311.751221579997
 30
0.0
 10
381.427887155604
 20
311.9920944149601
 30
0.0
 10
381.4744344476236
 20
312.1366153195236
 30
0.0
 10
381.442328174621
 20
312.3800555082292
 30
0.0
 10
381.3615745408722
 20
312.4792064394178
 30
0.0
 10
381.0823797305506
 20
312.6134343919824
 30
0.0
 10
380.8848115094612
 20
312.6499229376232
 30
0.0
 10
380.628400274564
 20
312.6531523197561
 30
0.0
  0
SPLINE
  5
16A
330
1F
100
AcDbEntity
  8
SLD-0
  6
SLD-DURCHGEHEND
 62
     7
100
AcDbSpline
210
0.0
220
0.0
230
1.0
 70
     8
 71
     3
 72
     9
 73
     5
 74
     0
 42
0.000000001
 43
0.00000001
 40
0.0
 40
0.0
 40
0.0
 40
0.0
 40
0.2503443732856361
 40
1.0
 40
1.0
 40
1.0
 40
1.0
 10
366.5994448807497
 20
311.4639390770097
 30
0.0
 10
366.6081434947355
 20
311.4764116273449
 30
0.0
 10
366.6428900874849
 20
311.5262331998115
 30
0.0
 10
366.646171883066
 20
311.5689314667487
 30
0.0
 10
366.6486320995889
 20
311.6009404628089
 30
0.0
  0
SPLINE
  5
16B
330
1F
100
AcDbEntity
  8
SLD-0
  6
SLD-DURCHGEHEND
 62
     7
100
AcDbSpline
210
0.0
220
0.0
230
1.0
 70
     8
 71
     3
 72
    18
 73
    14
 74
     0
 42
0.000000001
 43
0.00000001
 40
0.0
 40
0.0
 40
0.0
 40
0.0
 40
0.0816228669607887
 40
0.1795898908265474
 40
0.2803675892208348
 40
0.378804046835095
 40
0.4801377377289779
 40
0.5777954495106545
 40
0.678335171765652
 40
0.7751788693938872
 40
0.8748105711974179
 40
0.9720739419667297
 40
0.9999999999999999
 40
0.9999999999999999
 40
0.9999999999999999
 40
0.9999999999999999
 10
373.251665189452
 20
310.0214280531472
 30
0.0
 10
373.340128849356
 20
310.0306006593706
 30
0.0
 10
373.534770125947
 20
310.050782593816
 30
0.0
 10
373.7443433778356
 20
310.0886359109136
 30
0.0
 10
373.888147215909
 20
310.1277328081626
 30
0.0
 10
373.9395435896978
 20
310.1625795612076
 30
0.0
 10
373.8981005096556
 20
310.1881645496218
 30
0.0
 10
373.7640496907778
 20
310.2020751259434
 30
0.0
 10
373.544860459423
 20
310.2026836458238
 30
0.0
 10
373.2445084830106
 20
310.190409033021
 30
0.0
 10
372.8731198804275
 20
310.1670486232264
 30
0.0
 10
372.5522094487512
 20
310.1435505642008
 30
0.0
 10
372.3475779503444
 20
310.128676336233
 30
0.0
 10
372.3019307167514
 20
310.125358336004
 30
0.0
  0
SPLINE
  5
16C
330
1F
100
AcDbEntity
  8
SLD-0
  6
SLD-DURCHGEHEND
 62
     7
100
AcDbSpline
210
0.0
220
0.0
230
1.0
 70
     8
 71
     3
 72
    12
 73
     8
 74
     0
 42
0.000000001
 43
0.00000001
 40
0.0
 40
0.0
 40
0.0
 40
0.0
 40
0.0556976406520769
 40
0.3748035311534187
 40
0.682596614659913
 40
0.9993262410013928
 40
1.0
 40
1.0
 40
1.0
 40
1.0
 10
372.7026348715498
 20
305.9641089117566
 30
0.0
 10
372.6771129490832
 20
305.9633830521298
 30
0.0
 10
372.505369468564
 20
305.9584985588548
 30
0.0
 10
372.1418775895454
 20
305.9606252010312
 30
0.0
 10
371.6223054100922
 20
305.9732978910902
 30
0.0
 10
371.260840136687
 20
305.9875430523158
 30
0.0
 10
371.0768870786288
 20
305.9987166918404
 30
0.0
 10
371.0764965975126
 20
305.9987404103656
 30
0.0
  0
SPLINE
  5
16D
330
1F
100
AcDbEntity
  8
SLD-0
  6
SLD-DURCHGEHEND
 62
     7
100
AcDbSpline
210
0.0
220
0.0
230
1.0
 70
     8
 71
     3
 72
    10
 73
     6
 74
     0
 42
0.000000001
 43
0.00000001
 40
0.0
 40
0.0
 40
0.0
 40
0.0
 40
0.1381718160726183
 40
0.5788972806760021
 40
1.0
 40
1.0
 40
1.0
 40
1.0
 10
369.6179691016954
 20
305.9968452618863
 30
0.0
 10
369.6701539675544
 20
305.9958114247296
 30
0.0
 10
369.8887924554668
 20
305.9914799660023
 30
0.0
 10
370.3007764355472
 20
305.9949466927018
 30
0.0
 10
370.6603605026936
 20
306.0046236630342
 30
0.0
 10
370.8360588974838
 20
306.0093519819702
 30
0.0
  0
SPLINE
  5
16E
330
1F
100
AcDbEntity
  8
SLD-0
  6
SLD-DURCHGEHEND
 62
     7
100
AcDbSpline
210
0.0
220
0.0
230
1.0
 70
     8
 71
     3
 72
    24
 73
    20
 74
     0
 42
0.000000001
 43
0.00000001
 40
0.0
 40
0.0
 40
0.0
 40
0.0
 40
0.0565547346817023
 40
0.1134650240521929
 40
0.1715479867889816
 40
0.230060233722049
 40
0.2866238987295076
 40
0.3436088280758126
 40
0.4019366823854718
 40
0.4607337370090424
 40
0.5151851103527585
 40
0.5700109128796029
 40
0.6259991435503875
 40
0.6823827848303146
 40
0.7375959884865315
 40
0.79317838563085
 40
0.849912644820066
 40
0.9070416145654624
 40
1.0
 40
1.0
 40
1.0
 40
1.0
 10
377.5119391765978
 20
306.0471490623175
 30
0.0
 10
377.7617732776436
 20
306.0769482080497
 30
0.0
 10
378.2630121649582
 20
306.1367338441467
 30
0.0
 10
378.9837548434413
 20
306.2612532655185
 30
0.0
 10
379.6773881308516
 20
306.4111330500169
 30
0.0
 10
380.3254860849867
 20
306.5851815783117
 30
0.0
 10
380.9210380310775
 20
306.7783697193889
 30
0.0
 10
381.4631181898371
 20
306.9879057857837
 30
0.0
 10
381.9534671983936
 20
307.2128583944383
 30
0.0
 10
382.3741016910806
 20
307.4424137891121
 30
0.0
 10
382.7241541477155
 20
307.6698125783793
 30
0.0
 10
383.0079494014082
 20
307.8914355156933
 30
0.0
 10
383.2320556788983
 20
308.1091029760673
 30
0.0
 10
383.3922506179011
 20
308.3161044895859
 30
0.0
 10
383.4882204899791
 20
308.507193641379
 30
0.0
 10
383.5219073107001
 20
308.6797812731149
 30
0.0
 10
383.4910438458783
 20
308.8304316004747
 30
0.0
 10
383.3827993197149
 20
308.9853423927561
 30
0.0
 10
383.2093131557326
 20
309.0510153934591
 30
0.0
 10
383.1018624402495
 20
309.0916907461875
 30
0.0
  0
SPLINE
  5
16F
330
1F
100
AcDbEntity
  8
SLD-0
  6
SLD-DURCHGEHEND
 62
     7
100
AcDbSpline
210
0.0
220
0.0
230
1.0
 70
     8
 71
     3
 72
    16
 73
    12
 74
     0
 42
0.000000001
 43
0.00000001
 40
0.0
 40
0.0
 40
0.0
 40
0.0
 40
0.0051878227459204
 40
0.1071381992698494
 40
0.2098015230533722
 40
0.3106358715095656
 40
0.4121342214033581
 40
0.515693364555968
 40
0.6199555715896721
 40
0.8078406126546296
 40
1.0
 40
1.0
 40
1.0
 40
1.0
 10
366.6284182329217
 20
311.5450707354444
 30
0.0
 10
366.6162751031318
 20
311.5488303251206
 30
0.0
 10
366.3654968628368
 20
311.6264728521726
 30
0.0
 10
365.8983464826384
 20
311.7763366136934
 30
0.0
 10
365.2380606157834
 20
311.9868304396762
 30
0.0
 10
364.6148681972514
 20
312.183799531382
 30
0.0
 10
364.0250963897466
 20
312.3640755937366
 30
0.0
 10
363.4678976949368
 20
312.5249207962628
 30
0.0
 10
362.8110053045397
 20
312.6969282761944
 30
0.0
 10
362.0938939294156
 20
312.851496075278
 30
0.0
 10
361.673796922972
 20
312.8786997395626
 30
0.0
 10
361.4613860116438
 20
312.8924545510314
 30
0.0
  0
SPLINE
  5
170
330
1F
100
AcDbEntity
  8
SLD-0
  6
SLD-DURCHGEHEND
 62
     7
100
AcDbSpline
210
0.0
220
0.0
230
1.0
 70
     8
 71
     3
 72
    12
 73
     8
 74
     0
 42
0.000000001
 43
0.00000001
 40
0.0
 40
0.0
 40
0.0
 40
0.0
 40
0.2369561410842964
 40
0.4755511091236163
 40
0.7193147708875657
 40
0.9648666102240485
 40
0.9999999999999999
 40
0.9999999999999999
 40
0.9999999999999999
 40
0.9999999999999999
 10
380.8568318664828
 20
312.6430555532724
 30
0.0
 10
380.9579620575274
 20
312.6384099511738
 30
0.0
 10
381.1609218723566
 20
312.6290866172422
 30
0.0
 10
381.3962624357032
 20
312.5732241557814
 30
0.0
 10
381.570381489267
 20
312.4837304300756
 30
0.0
 10
381.6651433669198
 20
312.4029780817914
 30
0.0
 10
381.6819210623378
 20
312.3458912267198
 30
0.0
 10
381.6840211276478
 20
312.3387456610744
 30
0.0
  0
SPLINE
  5
171
330
1F
100
AcDbEntity
  8
SLD-0
  6
SLD-DURCHGEHEND
 62
     7
100
AcDbSpline
210
0.0
220
0.0
230
1.0
 70
     8
 71
     3
 72
    23
 73
    19
 74
     0
 42
0.000000001
 43
0.00000001
 40
0.0
 40
0.0
 40
0.0
 40
0.0
 40
0.0660088446325853
 40
0.1324326811193931
 40
0.2002252237715889
 40
0.2685188129581709
 40
0.3345380807761656
 40
0.4010490346121156
 40
0.4691274067333456
 40
0.5377534141816063
 40
0.6013072839558224
 40
0.6657519012338307
 40
0.7306458218685915
 40
0.7964549718542298
 40
0.8608980251604222
 40
0.9257719890832522
 40
0.991990368874846
 40
1.0
 40
1.0
 40
1.0
 40
1.0
 10
480.914267719952
 20
306.0471490621509
 30
0.0
 10
480.6644336188623
 20
306.0769482079008
 30
0.0
 10
480.1631947314593
 20
306.1367338440335
 30
0.0
 10
479.442452053646
 20
306.2612532651344
 30
0.0
 10
478.7488187636301
 20
306.4111330506863
 30
0.0
 10
478.1007208192331
 20
306.5851815750448
 30
0.0
 10
477.5051688378275
 20
306.778369730396
 30
0.0
 10
476.9630888118938
 20
306.9879057431036
 30
0.0
 10
476.4727392939985
 20
307.2128585576288
 30
0.0
 10
476.0521066785687
 20
307.4424131935316
 30
0.0
 10
475.7012380324156
 20
307.6703405833317
 30
0.0
 10
475.4176820796296
 20
307.891946630545
 30
0.0
 10
475.1937017947043
 20
308.109617733527
 30
0.0
 10
475.0342507346515
 20
308.3159729578022
 30
0.0
 10
474.9369097978045
 20
308.5076747234938
 30
0.0
 10
474.9083858134619
 20
308.6779552967851
 30
0.0
 10
474.9162152881411
 20
308.790116447104
 30
0.0
 10
474.9521155868796
 20
308.8362335643114
 30
0.0
 10
474.9559894364767
 20
308.8412098676344
 30
0.0
  0
SPLINE
  5
172
330
1F
100
AcDbEntity
  8
SLD-0
  6
SLD-DURCHGEHEND
 62
     7
100
AcDbSpline
210
0.0
220
0.0
230
1.0
 70
     8
 71
     3
 72
    30
 73
    26
 74
     0
 42
0.000000001
 43
0.00000001
 40
0.0
 40
0.0
 40
0.0
 40
0.0
 40
0.1249999999999988
 40
0.1249999999999988
 40
0.1874999999999982
 40
0.1874999999999982
 40
0.2499999999999976
 40
0.2499999999999976
 40
0.3749999999999969
 40
0.3749999999999969
 40
0.4374999999999969
 40
0.4374999999999969
 40
0.4999999999999969
 40
0.4999999999999969
 40
0.6249999999999977
 40
0.6249999999999977
 40
0.687499999999998
 40
0.687499999999998
 40
0.7499999999999984
 40
0.7499999999999984
 40
0.8124999999999988
 40
0.8124999999999988
 40
0.8749999999999992
 40
0.8749999999999992
 40
1.0
 40
1.0
 40
1.0
 40
1.0
 10
498.8394269806757
 20
309.4430547936619
 30
0.0
 10
498.5798435866557
 20
309.439621887103
 30
0.0
 10
498.2715788120703
 20
309.402120304264
 30
0.0
 10
497.7380446496325
 20
309.2988104883398
 30
0.0
 10
497.5482329390393
 20
309.2565077727147
 30
0.0
 10
497.1436435706599
 20
309.1566053585856
 30
0.0
 10
496.9284035865177
 20
309.0988239442664
 30
0.0
 10
496.2586175096599
 20
308.9079561217816
 30
0.0
 10
495.7759322207977
 20
308.7564053301508
 30
0.0
 10
494.9935384477395
 20
308.5014306346616
 30
0.0
 10
494.7213664512045
 20
308.4112902281852
 30
0.0
 10
494.1637838966229
 20
308.2258164335032
 30
0.0
 10
493.8794443961609
 20
308.1308573946812
 30
0.0
 10
493.0092152711039
 20
307.842221249222
 30
0.0
 10
492.4062829977811
 20
307.6447743381628
 30
0.0
 10
491.4626175731171
 20
307.3520372644794
 30
0.0
 10
491.1449173551189
 20
307.2561312044634
 30
0.0
 10
490.5095142095917
 20
307.071229710954
 30
0.0
 10
490.1907674016475
 20
306.981906223034
 30
0.0
 10
489.5508127237967
 20
306.8109128018563
 30
0.0
 10
489.2296055021701
 20
306.7292404027264
 30
0.0
 10
488.5843544944065
 20
306.574933340684
 30
0.0
 10
488.2599637620871
 20
306.502290524777
 30
0.0
 10
487.3016034931249
 20
306.3037649690402
 30
0.0
 10
486.6757190582903
 20
306.1955925600374
 30
0.0
 10
486.0613023696171
 20
306.113332912355
 30
0.0
  0
SPLINE
  5
173
330
1F
100
AcDbEntity
  8
SLD-0
  6
SLD-DURCHGEHEND
 62
     7
100
AcDbSpline
210
0.0
220
0.0
230
1.0
 70
     8
 71
     3
 72
    14
 73
    10
 74
     0
 42
0.000000001
 43
0.00000001
 40
0.0
 40
0.0
 40
0.0
 40
0.0
 40
0.5000000000000026
 40
0.5000000000000026
 40
0.6250000000000019
 40
0.6250000000000019
 40
0.7500000000000011
 40
0.7500000000000011
 40
1.0
 40
1.0
 40
1.0
 40
1.0
 10
505.1293237797261
 20
307.0110773082318
 30
0.0
 10
505.7632529512904
 20
307.0975513647508
 30
0.0
 10
506.2748406096752
 20
307.1500200797294
 30
0.0
 10
506.7681273285248
 20
307.164024696486
 30
0.0
 10
506.8590820728682
 20
307.1642239513442
 30
0.0
 10
507.0228872228261
 20
307.1594973776569
 30
0.0
 10
507.0961755292755
 20
307.1545892547189
 30
0.0
 10
507.2905410446405
 20
307.1325498819984
 30
0.0
 10
507.3863126004
 20
307.1080963348761
 30
0.0
 10
507.4469831876872
 20
307.0748089528655
 30
0.0
  0
SPLINE
  5
174
330
1F
100
AcDbEntity
  8
SLD-0
  6
SLD-DURCHGEHEND
 62
     7
100
AcDbSpline
210
0.0
220
0.0
230
1.0
 70
     8
 71
     3
 72
    15
 73
    11
 74
     0
 42
0.000000001
 43
0.00000001
 40
0.0
 40
0.0
 40
0.0
 40
0.0
 40
0.0595734561296722
 40
0.2083299083986978
 40
0.3509643837052163
 40
0.4975460759716239
 40
0.6437821241995421
 40
0.7940326477996823
 40
0.8963381631961733
 40
1.0
 40
1.0
 40
1.0
 40
1.0
 10
497.8146512173693
 20
306.120923493576
 30
0.0
 10
497.9569039759709
 20
306.121295310995
 30
0.0
 10
498.4543655317419
 20
306.1225955660728
 30
0.0
 10
499.3619271880113
 20
306.180790479742
 30
0.0
 10
500.5041828039871
 20
306.2887670616346
 30
0.0
 10
501.6403616386261
 20
306.4359614608756
 30
0.0
 10
502.7615287290451
 20
306.6084158619194
 30
0.0
 10
503.7135718696901
 20
306.7696786069272
 30
0.0
 10
504.5070599610892
 20
306.9072545152868
 30
0.0
 10
504.9209939041612
 20
306.9763181130364
 30
0.0
 10
505.1293237797261
 20
307.0110773082318
 30
0.0
  0
SPLINE
  5
175
330
1F
100
AcDbEntity
  8
SLD-0
  6
SLD-DURCHGEHEND
 62
     7
100
AcDbSpline
210
0.0
220
0.0
230
1.0
 70
     8
 71
     3
 72
    28
 73
    24
 74
     0
 42
0.000000001
 43
0.00000001
 40
0.0
 40
0.0
 40
0.0
 40
0.0
 40
0.1249999999999992
 40
0.1249999999999992
 40
0.1874999999999988
 40
0.1874999999999988
 40
0.2499999999999984
 40
0.2499999999999984
 40
0.3749999999999987
 40
0.3749999999999987
 40
0.4374999999999988
 40
0.4374999999999988
 40
0.4999999999999989
 40
0.4999999999999989
 40
0.562499999999999
 40
0.562499999999999
 40
0.6249999999999992
 40
0.6249999999999992
 40
0.7499999999999994
 40
0.7499999999999994
 40
0.8749999999999997
 40
0.8749999999999997
 40
1.0
 40
1.0
 40
1.0
 40
1.0
 10
483.9816062317428
 20
309.9401119725346
 30
0.0
 10
484.6048210607029
 20
309.966931182318
 30
0.0
 10
485.2380088705382
 20
310.0259059287918
 30
0.0
 10
486.2053326724078
 20
310.158796556083
 30
0.0
 10
486.5307140053334
 20
310.2105084955796
 30
0.0
 10
487.1880491203734
 20
310.3282034189612
 30
0.0
 10
487.5199362112302
 20
310.3942738463858
 30
0.0
 10
488.5020325923194
 20
310.6070683783716
 30
0.0
 10
489.1467958511644
 20
310.7697319968402
 30
0.0
 10
490.1014815483106
 20
311.0335205754848
 30
0.0
 10
490.419564125157
 20
311.1253408047087
 30
0.0
 10
491.040217701922
 20
311.3100397677942
 30
0.0
 10
491.3428980895448
 20
311.4028887028352
 30
0.0
 10
491.9340986065994
 20
311.5872919116588
 30
0.0
 10
492.2226170723816
 20
311.6788507209924
 30
0.0
 10
492.786211831083
 20
311.8584178688314
 30
0.0
 10
493.062477186337
 20
311.9468065029578
 30
0.0
 10
493.8631667082882
 20
312.2004337331757
 30
0.0
 10
494.3532558049756
 20
312.3520253087402
 30
0.0
 10
495.2553525901584
 20
312.606996249163
 30
0.0
 10
495.669827687428
 20
312.7106134452114
 30
0.0
 10
496.391639890798
 20
312.8508734718056
 30
0.0
 10
496.7031935112002
 20
312.888994613501
 30
0.0
 10
496.964820884908
 20
312.8924545510314
 30
0.0
  0
SPLINE
  5
176
330
1F
100
AcDbEntity
  8
SLD-0
  6
SLD-DURCHGEHEND
 62
     7
100
AcDbSpline
210
0.0
220
0.0
230
1.0
 70
     8
 71
     3
 72
    28
 73
    24
 74
     0
 42
0.000000001
 43
0.00000001
 40
0.0
 40
0.0
 40
0.0
 40
0.0
 40
0.1250000000000021
 40
0.1250000000000021
 40
0.1875000000000032
 40
0.1875000000000032
 40
0.2500000000000042
 40
0.2500000000000042
 40
0.3750000000000063
 40
0.3750000000000063
 40
0.4375000000000073
 40
0.4375000000000073
 40
0.5000000000000082
 40
0.5000000000000082
 40
0.6250000000000075
 40
0.6250000000000075
 40
0.7500000000000069
 40
0.7500000000000069
 40
0.8125000000000053
 40
0.8125000000000053
 40
0.8750000000000039
 40
0.8750000000000039
 40
1.0
 40
1.0
 40
1.0
 40
1.0
 10
477.5693750300543
 20
312.6430555532712
 30
0.0
 10
477.3077432423474
 20
312.6395955573672
 30
0.0
 10
477.1053491230523
 20
312.6028836284341
 30
0.0
 10
476.8882899277513
 20
312.5024048147719
 30
0.0
 10
476.830494308798
 20
312.4613303476763
 30
0.0
 10
476.7452780507085
 20
312.3646553312212
 30
0.0
 10
476.7180831543506
 20
312.3089286804351
 30
0.0
 10
476.6851425024518
 20
312.1257382464381
 30
0.0
 10
476.726266889662
 20
311.9812634566911
 30
0.0
 10
476.8875667025582
 20
311.7418850253868
 30
0.0
 10
476.9586515175847
 20
311.6577806593245
 30
0.0
 10
477.1336017671427
 20
311.4868358605267
 30
0.0
 10
477.2371159674379
 20
311.4001385676739
 30
0.0
 10
477.5955478405143
 20
311.1398592491511
 30
0.0
 10
477.8979255026038
 20
310.9660235518824
 30
0.0
 10
478.6386557078731
 20
310.6364415946495
 30
0.0
 10
479.0636004645293
 20
310.4869231348533
 30
0.0
 10
479.7770796272856
 20
310.2963316617289
 30
0.0
 10
480.02771035016
 20
310.2383838023421
 30
0.0
 10
480.5545840754889
 20
310.1354041696393
 30
0.0
 10
480.8296602671716
 20
310.0907004701318
 30
0.0
 10
481.6751282334676
 20
309.9801846899563
 30
0.0
 10
482.2704858293203
 20
309.9369229709246
 30
0.0
 10
482.8944568276891
 20
309.9261327129788
 30
0.0
  0
SPLINE
  5
177
330
1F
100
AcDbEntity
  8
SLD-0
  6
SLD-DURCHGEHEND
 62
     7
100
AcDbSpline
210
0.0
220
0.0
230
1.0
 70
     8
 71
     3
 72
    18
 73
    14
 74
     0
 42
0.000000001
 43
0.00000001
 40
0.0
 40
0.0
 40
0.0
 40
0.0
 40
0.0886697538339433
 40
0.1863249043298139
 40
0.2867817817052769
 40
0.3849048715295996
 40
0.4859159714289319
 40
0.5832627945210588
 40
0.6834824533429757
 40
0.780017853657075
 40
0.879332382667528
 40
0.9762861201131815
 40
1.0
 40
1.0
 40
1.0
 40
1.0
 10
484.923274731588
 20
310.0066863516619
 30
0.0
 10
484.827771102951
 20
310.0167127502556
 30
0.0
 10
484.6270859346778
 20
310.0377815778768
 30
0.0
 10
484.415148779524
 20
310.076725945287
 30
0.0
 10
484.2760129219744
 20
310.1160225914568
 30
0.0
 10
484.2291468026464
 20
310.1510582079756
 30
0.0
 10
484.275170246045
 20
310.1768395346882
 30
0.0
 10
484.4136805908222
 20
310.190944547381
 30
0.0
 10
484.637036876864
 20
310.1917361116821
 30
0.0
 10
484.9411550834536
 20
310.1796381587064
 30
0.0
 10
485.3160083999992
 20
310.156414782339
 30
0.0
 10
485.632618626403
 20
310.1334921245308
 30
0.0
 10
485.8311128108626
 20
310.1191668485678
 30
0.0
 10
485.8701213481368
 20
310.116351612127
 30
0.0
  0
SPLINE
  5
178
330
1F
100
AcDbEntity
  8
SLD-0
  6
SLD-DURCHGEHEND
 62
     7
100
AcDbSpline
210
0.0
220
0.0
230
1.0
 70
     8
 71
     3
 72
    21
 73
    17
 74
     0
 42
0.000000001
 43
0.00000001
 40
0.0
 40
0.0
 40
0.0
 40
0.0
 40
0.0739858825491589
 40
0.1501071507279423
 40
0.2240961548220696
 40
0.3002530250787068
 40
0.3738424510648281
 40
0.4495818032136726
 40
0.5229308038018399
 40
0.5983842762164647
 40
0.6721529419625382
 40
0.7480351718284681
 40
0.8222316276057561
 40
0.898591026775074
 40
0.972558701707205
 40
0.9999999999999999
 40
0.9999999999999999
 40
0.9999999999999999
 40
0.9999999999999999
 10
231.1242329252944
 20
242.054552040101
 30
0.0
 10
231.2003941757064
 20
242.0640822430878
 30
0.0
 10
231.3549148477768
 20
242.0834177104356
 30
0.0
 10
231.6865567035544
 20
242.1091750494672
 30
0.0
 10
232.085057485226
 20
242.1283895838874
 30
0.0
 10
232.5389783428338
 20
242.138151752355
 30
0.0
 10
233.0411531209232
 20
242.1371855859768
 30
0.0
 10
233.5678626531164
 20
242.1254504816006
 30
0.0
 10
234.114242202492
 20
242.1039758973066
 30
0.0
 10
234.6561407959332
 20
242.0754669302458
 30
0.0
 10
235.1890308381708
 20
242.042610079786
 30
0.0
 10
235.6890347721142
 20
242.0097329456458
 30
0.0
 10
236.1519379816348
 20
241.9799982538162
 30
0.0
 10
236.5486535583102
 20
241.9586385242322
 30
0.0
 10
236.8246054102486
 20
241.9473935006306
 30
0.0
 10
236.9348260271018
 20
241.9481616283618
 30
0.0
 10
236.9646517587792
 20
241.9483694839542
 30
0.0
  0
SPLINE
  5
179
330
1F
100
AcDbEntity
  8
SLD-0
  6
SLD-DURCHGEHEND
 62
     7
100
AcDbSpline
210
0.0
220
0.0
230
1.0
 70
     8
 71
     3
 72
    17
 73
    13
 74
     0
 42
0.000000001
 43
0.00000001
 40
0.0
 40
0.0
 40
0.0
 40
0.0
 40
0.0582548119279292
 40
0.157794819027149
 40
0.2602176409685837
 40
0.3597737643716438
 40
0.4622570550423715
 40
0.5611124669145537
 40
0.6628559378362481
 40
0.7613870996051711
 40
0.8627464091197184
 40
1.0
 40
1.0
 40
1.0
 40
1.0
 10
233.2173834274158
 20
242.1315662553444
 30
0.0
 10
233.1157390101486
 20
242.1245469487652
 30
0.0
 10
232.8404147597216
 20
242.1055337518338
 30
0.0
 10
232.4214325061406
 20
242.0719098808786
 30
0.0
 10
231.9793384737256
 20
242.0363473948684
 30
0.0
 10
231.595642816807
 20
242.0068766310876
 30
0.0
 10
231.2874955096916
 20
241.9871248902842
 30
0.0
 10
231.058329802331
 20
241.9783731492976
 30
0.0
 10
230.9175732938348
 20
241.981126896198
 30
0.0
 10
230.8681120943788
 20
241.9944924536186
 30
0.0
 10
230.907253591119
 20
242.0188885011208
 30
0.0
 10
231.0449994914724
 20
242.0415289350832
 30
0.0
 10
231.1242329252944
 20
242.054552040101
 30
0.0
  0
SPLINE
  5
17A
330
1F
100
AcDbEntity
  8
SLD-0
  6
SLD-DURCHGEHEND
 62
     7
100
AcDbSpline
210
0.0
220
0.0
230
1.0
 70
     8
 71
     3
 72
    28
 73
    24
 74
     0
 42
0.000000001
 43
0.00000001
 40
0.0
 40
0.0
 40
0.0
 40
0.0
 40
0.1249999999999958
 40
0.1249999999999958
 40
0.1874999999999943
 40
0.1874999999999943
 40
0.2499999999999929
 40
0.2499999999999929
 40
0.3749999999999906
 40
0.3749999999999906
 40
0.4374999999999905
 40
0.4374999999999905
 40
0.4999999999999905
 40
0.4999999999999905
 40
0.6249999999999929
 40
0.6249999999999929
 40
0.7499999999999953
 40
0.7499999999999953
 40
0.8124999999999962
 40
0.8124999999999962
 40
0.8749999999999971
 40
0.8749999999999971
 40
1.0
 40
1.0
 40
1.0
 40
1.0
 10
242.7368478150464
 20
242.0333559587218
 30
0.0
 10
242.4790309300674
 20
242.0997626272996
 30
0.0
 10
242.1742090696596
 20
242.1920880188964
 30
0.0
 10
241.6420041467888
 20
242.3660854978566
 30
0.0
 10
241.4520390131546
 20
242.430008751957
 30
0.0
 10
241.0452720078864
 20
242.5691708183964
 30
0.0
 10
240.8280734593104
 20
242.6445557699982
 30
0.0
 10
240.1500790855728
 20
242.8806644899173
 30
0.0
 10
239.6584918362332
 20
243.052932907909
 30
0.0
 10
238.8584027845478
 20
243.324125699483
 30
0.0
 10
238.5794953339072
 20
243.417201034934
 30
0.0
 10
238.0082954377324
 20
243.6029752166008
 30
0.0
 10
237.7168390534534
 20
243.6954229195372
 30
0.0
 10
236.8248289384912
 20
243.9687100681098
 30
0.0
 10
236.2060852602702
 20
244.14575035992
 30
0.0
 10
234.920514872816
 20
244.4732041414884
 30
0.0
 10
234.273925211277
 20
244.618384907428
 30
0.0
 10
233.2968145969656
 20
244.8006449672942
 30
0.0
 10
232.969905201617
 20
244.855473365654
 30
0.0
 10
232.3133834528202
 20
244.9518205250512
 30
0.0
 10
231.9847737593714
 20
244.9931088051732
 30
0.0
 10
231.0141414175852
 20
245.0932321341266
 30
0.0
 10
230.3808946100526
 20
245.129373542571
 30
0.0
 10
229.7615036804
 20
245.1328062778
 30
0.0
  0
SPLINE
  5
17B
330
1F
100
AcDbEntity
  8
SLD-0
  6
SLD-DURCHGEHEND
 62
     7
100
AcDbSpline
210
0.0
220
0.0
230
1.0
 70
     8
 71
     3
 72
    12
 73
     8
 74
     0
 42
0.000000001
 43
0.00000001
 40
0.0
 40
0.0
 40
0.0
 40
0.0
 40
0.1005843242049018
 40
0.2724382291618177
 40
0.4468113520329216
 40
0.7210744860320747
 40
1.0
 40
1.0
 40
1.0
 40
1.0
 10
245.6999668744392
 20
243.085107419898
 30
0.0
 10
245.710558191048
 20
243.0412131150202
 30
0.0
 10
245.7392453603879
 20
242.9223229521074
 30
0.0
 10
245.7107942509658
 20
242.7426593638372
 30
0.0
 10
245.60242043255
 20
242.5138208824304
 30
0.0
 10
245.3609523926688
 20
242.2814368844652
 30
0.0
 10
245.0506567982968
 20
242.1605118938908
 30
0.0
 10
244.8942013857348
 20
242.099539809103
 30
0.0
  0
SPLINE
  5
17C
330
1F
100
AcDbEntity
  8
SLD-0
  6
SLD-DURCHGEHEND
 62
     7
100
AcDbSpline
210
0.0
220
0.0
230
1.0
 70
     8
 71
     3
 72
    14
 73
    10
 74
     0
 42
0.000000001
 43
0.00000001
 40
0.0
 40
0.0
 40
0.0
 40
0.0
 40
0.1577048688604826
 40
0.3200163298041018
 40
0.4777056842218046
 40
0.6399835021045764
 40
0.7970495365770569
 40
0.95897437511378
 40
1.0
 40
1.0
 40
1.0
 40
1.0
 10
203.6305582279361
 20
242.8413129928128
 30
0.0
 10
204.0197620110854
 20
242.7942381062466
 30
0.0
 10
204.8095383009952
 20
242.6987132658678
 30
0.0
 10
205.9371470256748
 20
242.5331698043978
 30
0.0
 10
206.9972139420049
 20
242.373426291696
 30
0.0
 10
207.9440746759778
 20
242.2362686593022
 30
0.0
 10
208.7514990739652
 20
242.1414984194836
 30
0.0
 10
209.2759363260151
 20
242.096648425702
 30
0.0
 10
209.471368805038
 20
242.1029115530016
 30
0.0
 10
209.5108746994308
 20
242.1041776191484
 30
0.0
  0
SPLINE
  5
17D
330
1F
100
AcDbEntity
  8
SLD-0
  6
SLD-DURCHGEHEND
 62
     7
100
AcDbSpline
210
0.0
220
0.0
230
1.0
 70
     8
 71
     3
 72
     8
 73
     4
 74
     0
 42
0.000000001
 43
0.00000001
 40
0.0
 40
0.0
 40
0.0
 40
0.0
 40
1.0
 40
1.0
 40
1.0
 40
1.0
 10
203.2065933414768
 20
242.8744845940528
 30
0.0
 10
203.3476522209311
 20
242.8640635928562
 30
0.0
 10
203.4889717137053
 20
242.8529927120288
 30
0.0
 10
203.6305582279361
 20
242.8413129928128
 30
0.0
  0
SPLINE
  5
17E
330
1F
100
AcDbEntity
  8
SLD-0
  6
SLD-DURCHGEHEND
 62
     7
100
AcDbSpline
210
0.0
220
0.0
230
1.0
 70
     8
 71
     3
 72
    28
 73
    24
 74
     0
 42
0.000000001
 43
0.00000001
 40
0.0
 40
0.0
 40
0.0
 40
0.0
 40
0.1249999999999992
 40
0.1249999999999992
 40
0.1874999999999988
 40
0.1874999999999988
 40
0.2499999999999984
 40
0.2499999999999984
 40
0.3749999999999987
 40
0.3749999999999987
 40
0.4374999999999988
 40
0.4374999999999988
 40
0.4999999999999989
 40
0.4999999999999989
 40
0.562499999999999
 40
0.562499999999999
 40
0.6249999999999992
 40
0.6249999999999992
 40
0.7499999999999994
 40
0.7499999999999994
 40
0.8749999999999997
 40
0.8749999999999997
 40
1.0
 40
1.0
 40
1.0
 40
1.0
 10
244.0438639100306
 20
245.9263188691076
 30
0.0
 10
244.3051854794332
 20
245.953138078891
 30
0.0
 10
244.5134392518092
 20
246.0121128253648
 30
0.0
 10
244.7381132154282
 20
246.1450034526557
 30
0.0
 10
244.798319326236
 20
246.1967153921524
 30
0.0
 10
244.886974275022
 20
246.3144103155341
 30
0.0
 10
244.9151399828684
 20
246.3804807429588
 30
0.0
 10
244.9478875167996
 20
246.5932752749443
 30
0.0
 10
244.9024551877
 20
246.7559388934131
 30
0.0
 10
244.7290314389622
 20
247.0197274720578
 30
0.0
 10
244.6529274096538
 20
247.1115477012816
 30
0.0
 10
244.4672109693524
 20
247.2962466643671
 30
0.0
 10
244.35788265008
 20
247.3890955994079
 30
0.0
 10
244.1072091557904
 20
247.5734988082317
 30
0.0
 10
243.9658634211622
 20
247.6650576175654
 30
0.0
 10
243.6511930093198
 20
247.8446247654044
 30
0.0
 10
243.477009389551
 20
247.9330133995306
 30
0.0
 10
242.9112626561738
 20
248.1866406297486
 30
0.0
 10
242.4824592491046
 20
248.3382322053129
 30
0.0
 10
241.5273304304362
 20
248.593203145736
 30
0.0
 10
240.995560843537
 20
248.6968203417844
 30
0.0
 10
239.8747555507158
 20
248.8370803683785
 30
0.0
 10
239.2826934465848
 20
248.8752015100739
 30
0.0
 10
238.658394227351
 20
248.8786614476041
 30
0.0
  0
SPLINE
  5
17F
330
1F
100
AcDbEntity
  8
SLD-0
  6
SLD-DURCHGEHEND
 62
     7
100
AcDbSpline
210
0.0
220
0.0
230
1.0
 70
     8
 71
     3
 72
    28
 73
    24
 74
     0
 42
0.000000001
 43
0.00000001
 40
0.0
 40
0.0
 40
0.0
 40
0.0
 40
0.1250000000000021
 40
0.1250000000000021
 40
0.1875000000000032
 40
0.1875000000000032
 40
0.2500000000000042
 40
0.2500000000000042
 40
0.3750000000000063
 40
0.3750000000000063
 40
0.4375000000000073
 40
0.4375000000000073
 40
0.5000000000000082
 40
0.5000000000000082
 40
0.6250000000000075
 40
0.6250000000000075
 40
0.7500000000000069
 40
0.7500000000000069
 40
0.8125000000000053
 40
0.8125000000000053
 40
0.8750000000000039
 40
0.8750000000000039
 40
1.0
 40
1.0
 40
1.0
 40
1.0
 10
230.528891082922
 20
248.629262449824
 30
0.0
 10
231.153200834908
 20
248.6258024539202
 30
0.0
 10
231.7896162491
 20
248.5890905249872
 30
0.0
 10
232.7621993988722
 20
248.4886117113248
 30
0.0
 10
233.089420309354
 20
248.4475372442294
 30
0.0
 10
233.7502902683328
 20
248.350862227774
 30
0.0
 10
234.0841196151738
 20
248.295135576988
 30
0.0
 10
235.0729646837062
 20
248.111945142991
 30
0.0
 10
235.72305313889
 20
247.9674703532442
 30
0.0
 10
236.6864939985936
 20
247.7280919219398
 30
0.0
 10
237.0075726117904
 20
247.6439875558774
 30
0.0
 10
237.635304810287
 20
247.4730427570798
 30
0.0
 10
237.9416684706524
 20
247.386345464227
 30
0.0
 10
238.8393678217482
 20
247.1260661457042
 30
0.0
 10
239.4094838892004
 20
246.9522304484354
 30
0.0
 10
240.4943928315682
 20
246.6226484912024
 30
0.0
 10
240.9893284930138
 20
246.4731300314062
 30
0.0
 10
241.6667811896708
 20
246.282538558282
 30
0.0
 10
241.8817729331758
 20
246.2245906988952
 30
0.0
 10
242.2906011576166
 20
246.1216110661924
 30
0.0
 10
242.4833259833088
 20
246.0769073666848
 30
0.0
 10
243.0200531334384
 20
245.9663915865094
 30
0.0
 10
243.3267607054872
 20
245.9231298674774
 30
0.0
 10
243.5881907296268
 20
245.9123396095318
 30
0.0
  0
SPLINE
  5
180
330
1F
100
AcDbEntity
  8
SLD-0
  6
SLD-DURCHGEHEND
 62
     7
100
AcDbSpline
210
0.0
220
0.0
230
1.0
 70
     8
 71
     3
 72
    30
 73
    26
 74
     0
 42
0.000000001
 43
0.00000001
 40
0.0
 40
0.0
 40
0.0
 40
0.0
 40
0.1249999999999998
 40
0.1249999999999998
 40
0.1874999999999998
 40
0.1874999999999998
 40
0.2499999999999997
 40
0.2499999999999997
 40
0.3749999999999994
 40
0.3749999999999994
 40
0.4374999999999994
 40
0.4374999999999994
 40
0.4999999999999993
 40
0.4999999999999993
 40
0.6249999999999992
 40
0.6249999999999992
 40
0.6874999999999994
 40
0.6874999999999994
 40
0.7499999999999996
 40
0.7499999999999996
 40
0.8124999999999997
 40
0.8124999999999997
 40
0.8749999999999998
 40
0.8749999999999998
 40
1.0
 40
1.0
 40
1.0
 40
1.0
 10
176.5052452988028
 20
245.1426231228
 30
0.0
 10
175.8836786945957
 20
245.1394189704104
 30
0.0
 10
175.2506648381355
 20
245.1035267123408
 30
0.0
 10
174.284242271446
 20
245.0046449888062
 30
0.0
 10
173.9592549202105
 20
244.9641570654302
 30
0.0
 10
173.3032706204742
 20
244.8685896272884
 30
0.0
 10
172.9718053613029
 20
244.8133369209398
 30
0.0
 10
171.9903030950108
 20
244.6309717077352
 30
0.0
 10
171.3456630128664
 20
244.4863436722788
 30
0.0
 10
170.3915548944264
 20
244.2437378070146
 30
0.0
 10
170.0739515519759
 20
244.158080916666
 30
0.0
 10
169.4518303603163
 20
243.982152009278
 30
0.0
 10
169.1483315686775
 20
243.8922337828496
 30
0.0
 10
168.259447937016
 20
243.6195280650688
 30
0.0
 10
167.6954928272959
 20
243.4337712447416
 30
0.0
 10
166.8918045828807
 20
243.160318933714
 30
0.0
 10
166.6340185747223
 20
243.0710654369568
 30
0.0
 10
166.1429074567656
 20
242.8997745139934
 30
0.0
 10
165.9086917684386
 20
242.817430348414
 30
0.0
 10
165.4621029337632
 20
242.6607440396424
 30
0.0
 10
165.2497315619124
 20
242.586399433802
 30
0.0
 10
164.846541970253
 20
242.4471038789858
 30
0.0
 10
164.6556714741858
 20
242.3821548909192
 30
0.0
 10
164.1257658154083
 20
242.2067812274854
 30
0.0
 10
163.824793647148
 20
242.114288285517
 30
0.0
 10
163.5719964104412
 20
242.0479485924756
 30
0.0
  0
SPLINE
  5
181
330
1F
100
AcDbEntity
  8
SLD-0
  6
SLD-DURCHGEHEND
 62
     7
100
AcDbSpline
210
0.0
220
0.0
230
1.0
 70
     8
 71
     3
 72
    28
 73
    24
 74
     0
 42
0.000000001
 43
0.00000001
 40
0.0
 40
0.0
 40
0.0
 40
0.0
 40
0.125
 40
0.125
 40
0.1875000000000001
 40
0.1875000000000001
 40
0.2500000000000001
 40
0.2500000000000001
 40
0.3749999999999999
 40
0.3749999999999999
 40
0.4374999999999999
 40
0.4374999999999999
 40
0.4999999999999999
 40
0.4999999999999999
 40
0.5624999999999999
 40
0.5624999999999999
 40
0.6249999999999999
 40
0.6249999999999999
 40
0.7499999999999999
 40
0.7499999999999999
 40
0.875
 40
0.875
 40
1.0
 40
1.0
 40
1.0
 40
1.0
 10
162.7386291602
 20
245.9272427896
 30
0.0
 10
162.994738652972
 20
245.9379329903532
 30
0.0
 10
163.2957248412453
 20
245.981021551307
 30
0.0
 10
163.8220407057379
 20
246.0904632539408
 30
0.0
 10
164.0100114506402
 20
246.1344225125392
 30
0.0
 10
164.4131892172013
 20
246.2367454260398
 30
0.0
 10
164.6285501062347
 20
246.2952004976888
 30
0.0
 10
165.301770667314
 20
246.4859060095486
 30
0.0
 10
165.79129418017
 20
246.6346574714114
 30
0.0
 10
166.5913962111959
 20
246.8787856939942
 30
0.0
 10
166.8709673625108
 20
246.9642175699902
 30
0.0
 10
167.4428461861858
 20
247.1367813235932
 30
0.0
 10
167.7350300386861
 20
247.223878459197
 30
0.0
 10
168.3320130304943
 20
247.3973770412294
 30
0.0
 10
168.6368114316533
 20
247.4837830637238
 30
0.0
 10
169.2594833320481
 20
247.6536280209762
 30
0.0
 10
169.5788084728047
 20
247.7374284767272
 30
0.0
 10
170.5473474777205
 20
247.9783013116904
 30
0.0
 10
171.1984901257925
 20
248.1228222162536
 30
0.0
 10
172.514075893542
 20
248.3662624049594
 30
0.0
 10
173.1841154196935
 20
248.465413336148
 30
0.0
 10
174.4883099416301
 20
248.5996412887126
 30
0.0
 10
175.127600015877
 20
248.6361298343534
 30
0.0
 10
175.7540608835187
 20
248.6393592164864
 30
0.0
  0
SPLINE
  5
182
330
1F
100
AcDbEntity
  8
SLD-0
  6
SLD-DURCHGEHEND
 62
     7
100
AcDbSpline
210
0.0
220
0.0
230
1.0
 70
     8
 71
     3
 72
    14
 73
    10
 74
     0
 42
0.000000001
 43
0.00000001
 40
0.0
 40
0.0
 40
0.0
 40
0.0
 40
0.1025680054565966
 40
0.2690191540149245
 40
0.4402912711431089
 40
0.6067638726560965
 40
0.7781312290438108
 40
0.9434308500561551
 40
1.0
 40
1.0
 40
1.0
 40
1.0
 10
173.1603191975966
 20
242.1434136806688
 30
0.0
 10
173.2670832462906
 20
242.135983260038
 30
0.0
 10
173.5471079375285
 20
242.116494478296
 30
0.0
 10
173.9691855762043
 20
242.082339938927
 30
0.0
 10
174.4077766124633
 20
242.0467054847958
 30
0.0
 10
174.7890139760384
 20
242.0170031419936
 30
0.0
 10
175.0878045298823
 20
241.9978588228136
 30
0.0
 10
175.2762416541845
 20
241.989290891053
 30
0.0
 10
175.3316667984217
 20
241.9910242812466
 30
0.0
 10
175.3457983649396
 20
241.9914662380364
 30
0.0
  0
SPLINE
  5
183
330
1F
100
AcDbEntity
  8
SLD-0
  6
SLD-DURCHGEHEND
 62
     7
100
AcDbSpline
210
0.0
220
0.0
230
1.0
 70
     8
 71
     3
 72
    23
 73
    19
 74
     0
 42
0.000000001
 43
0.00000001
 40
0.0
 40
0.0
 40
0.0
 40
0.0
 40
0.0636939218612923
 40
0.1263747922284042
 40
0.1908514624910148
 40
0.253898294289414
 40
0.3187824895028192
 40
0.3816435667716666
 40
0.4463543935226579
 40
0.5087613333732465
 40
0.5729805348830485
 40
0.6353760259589313
 40
0.6995560283681274
 40
0.762397165443006
 40
0.8270469781721225
 40
0.8900992181517002
 40
0.9549991358723314
 40
1.0
 40
1.0
 40
1.0
 40
1.0
 10
175.481922776473
 20
242.006239570823
 30
0.0
 10
175.4731711574656
 20
242.0129572600932
 30
0.0
 10
175.4558071139053
 20
242.0262857938208
 30
0.0
 10
175.3143285989019
 20
242.0542346820784
 30
0.0
 10
175.0934670790487
 20
242.0834145891926
 30
0.0
 10
174.7867959047576
 20
242.1111632356666
 30
0.0
 10
174.4103811234128
 20
242.1331415007322
 30
0.0
 10
173.9681745140754
 20
242.1467607842746
 30
0.0
 10
173.4822485211674
 20
242.1498760927148
 30
0.0
 10
172.9576989911297
 20
242.1420033756404
 30
0.0
 10
172.4192625419507
 20
242.124090881151
 30
0.0
 10
171.8711927202711
 20
242.097794175884
 30
0.0
 10
171.337166972411
 20
242.0664262023156
 30
0.0
 10
170.8227788629776
 20
242.0331264245868
 30
0.0
 10
170.3495405239817
 20
242.0020831934584
 30
0.0
 10
169.9297186698498
 20
241.9775872010756
 30
0.0
 10
169.5950786957131
 20
241.9614723650258
 30
0.0
 10
169.4530837211633
 20
241.9619517060826
 30
0.0
 10
169.3949413089888
 20
241.9621479809534
 30
0.0
  0
SPLINE
  5
184
330
1F
100
AcDbEntity
  8
SLD-0
  6
SLD-DURCHGEHEND
 62
     7
100
AcDbSpline
210
0.0
220
0.0
230
1.0
 70
     8
 71
     3
 72
    14
 73
    10
 74
     0
 42
0.000000001
 43
0.00000001
 40
0.0
 40
0.0
 40
0.0
 40
0.0
 40
0.1572897809179132
 40
0.3191756384349982
 40
0.4764494213961482
 40
0.6382965174349701
 40
0.7950014592761466
 40
0.9565538853191896
 40
1.0
 40
1.0
 40
1.0
 40
1.0
 10
202.7802036104018
 20
242.8416841001718
 30
0.0
 10
202.3911349829158
 20
242.7950873386068
 30
0.0
 10
201.6016289714752
 20
242.700532237603
 30
0.0
 10
200.4754495238134
 20
242.5359365214938
 30
0.0
 10
199.4175310385962
 20
242.376711771633
 30
0.0
 10
198.4734953910882
 20
242.2396379354394
 30
0.0
 10
197.6691114198339
 20
242.1444417092842
 30
0.0
 10
197.1446226920223
 20
242.0990967539656
 30
0.0
 10
196.9489284486301
 20
242.1052420804686
 30
0.0
 10
196.90745422881
 20
242.1065444827152
 30
0.0
  0
SPLINE
  5
185
330
1F
100
AcDbEntity
  8
SLD-0
  6
SLD-DURCHGEHEND
 62
     7
100
AcDbSpline
210
0.0
220
0.0
230
1.0
 70
     8
 71
     3
 72
    12
 73
     8
 74
     0
 42
0.000000001
 43
0.00000001
 40
0.0
 40
0.0
 40
0.0
 40
0.0
 40
0.2394917667852295
 40
0.4796623067161853
 40
0.7190391020147209
 40
0.9590770231412415
 40
1.0
 40
1.0
 40
1.0
 40
1.0
 10
161.4576718087405
 20
242.1149198506024
 30
0.0
 10
161.3275551017988
 20
242.165606704844
 30
0.0
 10
161.0669529081128
 20
242.2671240711902
 30
0.0
 10
160.8088474881422
 20
242.4789910337302
 30
0.0
 10
160.6708749601878
 20
242.7308709974082
 30
0.0
 10
160.6338853541961
 20
242.9353110214218
 30
0.0
 10
160.6795420417287
 20
243.057514724622
 30
0.0
 10
160.6861921043557
 20
243.0753141385404
 30
0.0
  0
SPLINE
  5
186
330
1F
100
AcDbEntity
  8
SLD-0
  6
SLD-DURCHGEHEND
 62
     7
100
AcDbSpline
210
0.0
220
0.0
230
1.0
 70
     8
 71
     3
 72
     8
 73
     4
 74
     0
 42
0.000000001
 43
0.00000001
 40
0.0
 40
0.0
 40
0.0
 40
0.0
 40
1.0
 40
1.0
 40
1.0
 40
1.0
 10
203.2065933414768
 20
242.8744845940528
 30
0.0
 10
203.0651830538808
 20
242.8642306978452
 30
0.0
 10
202.9227667226672
 20
242.853264100622
 30
0.0
 10
202.7802036104019
 20
242.8416841001718
 30
0.0
  0
SPLINE
  5
187
330
1F
100
AcDbEntity
  8
SLD-0
  6
SLD-DURCHGEHEND
 62
     7
100
AcDbSpline
210
0.0
220
0.0
230
1.0
 70
     8
 71
     3
 72
    28
 73
    24
 74
     0
 42
0.000000001
 43
0.00000001
 40
0.0
 40
0.0
 40
0.0
 40
0.0
 40
0.1249999999999997
 40
0.1249999999999997
 40
0.1874999999999996
 40
0.1874999999999996
 40
0.2499999999999995
 40
0.2499999999999995
 40
0.3749999999999993
 40
0.3749999999999993
 40
0.4374999999999992
 40
0.4374999999999992
 40
0.4999999999999992
 40
0.4999999999999992
 40
0.6249999999999993
 40
0.6249999999999993
 40
0.7499999999999996
 40
0.7499999999999996
 40
0.8124999999999997
 40
0.8124999999999997
 40
0.8749999999999997
 40
0.8749999999999997
 40
1.0
 40
1.0
 40
1.0
 40
1.0
 10
167.7867027591287
 20
248.8917253845898
 30
0.0
 10
167.1602313222649
 20
248.8884959479728
 30
0.0
 10
166.5667725774524
 20
248.8506051029262
 30
0.0
 10
165.7246420745763
 20
248.746295646919
 30
0.0
 10
165.4520136875286
 20
248.7035972978645
 30
0.0
 10
164.9235521466522
 20
248.6029491031891
 30
0.0
 10
164.6677499335063
 20
248.5448665896388
 30
0.0
 10
163.9435269990416
 20
248.3536491049095
 30
0.0
 10
163.5115705742039
 20
248.2025144824806
 30
0.0
 10
162.9421223383137
 20
247.9510521602681
 30
0.0
 10
162.7645590106604
 20
247.8625383625283
 30
0.0
 10
162.4427841709157
 20
247.6821784384229
 30
0.0
 10
162.2985306671034
 20
247.5904857676105
 30
0.0
 10
161.914754436618
 20
247.3143509838389
 30
0.0
 10
161.7237902220202
 20
247.1287938559115
 30
0.0
 10
161.4772907401478
 20
246.7732471541545
 30
0.0
 10
161.4263749837268
 20
246.6099572431989
 30
0.0
 10
161.4500228364514
 20
246.3975940812651
 30
0.0
 10
161.4746659210978
 20
246.3322004372289
 30
0.0
 10
161.5571409570538
 20
246.2139471253018
 30
0.0
 10
161.6149370481165
 20
246.1614511650832
 30
0.0
 10
161.8321638534659
 20
246.027473125503
 30
0.0
 10
162.0358288113366
 20
245.9683146282259
 30
0.0
 10
162.2920444978029
 20
245.9413883643503
 30
0.0
  0
SPLINE
  5
188
330
1F
100
AcDbEntity
  8
SLD-0
  6
SLD-DURCHGEHEND
 62
     7
100
AcDbSpline
210
0.0
220
0.0
230
1.0
 70
     8
 71
     3
 72
    38
 73
    34
 74
     0
 42
0.000000001
 43
0.00000001
 40
0.5
 40
0.5
 40
0.5
 40
0.5
 40
0.53125
 40
0.53125
 40
0.5625
 40
0.5625
 40
0.59375
 40
0.59375
 40
0.625
 40
0.625
 40
0.65625
 40
0.65625
 40
0.6875
 40
0.6875
 40
0.71875
 40
0.71875
 40
0.75
 40
0.75
 40
0.78125
 40
0.78125
 40
0.8125
 40
0.8125
 40
0.84375
 40
0.84375
 40
0.875
 40
0.875
 40
0.90625
 40
0.90625
 40
0.9375
 40
0.9375
 40
0.96875
 40
0.96875
 40
1.0
 40
1.0
 40
1.0
 40
1.0
 10
462.2363443298583
 20
241.2507126240838
 30
0.0
 10
462.3164915865342
 20
241.4465176146418
 30
0.0
 10
462.4151949099003
 20
241.6335610904508
 30
0.0
 10
462.6507813525046
 20
241.9897514873954
 30
0.0
 10
462.7858548933684
 20
242.1555900039158
 30
0.0
 10
463.0836060286734
 20
242.4561237341798
 30
0.0
 10
463.2485074345804
 20
242.593015470416
 30
0.0
 10
463.6030589736154
 20
242.8322690229728
 30
0.0
 10
463.7896195408524
 20
242.9329644902042
 30
0.0
 10
464.1808719973508
 20
243.0973958238936
 30
0.0
 10
464.387841134183
 20
243.1613443805866
 30
0.0
 10
464.804438460817
 20
243.246292151453
 30
0.0
 10
465.0151093079114
 20
243.2682038119092
 30
0.0
 10
465.441259247397
 20
243.2706003942812
 30
0.0
 10
465.65578024146
 20
243.2505376206792
 30
0.0
 10
466.0712539801382
 20
243.170268642281
 30
0.0
 10
466.2748030756398
 20
243.1100628553428
 30
0.0
 10
466.671656094316
 20
242.948376148128
 30
0.0
 10
466.8589278576258
 20
242.8494114365528
 30
0.0
 10
467.212083593038
 20
242.6165432285868
 30
0.0
 10
467.3796063189566
 20
242.4808579633226
 30
0.0
 10
467.6822589676619
 20
242.181548025529
 30
0.0
 10
467.8174275213586
 20
242.0187017345464
 30
0.0
 10
468.0556294163368
 20
241.6667246201482
 30
0.0
 10
468.158721940694
 20
241.4762819076654
 30
0.0
 10
468.3230889587205
 20
241.0850483657726
 30
0.0
 10
468.3858578541518
 20
240.8824742116878
 30
0.0
 10
468.4715707779184
 20
240.4630560751738
 30
0.0
 10
468.4934474845552
 20
240.2498445346606
 30
0.0
 10
468.4955813716948
 20
239.8262273240746
 30
0.0
 10
468.4758553191904
 20
239.612836852972
 30
0.0
 10
468.3944522042194
 20
239.1926391208654
 30
0.0
 10
468.3335686987368
 20
238.9882506822948
 30
0.0
 10
468.2523187988434
 20
238.789598490738
 30
0.0
  0
SPLINE
  5
189
330
1F
100
AcDbEntity
  8
SLD-0
  6
SLD-DURCHGEHEND
 62
     7
100
AcDbSpline
210
0.0
220
0.0
230
1.0
 70
     8
 71
     3
 72
    38
 73
    34
 74
     0
 42
0.000000001
 43
0.00000001
 40
0.0
 40
0.0
 40
0.0
 40
0.0
 40
0.03125
 40
0.03125
 40
0.0625
 40
0.0625
 40
0.09375
 40
0.09375
 40
0.125
 40
0.125
 40
0.15625
 40
0.15625
 40
0.1875
 40
0.1875
 40
0.21875
 40
0.21875
 40
0.25
 40
0.25
 40
0.28125
 40
0.28125
 40
0.3125
 40
0.3125
 40
0.34375
 40
0.34375
 40
0.375
 40
0.375
 40
0.40625
 40
0.40625
 40
0.4375
 40
0.4375
 40
0.46875
 40
0.46875
 40
0.5
 40
0.5
 40
0.5
 40
0.5
 10
468.2523187988434
 20
238.789598490738
 30
0.0
 10
468.1710688989498
 20
238.5909462991812
 30
0.0
 10
468.0717156983777
 20
238.4035553211842
 30
0.0
 10
467.8382016067692
 20
238.0503371944178
 30
0.0
 10
467.7022925642728
 20
237.8828898929434
 30
0.0
 10
467.4023255100283
 20
237.5801561940182
 30
0.0
 10
467.2392254815314
 20
237.4450415082962
 30
0.0
 10
466.8869476186404
 20
237.207087692222
 30
0.0
 10
466.6963375090066
 20
237.1041157518758
 30
0.0
 10
466.3048662577141
 20
236.9400868160698
 30
0.0
 10
466.1022762110374
 20
236.877554653883
 30
0.0
 10
465.6830566878571
 20
236.7923833137832
 30
0.0
 10
465.4697438314473
 20
236.770771493376
 30
0.0
 10
465.0463511597886
 20
236.7692641460092
 30
0.0
 10
464.8329997377812
 20
236.7893622354544
 30
0.0
 10
464.4137561991959
 20
236.8713219078662
 30
0.0
 10
464.2110157291098
 20
236.9322066751172
 30
0.0
 10
463.8188704332526
 20
237.0928284370024
 30
0.0
 10
463.6277626039788
 20
237.1939943736162
 30
0.0
 10
463.2738385951365
 20
237.4285544357586
 30
0.0
 10
463.1096104217716
 20
237.5620747581266
 30
0.0
 10
462.8068511330282
 20
237.8619857078302
 30
0.0
 10
462.6692460944846
 20
238.0282610271062
 30
0.0
 10
462.4321914909298
 20
238.3795954234378
 30
0.0
 10
462.3309617000296
 20
238.5662688736566
 30
0.0
 10
462.1646128091012
 20
238.9625964563718
 30
0.0
 10
462.102284457458
 20
239.1656259338158
 30
0.0
 10
462.0176725583829
 20
239.580756005915
 30
0.0
 10
461.9954704958
 20
239.7952913083816
 30
0.0
 10
461.9936973079613
 20
240.2209865264404
 30
0.0
 10
462.0135561488287
 20
240.4315126968174
 30
0.0
 10
462.0943865242028
 20
240.8480507140506
 30
0.0
 10
462.1561970731824
 20
241.0549076335258
 30
0.0
 10
462.2363443298583
 20
241.2507126240838
 30
0.0
  0
SPLINE
  5
18A
330
1F
100
AcDbEntity
  8
SLD-0
  6
SLD-DURCHGEHEND
 62
     7
100
AcDbSpline
210
0.0
220
0.0
230
1.0
 70
     8
 71
     3
 72
    28
 73
    24
 74
     0
 42
0.000000001
 43
0.00000001
 40
0.0
 40
0.0
 40
0.0
 40
0.0
 40
0.1249999999999958
 40
0.1249999999999958
 40
0.1874999999999943
 40
0.1874999999999943
 40
0.2499999999999929
 40
0.2499999999999929
 40
0.3749999999999906
 40
0.3749999999999906
 40
0.4374999999999905
 40
0.4374999999999905
 40
0.4999999999999905
 40
0.4999999999999905
 40
0.6249999999999929
 40
0.6249999999999929
 40
0.7499999999999953
 40
0.7499999999999953
 40
0.8124999999999962
 40
0.8124999999999962
 40
0.8749999999999971
 40
0.8749999999999971
 40
1.0
 40
1.0
 40
1.0
 40
1.0
 10
456.6397039090136
 20
233.3873711680612
 30
0.0
 10
456.8975207939926
 20
232.7712863882536
 30
0.0
 10
457.2023426544004
 20
232.188838166248
 30
0.0
 10
457.7345475772714
 20
231.367688854321
 30
0.0
 10
457.9245127109053
 20
231.1027688851172
 30
0.0
 10
458.3312797161735
 20
230.5914602636212
 30
0.0
 10
458.5484782647496
 20
230.3450157566894
 30
0.0
 10
459.2264726384872
 20
229.6515661048764
 30
0.0
 10
459.7180598878268
 20
229.243800192958
 30
0.0
 10
460.5181489395124
 20
228.7140256821756
 30
0.0
 10
460.7970563901528
 20
228.550330927593
 30
0.0
 10
461.3682562863276
 20
228.255876638813
 30
0.0
 10
461.6597126706066
 20
228.1252645659572
 30
0.0
 10
462.5517227855689
 20
227.781131027433
 30
0.0
 10
463.1704664637898
 20
227.6147502691004
 30
0.0
 10
464.456036851244
 20
227.4082661955592
 30
0.0
 10
465.1026265127829
 20
227.3711792587812
 30
0.0
 10
466.0797371270946
 20
227.4069938056966
 30
0.0
 10
466.4066465224432
 20
227.434305740649
 30
0.0
 10
467.0631682712399
 20
227.5199443069666
 30
0.0
 10
467.3917779646886
 20
227.578311166107
 30
0.0
 10
468.3624103064748
 20
227.7959608926524
 30
0.0
 10
468.9956571140075
 20
227.9979960494124
 30
0.0
 10
469.6150480436602
 20
228.2575664881234
 30
0.0
  0
SPLINE
  5
18B
330
1F
100
AcDbEntity
  8
SLD-0
  6
SLD-DURCHGEHEND
 62
     7
100
AcDbSpline
210
0.0
220
0.0
230
1.0
 70
     8
 71
     3
 72
    30
 73
    26
 74
     0
 42
0.000000001
 43
0.00000001
 40
0.0
 40
0.0
 40
0.0
 40
0.0
 40
0.1249999999999988
 40
0.1249999999999988
 40
0.1874999999999982
 40
0.1874999999999982
 40
0.2499999999999976
 40
0.2499999999999976
 40
0.3749999999999969
 40
0.3749999999999969
 40
0.4374999999999969
 40
0.4374999999999969
 40
0.4999999999999969
 40
0.4999999999999969
 40
0.6249999999999977
 40
0.6249999999999977
 40
0.687499999999998
 40
0.687499999999998
 40
0.7499999999999984
 40
0.7499999999999984
 40
0.8124999999999988
 40
0.8124999999999988
 40
0.8749999999999992
 40
0.8749999999999992
 40
1.0
 40
1.0
 40
1.0
 40
1.0
 10
459.9516763814111
 20
251.3125304286932
 30
0.0
 10
459.3322545376029
 20
251.0529470346732
 30
0.0
 10
458.7457715927528
 20
250.7446822600878
 30
0.0
 10
457.9138976665433
 20
250.2111480976499
 30
0.0
 10
457.6446507953365
 20
250.0213363870567
 30
0.0
 10
457.1228243000364
 20
249.6167470186776
 30
0.0
 10
456.8700470741539
 20
249.4015070345352
 30
0.0
 10
456.1542453846387
 20
248.7317209576774
 30
0.0
 10
455.7272342946905
 20
248.2490356688152
 30
0.0
 10
455.1636195908927
 20
247.466641895757
 30
0.0
 10
454.9878011318315
 20
247.194469899222
 30
0.0
 10
454.6679759895453
 20
246.6368873446402
 30
0.0
 10
454.5243345558483
 20
246.3525478441784
 30
0.0
 10
454.1412341315244
 20
245.4823187191214
 30
0.0
 10
453.9491723805193
 20
244.8793864457986
 30
0.0
 10
453.7600405582427
 20
243.9357210211346
 30
0.0
 10
453.7144170937887
 20
243.6180208031364
 30
0.0
 10
453.6576744015547
 20
242.9826176576092
 30
0.0
 10
453.6463438339101
 20
242.663870849665
 30
0.0
 10
453.6569323307457
 20
242.0239161718142
 30
0.0
 10
453.6788532891377
 20
241.7027089501876
 30
0.0
 10
453.7558927397363
 20
241.057457942424
 30
0.0
 10
453.8112843258465
 20
240.7330672101046
 30
0.0
 10
454.0227869704407
 20
239.7747069411424
 30
0.0
 10
454.2244085808339
 20
239.148822506308
 30
0.0
 10
454.4823503384092
 20
238.5344058176346
 30
0.0
  0
SPLINE
  5
18C
330
1F
100
AcDbEntity
  8
SLD-0
  6
SLD-DURCHGEHEND
 62
     7
100
AcDbSpline
210
0.0
220
0.0
230
1.0
 70
     8
 71
     3
 72
    14
 73
    10
 74
     0
 42
0.000000001
 43
0.00000001
 40
0.0
 40
0.0
 40
0.0
 40
0.0
 40
0.5000000000000026
 40
0.5000000000000026
 40
0.6250000000000019
 40
0.6250000000000019
 40
0.7500000000000011
 40
0.7500000000000011
 40
1.0
 40
1.0
 40
1.0
 40
1.0
 10
490.908548759009
 20
257.6024272281514
 30
0.0
 10
491.6409997921124
 20
258.2363563997158
 30
0.0
 10
492.4519127648892
 20
258.7479440581005
 30
0.0
 10
493.559965190689
 20
259.2412307769501
 30
0.0
 10
493.7862332751558
 20
259.3321855212936
 30
0.0
 10
494.2408228975704
 20
259.4959906712514
 30
0.0
 10
494.4700816812085
 20
259.5692789777008
 30
0.0
 10
495.1636806458634
 20
259.7636444930658
 30
0.0
 10
495.6337966071094
 20
259.8594160488254
 30
0.0
 10
496.1119785663304
 20
259.9200866361126
 30
0.0
  0
SPLINE
  5
18D
330
1F
100
AcDbEntity
  8
SLD-0
  6
SLD-DURCHGEHEND
 62
     7
100
AcDbSpline
210
0.0
220
0.0
230
1.0
 70
     8
 71
     3
 72
    32
 73
    28
 74
     0
 42
0.000000001
 43
0.00000001
 40
0.0
 40
0.0
 40
0.0
 40
0.0
 40
0.1250000000000002
 40
0.1250000000000002
 40
0.1875000000000004
 40
0.1875000000000004
 40
0.2500000000000005
 40
0.2500000000000005
 40
0.3125000000000006
 40
0.3125000000000006
 40
0.3750000000000008
 40
0.3750000000000008
 40
0.4375000000000009
 40
0.4375000000000009
 40
0.500000000000001
 40
0.500000000000001
 40
0.5625000000000011
 40
0.5625000000000011
 40
0.6250000000000012
 40
0.6250000000000012
 40
0.7500000000000008
 40
0.7500000000000008
 40
0.8750000000000004
 40
0.8750000000000004
 40
0.9375000000000002
 40
0.9375000000000002
 40
1.0
 40
1.0
 40
1.0
 40
1.0
 10
495.7459934961618
 20
245.9841050310672
 30
0.0
 10
495.0896162072236
 20
246.023752693181
 30
0.0
 10
494.4559702881574
 20
246.1531267795344
 30
0.0
 10
493.5364304429706
 20
246.4771444338572
 30
0.0
 10
493.2340337158438
 20
246.6081009471076
 30
0.0
 10
492.6576800529066
 20
246.90692424672
 30
0.0
 10
492.381450396543
 20
247.0753856440124
 30
0.0
 10
491.8525180313836
 20
247.4503745796844
 30
0.0
 10
491.598644151417
 20
247.6580149871796
 30
0.0
 10
491.1207693080364
 20
248.1087496967288
 30
0.0
 10
490.899905403516
 20
248.3485666836812
 30
0.0
 10
490.4932304175326
 20
248.856345077461
 30
0.0
 10
490.3074198886416
 20
249.124306534157
 30
0.0
 10
489.9719176781818
 20
249.689306254323
 30
0.0
 10
489.8228495777492
 20
249.986282217009
 30
0.0
 10
489.5711414572078
 20
250.5897616105182
 30
0.0
 10
489.4669682582092
 20
250.8986443780868
 30
0.0
 10
489.3019220596024
 20
251.530687454314
 30
0.0
 10
489.2408563134954
 20
251.8565586997654
 30
0.0
 10
489.1285245376749
 20
252.832350663913
 30
0.0
 10
489.14478507081
 20
253.481121383934
 30
0.0
 10
489.3601150887266
 20
254.773361330525
 30
0.0
 10
489.5542606773012
 20
255.3885862560302
 30
0.0
 10
489.9725690145414
 20
256.2684233173186
 30
0.0
 10
490.1340252580174
 20
256.5545404596988
 30
0.0
 10
490.4928489195332
 20
257.0975583839586
 30
0.0
 10
490.6910222758742
 20
257.3564149990736
 30
0.0
 10
490.908548759009
 20
257.6024272281514
 30
0.0
  0
SPLINE
  5
18E
330
1F
100
AcDbEntity
  8
SLD-0
  6
SLD-DURCHGEHEND
 62
     7
100
AcDbSpline
210
0.0
220
0.0
230
1.0
 70
     8
 71
     3
 72
     8
 73
     4
 74
     0
 42
0.000000001
 43
0.00000001
 40
0.0
 40
0.0
 40
0.0
 40
0.0
 40
1.0
 40
1.0
 40
1.0
 40
1.0
 10
496.1699583826212
 20
246.0255495334474
 30
0.0
 10
496.0288995031668
 20
246.008570942383
 30
0.0
 10
495.8875800103926
 20
245.9947452893236
 30
0.0
 10
495.7459934961618
 20
245.9841050310672
 30
0.0
  0
SPLINE
  5
18F
330
1F
100
AcDbEntity
  8
SLD-0
  6
SLD-DURCHGEHEND
 62
     7
100
AcDbSpline
210
0.0
220
0.0
230
1.0
 70
     8
 71
     3
 72
    27
 73
    23
 74
     0
 42
0.000000001
 43
0.00000001
 40
0.0
 40
0.0
 40
0.0
 40
0.0
 40
0.0373482670639144
 40
0.0919652119964917
 40
0.1444885069250923
 40
0.1985511296474492
 40
0.250827798985173
 40
0.3045990036763888
 40
0.3572767948498883
 40
0.4114559735661143
 40
0.464574703298875
 40
0.5192438693841089
 40
0.572153675694779
 40
0.6266300539112108
 40
0.6789956780685256
 40
0.7328835513907428
 40
0.7852230326128616
 40
0.8390510349890054
 40
0.8919172711033967
 40
0.9462996422397343
 40
0.9994299360835898
 40
1.0
 40
1.0
 40
1.0
 40
1.0
 10
468.4845613441386
 20
239.9404688833372
 30
0.0
 10
468.4851057066376
 20
240.0677398664626
 30
0.0
 10
468.4864461279358
 20
240.3811279796002
 30
0.0
 10
468.3821422533922
 20
240.8661821482748
 30
0.0
 10
468.1890943128728
 20
241.3816185486956
 30
0.0
 10
467.9134430392582
 20
241.8501868043574
 30
0.0
 10
467.5621860007542
 20
242.2690348126886
 30
0.0
 10
467.1499174619818
 20
242.620380645521
 30
0.0
 10
466.679922321414
 20
242.9012224405784
 30
0.0
 10
466.171593387739
 20
243.098920170505
 30
0.0
 10
465.6305348010956
 20
243.2101051091566
 30
0.0
 10
465.0819873691326
 20
243.2285777884592
 30
0.0
 10
464.5331551122812
 20
243.1539778587742
 30
0.0
 10
464.0115560461701
 20
242.9905274064788
 30
0.0
 10
463.5218923060702
 20
242.7408943927408
 30
0.0
 10
463.0866190443352
 20
242.417893819259
 30
0.0
 10
462.707974841992
 20
242.024152052789
 30
0.0
 10
462.402923545888
 20
241.5763694602876
 30
0.0
 10
462.171025358709
 20
241.0779186399408
 30
0.0
 10
462.037978331383
 20
240.5505312805854
 30
0.0
 10
461.9806927213996
 20
240.18273255271
 30
0.0
 10
461.9945690625226
 20
240.0007469831566
 30
0.0
 10
461.9947163688292
 20
239.998815089016
 30
0.0
  0
SPLINE
  5
190
330
1F
100
AcDbEntity
  8
SLD-0
  6
SLD-DURCHGEHEND
 62
     7
100
AcDbSpline
210
0.0
220
0.0
230
1.0
 70
     8
 71
     3
 72
    30
 73
    26
 74
     0
 42
0.000000001
 43
0.00000001
 40
0.0
 40
0.0
 40
0.0
 40
0.0
 40
0.1249999999999998
 40
0.1249999999999998
 40
0.1874999999999998
 40
0.1874999999999998
 40
0.2499999999999997
 40
0.2499999999999997
 40
0.3749999999999994
 40
0.3749999999999994
 40
0.4374999999999994
 40
0.4374999999999994
 40
0.4999999999999993
 40
0.4999999999999993
 40
0.6249999999999992
 40
0.6249999999999992
 40
0.6874999999999994
 40
0.6874999999999994
 40
0.7499999999999996
 40
0.7499999999999996
 40
0.8124999999999997
 40
0.8124999999999997
 40
0.8749999999999998
 40
0.8749999999999998
 40
1.0
 40
1.0
 40
1.0
 40
1.0
 10
522.8713064253902
 20
228.4796650656705
 30
0.0
 10
523.4928730295976
 20
228.2252570590611
 30
0.0
 10
524.1258868860576
 20
228.0292953589619
 30
0.0
 10
525.0923094527471
 20
227.8204995807339
 30
0.0
 10
525.4172968039827
 20
227.7652199960769
 30
0.0
 10
526.0732811037191
 20
227.6844276460789
 30
0.0
 10
526.4047463628903
 20
227.6591059371577
 30
0.0
 10
527.3862486291823
 20
227.6306067546813
 30
0.0
 10
528.0308887113266
 20
227.6731872351813
 30
0.0
 10
528.9849968297666
 20
227.8332926325395
 30
0.0
 10
529.3026001722174
 20
227.9033357130287
 30
0.0
 10
529.9247213638769
 20
228.0753856992515
 30
0.0
 10
530.2282201555156
 20
228.1768855912765
 30
0.0
 10
531.117103787177
 20
228.5274465282539
 30
0.0
 10
531.6810588968973
 20
228.8221486881079
 30
0.0
 10
532.4847471413126
 20
229.3618516745693
 30
0.0
 10
532.742533149471
 20
229.5562561207297
 30
0.0
 10
533.2336442674276
 20
229.9693114951041
 30
0.0
 10
533.4678599557545
 20
230.1885580334313
 30
0.0
 10
533.9144487904299
 20
230.6521318349359
 30
0.0
 10
534.1268201622806
 20
230.8964600331083
 30
0.0
 10
534.53000975394
 20
231.4103953509747
 30
0.0
 10
534.7208802500073
 20
231.6804409701015
 30
0.0
 10
535.2507859087849
 20
232.5117316780045
 30
0.0
 10
535.551758077045
 20
233.0990515901767
 30
0.0
 10
535.804555313752
 20
233.7175182986571
 30
0.0
  0
SPLINE
  5
191
330
1F
100
AcDbEntity
  8
SLD-0
  6
SLD-DURCHGEHEND
 62
     7
100
AcDbSpline
210
0.0
220
0.0
230
1.0
 70
     8
 71
     3
 72
    38
 73
    34
 74
     0
 42
0.000000001
 43
0.00000001
 40
0.5000000000000006
 40
0.5000000000000006
 40
0.5000000000000006
 40
0.5000000000000006
 40
0.5312500000000007
 40
0.5312500000000007
 40
0.5625000000000007
 40
0.5625000000000007
 40
0.5937500000000007
 40
0.5937500000000007
 40
0.6250000000000006
 40
0.6250000000000006
 40
0.6562500000000006
 40
0.6562500000000006
 40
0.6875000000000006
 40
0.6875000000000006
 40
0.7187500000000006
 40
0.7187500000000006
 40
0.7500000000000006
 40
0.7500000000000006
 40
0.7812500000000006
 40
0.7812500000000006
 40
0.8125000000000006
 40
0.8125000000000006
 40
0.8437500000000006
 40
0.8437500000000006
 40
0.8750000000000004
 40
0.8750000000000004
 40
0.9062500000000004
 40
0.9062500000000004
 40
0.9375000000000003
 40
0.9375000000000003
 40
0.9687500000000002
 40
0.9687500000000002
 40
1.0
 40
1.0
 40
1.0
 40
1.0
 10
524.1370142234223
 20
241.511512220579
 30
0.0
 10
524.0565527804418
 20
241.3151729448768
 30
0.0
 10
523.9955722954144
 20
241.1120600934156
 30
0.0
 10
523.913555990461
 20
240.6919472526972
 30
0.0
 10
523.8935471966372
 20
240.4785101606598
 30
0.0
 10
523.8951345754402
 20
240.0548935732106
 30
0.0
 10
523.9167887990254
 20
239.841450176819
 30
0.0
 10
524.0017213195576
 20
239.4226793166862
 30
0.0
 10
524.0640260026142
 20
239.2202762125656
 30
0.0
 10
524.227422937746
 20
238.8290393859772
 30
0.0
 10
524.3299399041994
 20
238.6385585741654
 30
0.0
 10
524.5669429932811
 20
238.2862602474058
 30
0.0
 10
524.7016172006435
 20
238.122947618811
 30
0.0
 10
525.0037573741535
 20
237.8222743242594
 30
0.0
 10
525.170969015462
 20
237.6859541733602
 30
0.0
 10
525.5240382056966
 20
237.4515820233064
 30
0.0
 10
525.7116037533648
 20
237.3517464241444
 30
0.0
 10
526.1092252202666
 20
237.1885822215942
 30
0.0
 10
526.312720548403
 20
237.1279247385524
 30
0.0
 10
526.7287030076365
 20
237.0467402462654
 30
0.0
 10
526.943599293681
 20
237.0263420764022
 30
0.0
 10
527.3694875543164
 20
237.0281981733708
 30
0.0
 10
527.5800134711462
 20
237.0498652920584
 30
0.0
 10
527.9963382061318
 20
237.1343332148278
 30
0.0
 10
528.2028646480913
 20
237.1979524834698
 30
0.0
 10
528.5935448456532
 20
237.3616702064604
 30
0.0
 10
528.7800176891802
 20
237.4620255376308
 30
0.0
 10
529.1348050430926
 20
237.7008215076134
 30
0.0
 10
529.29962879842
 20
237.8372668278636
 30
0.0
 10
529.598082534037
 20
238.1376226768224
 30
0.0
 10
529.7337043739706
 20
238.3035605142622
 30
0.0
 10
529.9706262721046
 20
238.6606278666026
 30
0.0
 10
530.0706649670487
 20
238.849297378228
 30
0.0
 10
530.1520935297006
 20
239.0482101857888
 30
0.0
  0
SPLINE
  5
192
330
1F
100
AcDbEntity
  8
SLD-0
  6
SLD-DURCHGEHEND
 62
     7
100
AcDbSpline
210
0.0
220
0.0
230
1.0
 70
     8
 71
     3
 72
    38
 73
    34
 74
     0
 42
0.000000001
 43
0.00000001
 40
0.0
 40
0.0
 40
0.0
 40
0.0
 40
0.0312500000000001
 40
0.0312500000000001
 40
0.0625000000000002
 40
0.0625000000000002
 40
0.0937500000000003
 40
0.0937500000000003
 40
0.1250000000000003
 40
0.1250000000000003
 40
0.1562500000000003
 40
0.1562500000000003
 40
0.1875000000000004
 40
0.1875000000000004
 40
0.2187500000000004
 40
0.2187500000000004
 40
0.2500000000000004
 40
0.2500000000000004
 40
0.2812500000000005
 40
0.2812500000000005
 40
0.3125000000000005
 40
0.3125000000000005
 40
0.3437500000000006
 40
0.3437500000000006
 40
0.3750000000000006
 40
0.3750000000000006
 40
0.4062500000000007
 40
0.4062500000000007
 40
0.4375000000000006
 40
0.4375000000000006
 40
0.4687500000000006
 40
0.4687500000000006
 40
0.5000000000000006
 40
0.5000000000000006
 40
0.5000000000000006
 40
0.5000000000000006
 10
530.1520935297006
 20
239.0482101857888
 30
0.0
 10
530.2335220923524
 20
239.2471229933498
 30
0.0
 10
530.2940321312313
 20
239.4506332292192
 30
0.0
 10
530.3749701073992
 20
239.866473113563
 30
0.0
 10
530.3952765966384
 20
240.0811965141744
 30
0.0
 10
530.3932885986512
 20
240.5068812026034
 30
0.0
 10
530.3715708126228
 20
240.7172127207972
 30
0.0
 10
530.287073087108
 20
241.1329871279148
 30
0.0
 10
530.223437151396
 20
241.3393036482218
 30
0.0
 10
530.0596845788366
 20
241.7295009869326
 30
0.0
 10
529.9593341089025
 20
241.9156620993656
 30
0.0
 10
529.720636151221
 20
242.2697326483618
 30
0.0
 10
529.5840775570286
 20
242.4344111547806
 30
0.0
 10
529.2836845351572
 20
242.7323124395558
 30
0.0
 10
529.1176158979102
 20
242.867722837983
 30
0.0
 10
528.7609345483962
 20
243.1038717424546
 30
0.0
 10
528.5734875608534
 20
243.2029221548478
 30
0.0
 10
528.1808181380184
 20
243.3638973918932
 30
0.0
 10
527.9733043117639
 20
243.4260213527962
 30
0.0
 10
527.5559574434374
 20
243.507304208111
 30
0.0
 10
527.3451074151512
 20
243.5273583897824
 30
0.0
 10
526.9189944455202
 20
243.5260058979936
 30
0.0
 10
526.7046377311783
 20
243.5040556149936
 30
0.0
 10
526.289891052439
 20
243.420131949997
 30
0.0
 10
526.0869385979872
 20
243.3581565642474
 30
0.0
 10
525.6914895548844
 20
243.1929686228792
 30
0.0
 10
525.505094451363
 20
243.0923537437704
 30
0.0
 10
525.1540196068736
 20
242.856391742533
 30
0.0
 10
524.9877191165215
 20
242.7192545610614
 30
0.0
 10
524.6876963204692
 20
242.41727090629
 30
0.0
 10
524.5539700006404
 20
242.2532386768418
 30
0.0
 10
524.3188928495853
 20
241.899200543935
 30
0.0
 10
524.2174756664028
 20
241.7078514962812
 30
0.0
 10
524.1370142234223
 20
241.511512220579
 30
0.0
  0
SPLINE
  5
193
330
1F
100
AcDbEntity
  8
SLD-0
  6
SLD-DURCHGEHEND
 62
     7
100
AcDbSpline
210
0.0
220
0.0
230
1.0
 70
     8
 71
     3
 72
    32
 73
    28
 74
     0
 42
0.000000001
 43
0.00000001
 40
0.0
 40
0.0
 40
0.0
 40
0.0
 40
0.1249999999999999
 40
0.1249999999999999
 40
0.1874999999999998
 40
0.1874999999999998
 40
0.2499999999999997
 40
0.2499999999999997
 40
0.3124999999999997
 40
0.3124999999999997
 40
0.3749999999999996
 40
0.3749999999999996
 40
0.4374999999999995
 40
0.4374999999999995
 40
0.4999999999999994
 40
0.4999999999999994
 40
0.5624999999999993
 40
0.5624999999999993
 40
0.6249999999999993
 40
0.6249999999999993
 40
0.7499999999999991
 40
0.7499999999999991
 40
0.874999999999999
 40
0.874999999999999
 40
0.9374999999999996
 40
0.9374999999999996
 40
1.0
 40
1.0
 40
1.0
 40
1.0
 10
496.596348113696
 20
245.985786569341
 30
0.0
 10
497.2538671901746
 20
246.028105887668
 30
0.0
 10
497.8882076602258
 20
246.160394326217
 30
0.0
 10
498.8081330485734
 20
246.4891397588638
 30
0.0
 10
499.1105008498163
 20
246.6217252982814
 30
0.0
 10
499.6865074029332
 20
246.9237917729936
 30
0.0
 10
499.9624435782946
 20
247.0938906822897
 30
0.0
 10
500.4905428118755
 20
247.4722016360974
 30
0.0
 10
500.7439414510876
 20
247.6816028997037
 30
0.0
 10
501.2202526996328
 20
248.1355462716003
 30
0.0
 10
501.4402227326711
 20
248.3769410160888
 30
0.0
 10
501.8448705254257
 20
248.8878427979115
 30
0.0
 10
502.0295479831275
 20
249.1573496773148
 30
0.0
 10
502.3625066816313
 20
249.7254332280532
 30
0.0
 10
502.5100507027564
 20
250.0237321782648
 30
0.0
 10
502.7585581373896
 20
250.6297269155019
 30
0.0
 10
502.861029057978
 20
250.9398073902857
 30
0.0
 10
503.0224250755247
 20
251.5741392641409
 30
0.0
 10
503.0815117857923
 20
251.9011078849076
 30
0.0
 10
503.1875818342313
 20
252.8791215425123
 30
0.0
 10
503.1667794958409
 20
253.5296110237381
 30
0.0
 10
502.9419095259094
 20
254.8219842204856
 30
0.0
 10
502.7429385293382
 20
255.4368511822639
 30
0.0
 10
502.3169723161651
 20
256.3154242523207
 30
0.0
 10
502.1530431849441
 20
256.6007010674243
 30
0.0
 10
501.789405458702
 20
257.1417104107057
 30
0.0
 10
501.588848232102
 20
257.3994152627035
 30
0.0
 10
501.3689434144815
 20
257.6441136221485
 30
0.0
  0
SPLINE
  5
194
330
1F
100
AcDbEntity
  8
SLD-0
  6
SLD-DURCHGEHEND
 62
     7
100
AcDbSpline
210
0.0
220
0.0
230
1.0
 70
     8
 71
     3
 72
    10
 73
     6
 74
     0
 42
0.000000001
 43
0.00000001
 40
0.0
 40
0.0
 40
0.0
 40
0.0
 40
0.5
 40
0.5
 40
1.0
 40
1.0
 40
1.0
 40
1.0
 10
501.3689434144815
 20
257.6441136221485
 30
0.0
 10
500.6274408176438
 20
258.274519857321
 30
0.0
 10
499.8047684656403
 20
258.7828906227538
 30
0.0
 10
498.0096154142531
 20
259.5590727427814
 30
0.0
 10
497.0781464981308
 20
259.8095378262524
 30
0.0
 10
496.1119785663304
 20
259.9200866361126
 30
0.0
  0
SPLINE
  5
195
330
1F
100
AcDbEntity
  8
SLD-0
  6
SLD-DURCHGEHEND
 62
     7
100
AcDbSpline
210
0.0
220
0.0
230
1.0
 70
     8
 71
     3
 72
    28
 73
    24
 74
     0
 42
0.000000001
 43
0.00000001
 40
0.0
 40
0.0
 40
0.0
 40
0.0
 40
0.125
 40
0.125
 40
0.1875000000000001
 40
0.1875000000000001
 40
0.2500000000000001
 40
0.2500000000000001
 40
0.3750000000000001
 40
0.3750000000000001
 40
0.4375
 40
0.4375
 40
0.4999999999999999
 40
0.4999999999999999
 40
0.6249999999999999
 40
0.6249999999999999
 40
0.7499999999999999
 40
0.7499999999999999
 40
0.8125
 40
0.8125
 40
0.875
 40
0.875
 40
1.0
 40
1.0
 40
1.0
 40
1.0
 10
537.9188799154628
 20
238.8823674489564
 30
0.0
 10
538.1715543833029
 20
239.4986619077976
 30
0.0
 10
538.3669663383502
 20
240.1238473260019
 30
0.0
 10
538.5696027122649
 20
241.07673073898
 30
0.0
 10
538.6219895330663
 20
241.3968940060523
 30
0.0
 10
538.6945784270721
 20
242.0428487696644
 30
0.0
 10
538.7145381322256
 20
242.3689570086744
 30
0.0
 10
538.7232154720675
 20
243.3332967570336
 30
0.0
 10
538.6623084036821
 20
243.965310817287
 30
0.0
 10
538.4685979475499
 20
244.8995184337494
 30
0.0
 10
538.3862496179236
 20
245.2103803591068
 30
0.0
 10
538.1888051784657
 20
245.8182969995586
 30
0.0
 10
538.0741983403501
 20
246.1146618602289
 30
0.0
 10
537.6842137791058
 20
246.9826012076937
 30
0.0
 10
537.3626787558308
 20
247.5338001987124
 30
0.0
 10
536.5965740865379
 20
248.5815240445268
 30
0.0
 10
536.1642304203446
 20
249.0617230878439
 30
0.0
 10
535.4462817265629
 20
249.7232749837646
 30
0.0
 10
535.1952983076883
 20
249.9339084193898
 30
0.0
 10
534.6696158911527
 20
250.3354566708287
 30
0.0
 10
534.3955995939997
 20
250.5256391800126
 30
0.0
 10
533.5544343133523
 20
251.05588825182
 30
0.0
 10
532.9634752504542
 20
251.3600296757528
 30
0.0
 10
532.3419396674435
 20
251.6144249853467
 30
0.0
  0
SPLINE
  5
196
330
1F
100
AcDbEntity
  8
SLD-0
  6
SLD-DURCHGEHEND
 62
     7
100
AcDbSpline
210
0.0
220
0.0
230
1.0
 70
     8
 71
     3
 72
     8
 73
     4
 74
     0
 42
0.000000001
 43
0.00000001
 40
0.0
 40
0.0
 40
0.0
 40
0.0
 40
1.0
 40
1.0
 40
1.0
 40
1.0
 10
496.1699583826212
 20
246.0255495334474
 30
0.0
 10
496.3113686702172
 20
246.009155810823
 30
0.0
 10
496.4537850014306
 20
245.9958491354744
 30
0.0
 10
496.596348113696
 20
245.985786569341
 30
0.0
  0
SPLINE
  5
197
330
1F
100
AcDbEntity
  8
SLD-0
  6
SLD-DURCHGEHEND
 62
     7
100
AcDbSpline
210
0.0
220
0.0
230
1.0
 70
     8
 71
     3
 72
    27
 73
    23
 74
     0
 42
0.000000001
 43
0.00000001
 40
0.0
 40
0.0
 40
0.0
 40
0.0
 40
0.0286268303355425
 40
0.0832449970698022
 40
0.135769466964344
 40
0.189833299087987
 40
0.242111137874544
 40
0.295883545447915
 40
0.3485625150434949
 40
0.402742905768408
 40
0.4558628237872118
 40
0.5105332128423351
 40
0.5634442027653497
 40
0.6179217996389342
 40
0.6702885952350363
 40
0.7241776740493291
 40
0.7765183261254072
 40
0.8303475326542907
 40
0.8832149514063472
 40
0.9375985390968633
 40
0.9907300214854547
 40
1.0
 40
1.0
 40
1.0
 40
1.0
 10
523.9051688395534
 20
240.2598399748964
 30
0.0
 10
523.9043544316938
 20
240.3573568300506
 30
0.0
 10
523.9019861855732
 20
240.640929626145
 30
0.0
 10
523.9990912455125
 20
241.0973296661
 30
0.0
 10
524.1869352112274
 20
241.6144125830314
 30
0.0
 10
524.4589046836112
 20
242.0852496556044
 30
0.0
 10
524.8065817709372
 20
242.5070177066468
 30
0.0
 10
525.2159091451113
 20
242.8617902247776
 30
0.0
 10
525.6835251805326
 20
243.1465441659582
 30
0.0
 10
526.1901727624974
 20
243.3484763403332
 30
0.0
 10
526.73027003893
 20
243.4641717048606
 30
0.0
 10
527.2786328101143
 20
243.4872201732792
 30
0.0
 10
527.8280605873292
 20
243.4172012447202
 30
0.0
 10
528.3510035756676
 20
243.2581072198254
 30
0.0
 10
528.842732778898
 20
243.0125667768886
 30
0.0
 10
529.2807049272878
 20
242.693207044163
 30
0.0
 10
529.6625906201172
 20
242.3026363369474
 30
0.0
 10
529.9715421422922
 20
241.857410669035
 30
0.0
 10
530.2070102977985
 20
241.3609153716406
 30
0.0
 10
530.3467311316562
 20
240.8346330851614
 30
0.0
 10
530.4059126457872
 20
240.4378158505612
 30
0.0
 10
530.3893448955948
 20
240.2262411334424
 30
0.0
 10
530.3868836921856
 20
240.1948108904076
 30
0.0
  0
SPLINE
  5
198
330
1F
100
AcDbEntity
  8
SLD-0
  6
SLD-DURCHGEHEND
 62
     7
100
AcDbSpline
210
0.0
220
0.0
230
1.0
 70
     8
 71
     3
 72
    46
 73
    42
 74
     0
 42
0.000000001
 43
0.00000001
 40
0.4999999999999969
 40
0.4999999999999969
 40
0.4999999999999969
 40
0.4999999999999969
 40
0.5312499999999971
 40
0.5312499999999971
 40
0.5468749999999971
 40
0.5468749999999971
 40
0.5624999999999971
 40
0.5624999999999971
 40
0.5937499999999971
 40
0.5937499999999971
 40
0.6249999999999971
 40
0.6249999999999971
 40
0.6562499999999971
 40
0.6562499999999971
 40
0.6874999999999971
 40
0.6874999999999971
 40
0.7031249999999972
 40
0.7031249999999972
 40
0.7187499999999972
 40
0.7187499999999972
 40
0.7499999999999972
 40
0.7499999999999972
 40
0.7812499999999972
 40
0.7812499999999972
 40
0.7968749999999971
 40
0.7968749999999971
 40
0.8124999999999971
 40
0.8124999999999971
 40
0.8437499999999976
 40
0.8437499999999976
 40
0.874999999999998
 40
0.874999999999998
 40
0.9062499999999984
 40
0.9062499999999984
 40
0.9218749999999987
 40
0.9218749999999987
 40
0.937499999999999
 40
0.937499999999999
 40
0.9687499999999994
 40
0.9687499999999994
 40
1.0
 40
1.0
 40
1.0
 40
1.0
 10
499.353699632849
 20
247.8508687209559
 30
0.0
 10
499.6871426034998
 20
248.0600358161956
 30
0.0
 10
499.9982403909068
 20
248.300232156796
 30
0.0
 10
500.4306878885848
 20
248.7080167619224
 30
0.0
 10
500.5691636867274
 20
248.8521907090866
 30
0.0
 10
500.8284747818468
 20
249.150221729768
 30
0.0
 10
500.9501470025078
 20
249.304808897764
 30
0.0
 10
501.2916167204924
 20
249.785004090685
 30
0.0
 10
501.4889888525692
 20
250.1289079011172
 30
0.0
 10
501.8141841417706
 20
250.8537833672016
 30
0.0
 10
501.9389190147643
 20
251.2267806247848
 30
0.0
 10
502.1149395290296
 20
251.993259349842
 30
0.0
 10
502.1660109477382
 20
252.391207312081
 30
0.0
 10
502.1888061560809
 20
253.1799693968618
 30
0.0
 10
502.1617653929055
 20
253.5718345735112
 30
0.0
 10
502.0634250953366
 20
254.1558505806032
 30
0.0
 10
502.0206220962322
 20
254.3509606956914
 30
0.0
 10
501.9165712388099
 20
254.7335935194766
 30
0.0
 10
501.85548830344
 20
254.9210515918024
 30
0.0
 10
501.6457657312549
 20
255.4721484469808
 30
0.0
 10
501.4709087163752
 20
255.8246190848472
 30
0.0
 10
501.048630710293
 20
256.4986493742412
 30
0.0
 10
500.8064131125586
 20
256.811360271827
 30
0.0
 10
500.4021394514766
 20
257.2401187982478
 30
0.0
 10
500.2603121250903
 20
257.3765824454962
 30
0.0
 10
499.9622461327218
 20
257.6363492036779
 30
0.0
 10
499.8051535362362
 20
257.760182636898
 30
0.0
 10
499.3211828971382
 20
258.104331650744
 30
0.0
 10
498.9801103724708
 20
258.299497121811
 30
0.0
 10
498.2616957704404
 20
258.6223747637624
 30
0.0
 10
497.8808682556186
 20
258.7502477267976
 30
0.0
 10
497.1132436789368
 20
258.926369438241
 30
0.0
 10
496.7234854356284
 20
258.976613132723
 30
0.0
 10
496.1297792189624
 20
258.9942994238244
 30
0.0
 10
495.9297953660544
 20
258.9903686550474
 30
0.0
 10
495.5354046900336
 20
258.9631415486135
 30
0.0
 10
495.339969395079
 20
258.93993468785
 30
0.0
 10
494.758845812825
 20
258.8420673973656
 30
0.0
 10
494.377073734805
 20
258.7389721603174
 30
0.0
 10
493.6330667017596
 20
258.4562142103286
 30
0.0
 10
493.2782905451558
 20
258.2796600540758
 30
0.0
 10
492.9408090346096
 20
258.0677933308616
 30
0.0
  0
SPLINE
  5
199
330
1F
100
AcDbEntity
  8
SLD-0
  6
SLD-DURCHGEHEND
 62
     7
100
AcDbSpline
210
0.0
220
0.0
230
1.0
 70
     8
 71
     3
 72
    47
 73
    43
 74
     0
 42
0.000000001
 43
0.00000001
 40
0.0
 40
0.0
 40
0.0
 40
0.0
 40
0.0312499999999999
 40
0.0312499999999999
 40
0.0468749999999997
 40
0.0468749999999997
 40
0.0624999999999996
 40
0.0624999999999996
 40
0.0937499999999992
 40
0.0937499999999992
 40
0.1249999999999988
 40
0.1249999999999988
 40
0.1562499999999985
 40
0.1562499999999985
 40
0.1718749999999983
 40
0.1718749999999983
 40
0.1874999999999981
 40
0.2031249999999979
 40
0.2031249999999979
 40
0.2187499999999977
 40
0.2187499999999977
 40
0.2499999999999974
 40
0.2499999999999974
 40
0.2812499999999971
 40
0.2812499999999971
 40
0.3124999999999967
 40
0.3124999999999967
 40
0.3281249999999968
 40
0.3281249999999968
 40
0.3437499999999969
 40
0.3437499999999969
 40
0.3749999999999966
 40
0.3749999999999966
 40
0.4062499999999963
 40
0.4062499999999963
 40
0.4218749999999964
 40
0.4218749999999964
 40
0.4374999999999965
 40
0.4374999999999965
 40
0.4687499999999967
 40
0.4687499999999967
 40
0.4999999999999969
 40
0.4999999999999969
 40
0.4999999999999969
 40
0.4999999999999969
 10
492.9408090346096
 20
258.0677933308616
 30
0.0
 10
492.6033275240634
 20
257.8559266076474
 30
0.0
 10
492.2922771595852
 20
257.6144884130424
 30
0.0
 10
491.863726908362
 20
257.2097879829004
 30
0.0
 10
491.7272615000762
 20
257.0677445910316
 30
0.0
 10
491.4673913859762
 20
256.7690453428536
 30
0.0
 10
491.3437235550122
 20
256.6118416484502
 30
0.0
 10
491.0004895066036
 20
256.128277098456
 30
0.0
 10
490.805594877502
 20
255.7871865813274
 30
0.0
 10
490.4830538477728
 20
255.0679125596918
 30
0.0
 10
490.3556146048758
 20
254.6871082552192
 30
0.0
 10
490.1803002839344
 20
253.9199768874946
 30
0.0
 10
490.1303117237314
 20
253.5300723705172
 30
0.0
 10
490.1131802737262
 20
252.9354804227356
 30
0.0
 10
490.1173260730456
 20
252.7357970853516
 30
0.0
 10
490.1448947598878
 20
252.3419631965316
 30
0.0
 10
490.1916167408104
 20
251.9514293436388
 30
0.0
 10
490.2760664851846
 20
251.5673958333526
 30
0.0
 10
490.3796369398804
 20
251.1866567448732
 30
0.0
 10
490.4413753944118
 20
250.9969559059474
 30
0.0
 10
490.6534699563293
 20
250.440670722372
 30
0.0
 10
490.8291215973594
 20
250.0888836900324
 30
0.0
 10
491.2471069328426
 20
249.4224312320484
 30
0.0
 10
491.492705493261
 20
249.1048946272342
 30
0.0
 10
492.0343530555728
 20
248.5315840593738
 30
0.0
 10
492.330691786956
 20
248.27370159437
 30
0.0
 10
492.8136853639146
 20
247.930277383528
 30
0.0
 10
492.982124570513
 20
247.8225783607572
 30
0.0
 10
493.3261094097976
 20
247.6259031819998
 30
0.0
 10
493.5018181684048
 20
247.5366564084392
 30
0.0
 10
494.0398257633984
 20
247.2955336997122
 30
0.0
 10
494.4128997075594
 20
247.1700155648246
 30
0.0
 10
495.1889754612488
 20
246.9921880940296
 30
0.0
 10
495.580554695413
 20
246.94264878077
 30
0.0
 10
496.1696933442546
 20
246.9255562559038
 30
0.0
 10
496.3665579226014
 20
246.92942269204
 30
0.0
 10
496.761277546267
 20
246.9566858939988
 30
0.0
 10
496.9599440672596
 20
246.9803025825246
 30
0.0
 10
497.5450624759786
 20
247.0793414805522
 30
0.0
 10
497.924161600736
 20
247.1826058110854
 30
0.0
 10
498.6606718864701
 20
247.4626899088654
 30
0.0
 10
499.0202566621982
 20
247.6417016257162
 30
0.0
 10
499.353699632849
 20
247.8508687209559
 30
0.0
  0
SPLINE
  5
19A
330
1F
100
AcDbEntity
  8
SLD-0
  6
SLD-DURCHGEHEND
 62
     7
100
AcDbSpline
210
0.0
220
0.0
230
1.0
 70
     8
 71
     3
 72
    28
 73
    24
 74
     0
 42
0.000000001
 43
0.00000001
 40
0.0
 40
0.0
 40
0.0
 40
0.0
 40
0.1249999999999992
 40
0.1249999999999992
 40
0.1874999999999988
 40
0.1874999999999988
 40
0.2499999999999984
 40
0.2499999999999984
 40
0.3749999999999987
 40
0.3749999999999987
 40
0.4374999999999988
 40
0.4374999999999988
 40
0.4999999999999989
 40
0.4999999999999989
 40
0.562499999999999
 40
0.562499999999999
 40
0.6249999999999992
 40
0.6249999999999992
 40
0.7499999999999994
 40
0.7499999999999994
 40
0.8749999999999997
 40
0.8749999999999997
 40
1.0
 40
1.0
 40
1.0
 40
1.0
 10
320.4113085037204
 20
244.6046006647654
 30
0.0
 10
320.1499869343178
 20
243.9813858358054
 30
0.0
 10
319.9417331619418
 20
243.3481980259698
 30
0.0
 10
319.7170591983228
 20
242.3808742241002
 30
0.0
 10
319.6568530875149
 20
242.0554928911746
 30
0.0
 10
319.568198138729
 20
241.3981577761348
 30
0.0
 10
319.5400324308826
 20
241.066270685278
 30
0.0
 10
319.5072848969514
 20
240.0841743041888
 30
0.0
 10
319.552717226051
 20
239.4394110453436
 30
0.0
 10
319.7261409747888
 20
238.4847253481974
 30
0.0
 10
319.8022450040972
 20
238.1666427713512
 30
0.0
 10
319.9879614443986
 20
237.545989194586
 30
0.0
 10
320.097289763671
 20
237.2433088069634
 30
0.0
 10
320.3479632579605
 20
236.6521082899086
 30
0.0
 10
320.4893089925887
 20
236.3635898241264
 30
0.0
 10
320.8039794044312
 20
235.799995065425
 30
0.0
 10
320.9781630241999
 20
235.5237297101712
 30
0.0
 10
321.5439097575772
 20
234.7230401882198
 30
0.0
 10
321.9727131646464
 20
234.2329510915324
 30
0.0
 10
322.9278419833147
 20
233.3308543063496
 30
0.0
 10
323.459611570214
 20
232.91637920908
 30
0.0
 10
324.5804168630352
 20
232.19456700571
 30
0.0
 10
325.1724789671662
 20
231.8830133853078
 30
0.0
 10
325.7967781864
 20
231.6213860116
 30
0.0
  0
SPLINE
  5
19B
330
1F
100
AcDbEntity
  8
SLD-0
  6
SLD-DURCHGEHEND
 62
     7
100
AcDbSpline
210
0.0
220
0.0
230
1.0
 70
     8
 71
     3
 72
    28
 73
    24
 74
     0
 42
0.000000001
 43
0.00000001
 40
0.0
 40
0.0
 40
0.0
 40
0.0
 40
0.1250000000000021
 40
0.1250000000000021
 40
0.1875000000000032
 40
0.1875000000000032
 40
0.2500000000000042
 40
0.2500000000000042
 40
0.3750000000000063
 40
0.3750000000000063
 40
0.4375000000000073
 40
0.4375000000000073
 40
0.5000000000000082
 40
0.5000000000000082
 40
0.6250000000000075
 40
0.6250000000000075
 40
0.7500000000000069
 40
0.7500000000000069
 40
0.8125000000000053
 40
0.8125000000000053
 40
0.8750000000000039
 40
0.8750000000000039
 40
1.0
 40
1.0
 40
1.0
 40
1.0
 10
333.9262813308944
 20
251.016831866391
 30
0.0
 10
333.3019715789084
 20
251.278463654098
 30
0.0
 10
332.6655561647162
 20
251.480857773393
 30
0.0
 10
331.6929730149441
 20
251.697916968694
 30
0.0
 10
331.3657521044622
 20
251.7557125876474
 30
0.0
 10
330.7048821454835
 20
251.8409288457368
 30
0.0
 10
330.3710527986427
 20
251.8681237420948
 30
0.0
 10
329.3822077301102
 20
251.9010643939936
 30
0.0
 10
328.7321192749262
 20
251.8599400067834
 30
0.0
 10
327.7686784152228
 20
251.6986401938874
 30
0.0
 10
327.4475998020258
 20
251.6275553788608
 30
0.0
 10
326.8198676035294
 20
251.4526051293028
 30
0.0
 10
326.513503943164
 20
251.3490909290074
 30
0.0
 10
325.615804592068
 20
250.9906590559312
 30
0.0
 10
325.0456885246158
 20
250.6882813938418
 30
0.0
 10
323.9607795822482
 20
249.9475511885722
 30
0.0
 10
323.4658439208024
 20
249.5226064319162
 30
0.0
 10
322.7883912241454
 20
248.80912726916
 30
0.0
 10
322.5733994806404
 20
248.5584965462856
 30
0.0
 10
322.1645712561998
 20
248.0316228209566
 30
0.0
 10
321.9718464305074
 20
247.756546629274
 30
0.0
 10
321.435119280378
 20
246.911078662978
 30
0.0
 10
321.128411708329
 20
246.3157210671252
 30
0.0
 10
320.8669816841894
 20
245.6917500687564
 30
0.0
  0
SPLINE
  5
19C
330
1F
100
AcDbEntity
  8
SLD-0
  6
SLD-DURCHGEHEND
 62
     7
100
AcDbSpline
210
0.0
220
0.0
230
1.0
 70
     8
 71
     3
 72
    22
 73
    18
 74
     0
 42
0.000000001
 43
0.00000001
 40
0.0
 40
0.0
 40
0.0
 40
0.0
 40
0.125
 40
0.125
 40
0.25
 40
0.25
 40
0.375
 40
0.375
 40
0.5
 40
0.5
 40
0.625
 40
0.625
 40
0.75
 40
0.75
 40
0.875
 40
0.875
 40
1.0
 40
1.0
 40
1.0
 40
1.0
 10
353.2415474797695
 20
231.4822961151151
 30
0.0
 10
353.4068827659092
 20
231.8767538822888
 30
0.0
 10
353.6022464849157
 20
232.2609690344428
 30
0.0
 10
354.0520032925694
 20
233.0016928637672
 30
0.0
 10
354.3012650976718
 20
233.3501096788822
 30
0.0
 10
354.8462543207612
 20
234.0054115166552
 30
0.0
 10
355.1419873240556
 20
234.3122897615112
 30
0.0
 10
355.7810071062788
 20
234.8840106657851
 30
0.0
 10
356.117972785443
 20
235.1430441774395
 30
0.0
 10
356.8214955443146
 20
235.6073275400981
 30
0.0
 10
357.1887319717766
 20
235.8131738414988
 30
0.0
 10
357.9554398412974
 20
236.1719802420815
 30
0.0
 10
358.352502107327
 20
236.3232970135787
 30
0.0
 10
359.156509434286
 20
236.5645765314777
 30
0.0
 10
359.5660223449054
 20
236.6557993227909
 30
0.0
 10
360.4014577023466
 20
236.7784560104772
 30
0.0
 10
360.8305866766558
 20
236.8095374046546
 30
0.0
 10
361.255112255643
 20
236.8086320997144
 30
0.0
  0
SPLINE
  5
19D
330
1F
100
AcDbEntity
  8
SLD-0
  6
SLD-DURCHGEHEND
 62
     7
100
AcDbSpline
210
0.0
220
0.0
230
1.0
 70
     8
 71
     3
 72
    34
 73
    30
 74
     0
 42
0.000000001
 43
0.00000001
 40
0.0
 40
0.0
 40
0.0
 40
0.0
 40
0.0625000000000002
 40
0.0625000000000002
 40
0.1250000000000004
 40
0.1250000000000004
 40
0.1875000000000007
 40
0.1875000000000007
 40
0.2500000000000009
 40
0.2500000000000009
 40
0.3750000000000012
 40
0.3750000000000012
 40
0.4375000000000012
 40
0.4375000000000012
 40
0.5000000000000011
 40
0.5000000000000011
 40
0.562500000000001
 40
0.562500000000001
 40
0.6250000000000009
 40
0.6250000000000009
 40
0.6875000000000009
 40
0.6875000000000009
 40
0.7500000000000009
 40
0.7500000000000009
 40
0.8750000000000004
 40
0.8750000000000004
 40
0.9375000000000002
 40
0.9375000000000002
 40
1.0
 40
1.0
 40
1.0
 40
1.0
 10
361.1829299613164
 20
219.5102518525091
 30
0.0
 10
360.8312781901082
 20
219.5124354012277
 30
0.0
 10
360.4784393850346
 20
219.5358895154017
 30
0.0
 10
359.7698795238294
 20
219.6273595938643
 30
0.0
 10
359.4169319352204
 20
219.6953408850517
 30
0.0
 10
358.7283234178854
 20
219.8723107881199
 30
0.0
 10
358.3904293744496
 20
219.9815563448684
 30
0.0
 10
357.7275074518878
 20
220.2417970902097
 30
0.0
 10
357.4005311656024
 20
220.3938792778069
 30
0.0
 10
356.4537592249397
 20
220.9083436107627
 30
0.0
 10
355.8783480276386
 20
221.320780627981
 30
0.0
 10
355.0951278796294
 20
222.0407720020227
 30
0.0
 10
354.8478912078428
 20
222.2980532774507
 30
0.0
 10
354.3929849707451
 20
222.8331114654257
 30
0.0
 10
354.1834375105462
 20
223.1125010823979
 30
0.0
 10
353.799181648373
 20
223.695096355608
 30
0.0
 10
353.6239071044456
 20
223.9994595260496
 30
0.0
 10
353.3115170171488
 20
224.6282396527014
 30
0.0
 10
353.1759739285008
 20
224.9491134710424
 30
0.0
 10
352.9446454452122
 20
225.6040490895486
 30
0.0
 10
352.8488641336762
 20
225.9381098877411
 30
0.0
 10
352.697607980694
 20
226.6202652003855
 30
0.0
 10
352.6419890598262
 20
226.9709161542288
 30
0.0
 10
352.5412671495093
 20
228.0226559085628
 30
0.0
 10
352.5595719614699
 20
228.7240581799952
 30
0.0
 10
352.7183460353231
 20
229.7782231166574
 30
0.0
 10
352.794248185358
 20
230.1318990430196
 30
0.0
 10
352.9870953171733
 20
230.8188714103538
 30
0.0
 10
353.1041419896157
 20
231.1544733973589
 30
0.0
 10
353.2415474797695
 20
231.4822961151151
 30
0.0
  0
SPLINE
  5
19E
330
1F
100
AcDbEntity
  8
SLD-0
  6
SLD-DURCHGEHEND
 62
     7
100
AcDbSpline
210
0.0
220
0.0
230
1.0
 70
     8
 71
     3
 72
    38
 73
    34
 74
     0
 42
0.000000001
 43
0.00000001
 40
0.5
 40
0.5
 40
0.5
 40
0.5
 40
0.53125
 40
0.53125
 40
0.5625
 40
0.5625
 40
0.59375
 40
0.59375
 40
0.625
 40
0.625
 40
0.65625
 40
0.65625
 40
0.6875
 40
0.6875
 40
0.71875
 40
0.71875
 40
0.75
 40
0.75
 40
0.78125
 40
0.78125
 40
0.8125
 40
0.8125
 40
0.84375
 40
0.84375
 40
0.875
 40
0.875
 40
0.90625
 40
0.90625
 40
0.9375
 40
0.9375
 40
0.96875
 40
0.96875
 40
1.0
 40
1.0
 40
1.0
 40
1.0
 10
333.3205947613657
 20
239.8340865307265
 30
0.0
 10
333.2386277302928
 20
239.6383169779674
 30
0.0
 10
333.1380846446266
 20
239.4515380539122
 30
0.0
 10
332.8988303279492
 20
239.0964454614742
 30
0.0
 10
332.7622223611506
 20
238.9317604330406
 30
0.0
 10
332.4616447452858
 20
238.6338161668718
 30
0.0
 10
332.295268438369
 20
238.4983608112438
 30
0.0
 10
331.9396247573564
 20
238.2632014330804
 30
0.0
 10
331.7526627819444
 20
238.1645180947706
 30
0.0
 10
331.3607103347502
 20
238.0040897033674
 30
0.0
 10
331.1537009719536
 20
237.9422565695248
 30
0.0
 10
330.7375383284794
 20
237.8613836198682
 30
0.0
 10
330.5269538111958
 20
237.8413711086086
 30
0.0
 10
330.1005915570848
 20
237.8428436840282
 30
0.0
 10
329.8862141329476
 20
237.8648468259218
 30
0.0
 10
329.4708592218444
 20
237.94899239654
 30
0.0
 10
329.2671470914212
 20
238.0112494790144
 30
0.0
 10
328.8707866018432
 20
238.1769634289604
 30
0.0
 10
328.6839607823772
 20
238.2778847394012
 30
0.0
 10
328.3321437561912
 20
238.5144867055578
 30
0.0
 10
328.1655392512448
 20
238.6519981063468
 30
0.0
 10
327.8657633847878
 20
238.953796581297
 30
0.0
 10
327.7321405555966
 20
239.1176621241586
 30
0.0
 10
327.4972020343654
 20
239.4712965912948
 30
0.0
 10
327.3961818845242
 20
239.661758393102
 30
0.0
 10
327.235586183987
 20
240.0527830197098
 30
0.0
 10
327.174548071439
 20
240.2552408964794
 30
0.0
 10
327.0922522062778
 20
240.6746757406058
 30
0.0
 10
327.0721530880498
 20
240.886827854131
 30
0.0
 10
327.0732968841266
 20
241.3097554303488
 30
0.0
 10
327.0947145364356
 20
241.5232261040978
 30
0.0
 10
327.1795591865292
 20
241.9427858889164
 30
0.0
 10
327.2422000636536
 20
242.1468689392132
 30
0.0
 10
327.325324353265
 20
242.3451875503214
 30
0.0
  0
SPLINE
  5
19F
330
1F
100
AcDbEntity
  8
SLD-0
  6
SLD-DURCHGEHEND
 62
     7
100
AcDbSpline
210
0.0
220
0.0
230
1.0
 70
     8
 71
     3
 72
    38
 73
    34
 74
     0
 42
0.000000001
 43
0.00000001
 40
0.0
 40
0.0
 40
0.0
 40
0.0
 40
0.03125
 40
0.03125
 40
0.0625
 40
0.0625
 40
0.09375
 40
0.09375
 40
0.125
 40
0.125
 40
0.15625
 40
0.15625
 40
0.1875
 40
0.1875
 40
0.21875
 40
0.21875
 40
0.25
 40
0.25
 40
0.28125
 40
0.28125
 40
0.3125
 40
0.3125
 40
0.34375
 40
0.34375
 40
0.375
 40
0.375
 40
0.40625
 40
0.40625
 40
0.4375
 40
0.4375
 40
0.46875
 40
0.46875
 40
0.5
 40
0.5
 40
0.5
 40
0.5
 10
327.325324353265
 20
242.3451875503214
 30
0.0
 10
327.4084486428765
 20
242.5435061614296
 30
0.0
 10
327.5096501623938
 20
242.7303270314698
 30
0.0
 10
327.746681910185
 20
243.0819495680396
 30
0.0
 10
327.8843015513452
 20
243.2483651028834
 30
0.0
 10
328.1869235546532
 20
243.5483893738588
 30
0.0
 10
328.3511142560334
 20
243.682008803469
 30
0.0
 10
328.705081247591
 20
243.9168215351142
 30
0.0
 10
328.896000891449
 20
244.0179839560472
 30
0.0
 10
329.2877750962348
 20
244.1787057788238
 30
0.0
 10
329.4904298341262
 20
244.2397174491888
 30
0.0
 10
329.9097950238272
 20
244.3219585074722
 30
0.0
 10
330.1227544812182
 20
244.3421406520168
 30
0.0
 10
330.54597202726
 20
244.3409220195552
 30
0.0
 10
330.7593451086204
 20
244.3194587768422
 30
0.0
 10
331.1787008492746
 20
244.2345330429262
 30
0.0
 10
331.3813798531742
 20
244.172102388068
 30
0.0
 10
331.7730656977556
 20
244.0082193064896
 30
0.0
 10
331.9638065884924
 20
243.9052890657718
 30
0.0
 10
332.3163491901612
 20
243.6673518318512
 30
0.0
 10
332.479584234094
 20
243.5322144557188
 30
0.0
 10
332.7798267520932
 20
243.2293551282008
 30
0.0
 10
332.9156459943736
 20
243.0620833260706
 30
0.0
 10
333.1492429296372
 20
242.7089640876984
 30
0.0
 10
333.248883621955
 20
242.5210921150348
 30
0.0
 10
333.4112502247348
 20
242.1244207775592
 30
0.0
 10
333.4717587291306
 20
241.9212895705956
 30
0.0
 10
333.5529319253068
 20
241.5056761676006
 30
0.0
 10
333.573461482421
 20
241.2907485012502
 30
0.0
 10
333.5719221763741
 20
240.8647849079112
 30
0.0
 10
333.5504508883082
 20
240.6540411071666
 30
0.0
 10
333.4662033417856
 20
240.2369900947202
 30
0.0
 10
333.4025617924386
 20
240.0298560834856
 30
0.0
 10
333.3205947613657
 20
239.8340865307265
 30
0.0
  0
SPLINE
  5
1A0
330
1F
100
AcDbEntity
  8
SLD-0
  6
SLD-DURCHGEHEND
 62
     7
100
AcDbSpline
210
0.0
220
0.0
230
1.0
 70
     8
 71
     3
 72
    28
 73
    24
 74
     0
 42
0.000000001
 43
0.00000001
 40
0.0
 40
0.0
 40
0.0
 40
0.0
 40
0.125
 40
0.125
 40
0.1875000000000001
 40
0.1875000000000001
 40
0.2500000000000001
 40
0.2500000000000001
 40
0.3749999999999999
 40
0.3749999999999999
 40
0.4374999999999999
 40
0.4374999999999999
 40
0.4999999999999999
 40
0.4999999999999999
 40
0.5624999999999999
 40
0.5624999999999999
 40
0.6249999999999999
 40
0.6249999999999999
 40
0.7499999999999999
 40
0.7499999999999999
 40
0.875
 40
0.875
 40
1.0
 40
1.0
 40
1.0
 40
1.0
 10
401.7165432536802
 20
245.3545770646792
 30
0.0
 10
401.4604337609082
 20
245.9804353577488
 30
0.0
 10
401.1594475726348
 20
246.576526917275
 30
0.0
 10
400.6331317081423
 20
247.422025451231
 30
0.0
 10
400.4451609632402
 20
247.6957159606132
 30
0.0
 10
400.0419831966789
 20
248.225601758047
 30
0.0
 10
399.8266223076456
 20
248.4815516391354
 30
0.0
 10
399.1534017465661
 20
249.203543813232
 30
0.0
 10
398.6638782337102
 20
249.6307240354006
 30
0.0
 10
397.8637762026844
 20
250.188687423153
 30
0.0
 10
397.5842050513694
 20
250.3617211464008
 30
0.0
 10
397.0123262276944
 20
250.6731557743552
 30
0.0
 10
396.7201423751942
 20
250.8118342099258
 30
0.0
 10
396.123159383386
 20
251.0565163405646
 30
0.0
 10
395.8183609822269
 20
251.1625185636032
 30
0.0
 10
395.1956890818321
 20
251.3423331226984
 30
0.0
 10
394.8763639410756
 20
251.4163869453456
 30
0.0
 10
393.9078249361598
 20
251.5878871556396
 30
0.0
 10
393.2566822880878
 20
251.6344344476591
 30
0.0
 10
391.9410965203383
 20
251.6023281746565
 30
0.0
 10
391.2710569941867
 20
251.5215745409078
 30
0.0
 10
389.9668624722502
 20
251.2423797305864
 30
0.0
 10
389.3275723980034
 20
251.0448115094968
 30
0.0
 10
388.7011115303616
 20
250.7884002745998
 30
0.0
  0
SPLINE
  5
1A1
330
1F
100
AcDbEntity
  8
SLD-0
  6
SLD-DURCHGEHEND
 62
     7
100
AcDbSpline
210
0.0
220
0.0
230
1.0
 70
     8
 71
     3
 72
    28
 73
    24
 74
     0
 42
0.000000001
 43
0.00000001
 40
0.0
 40
0.0
 40
0.0
 40
0.0
 40
0.1249999999999997
 40
0.1249999999999997
 40
0.1874999999999996
 40
0.1874999999999996
 40
0.2499999999999995
 40
0.2499999999999995
 40
0.3749999999999993
 40
0.3749999999999993
 40
0.4374999999999992
 40
0.4374999999999992
 40
0.4999999999999992
 40
0.4999999999999992
 40
0.6249999999999993
 40
0.6249999999999993
 40
0.7499999999999996
 40
0.7499999999999996
 40
0.8124999999999997
 40
0.8124999999999997
 40
0.8749999999999997
 40
0.8749999999999997
 40
1.0
 40
1.0
 40
1.0
 40
1.0
 10
396.6684696546152
 20
231.3258244692456
 30
0.0
 10
397.294941091479
 20
231.5822400301388
 30
0.0
 10
397.8883998362916
 20
231.8883555748922
 30
0.0
 10
398.7305303391676
 20
232.4203935650712
 30
0.0
 10
399.0031587262154
 20
232.610002592382
 30
0.0
 10
399.5316202670919
 20
233.0149165497276
 30
0.0
 10
399.7874224802376
 20
233.2305057520946
 30
0.0
 10
400.5116454147022
 20
233.9023654144836
 30
0.0
 10
400.94360183954
 20
234.387907536862
 30
0.0
 10
401.5130500754302
 20
235.1778653587168
 30
0.0
 10
401.6906134030836
 20
235.4532825757766
 30
0.0
 10
402.0123882428282
 20
236.0170277995876
 30
0.0
 10
402.1566417466406
 20
236.3049056962736
 30
0.0
 10
402.540417977126
 20
237.1872595041938
 30
0.0
 10
402.7313821917238
 20
237.8002722704242
 30
0.0
 10
402.9778816735962
 20
239.083688596122
 30
0.0
 10
403.0287974300172
 20
239.7307118690636
 30
0.0
 10
403.0051495772926
 20
240.7098249616316
 30
0.0
 10
402.9805064926462
 20
241.0377145057316
 30
0.0
 10
402.8980314566902
 20
241.6969225661764
 30
0.0
 10
402.8402353656274
 20
242.0266375589154
 30
0.0
 10
402.623008560278
 20
243.0013007075646
 30
0.0
 10
402.4193436024074
 20
243.6380209248978
 30
0.0
 10
402.1631279159412
 20
244.2636649069802
 30
0.0
  0
SPLINE
  5
1A2
330
1F
100
AcDbEntity
  8
SLD-0
  6
SLD-DURCHGEHEND
 62
     7
100
AcDbSpline
210
0.0
220
0.0
230
1.0
 70
     8
 71
     3
 72
    52
 73
    48
 74
     0
 42
0.000000001
 43
0.00000001
 40
0.0
 40
0.0
 40
0.0
 40
0.0
 40
0.0312500000000001
 40
0.0312500000000001
 40
0.0625000000000002
 40
0.0625000000000002
 40
0.1249999999999997
 40
0.1249999999999997
 40
0.1562499999999994
 40
0.1562499999999994
 40
0.1874999999999992
 40
0.1874999999999992
 40
0.2499999999999994
 40
0.2499999999999994
 40
0.3124999999999996
 40
0.3124999999999996
 40
0.3749999999999998
 40
0.3749999999999998
 40
0.4374999999999999
 40
0.4374999999999999
 40
0.46875
 40
0.46875
 40
0.5
 40
0.5
 40
0.5625000000000001
 40
0.5625000000000001
 40
0.6250000000000001
 40
0.6250000000000001
 40
0.6562500000000001
 40
0.6562500000000001
 40
0.6875000000000001
 40
0.6875000000000001
 40
0.7500000000000001
 40
0.7500000000000001
 40
0.7812500000000001
 40
0.7812500000000001
 40
0.8125000000000001
 40
0.8125000000000001
 40
0.8437500000000001
 40
0.8437500000000001
 40
0.8750000000000001
 40
0.8750000000000001
 40
0.9375000000000001
 40
0.9375000000000001
 40
0.9687500000000001
 40
0.9687500000000001
 40
1.0
 40
1.0
 40
1.0
 40
1.0
 10
361.1829299613164
 20
219.5102518525091
 30
0.0
 10
361.4645282664952
 20
219.5096466909566
 30
0.0
 10
361.7470041527422
 20
219.5226977443603
 30
0.0
 10
362.3139767730924
 20
219.5770285507532
 30
0.0
 10
362.5997196953878
 20
219.6186878384638
 30
0.0
 10
363.440671516109
 20
219.7841632455215
 30
0.0
 10
363.9852228333314
 20
219.9481208472853
 30
0.0
 10
364.777974465797
 20
220.274645738821
 30
0.0
 10
365.0396197753982
 20
220.3978126709642
 30
0.0
 10
365.5471894873562
 20
220.6684742610495
 30
0.0
 10
365.7920187784728
 20
220.8151686916789
 30
0.0
 10
366.500692012006
 20
221.2881749181938
 30
0.0
 10
366.940181327714
 20
221.6482916326294
 30
0.0
 10
367.745249995468
 20
222.452825725614
 30
0.0
 10
368.1005517209564
 20
222.8864058089428
 30
0.0
 10
368.7229258024202
 20
223.8149844010538
 30
0.0
 10
368.991344256923
 20
224.3149580718895
 30
0.0
 10
369.4206304363204
 20
225.3439500519462
 30
0.0
 10
369.5843089979842
 20
225.8754737694163
 30
0.0
 10
369.752290492967
 20
226.7007542884283
 30
0.0
 10
369.7953123628126
 20
226.9820036849542
 30
0.0
 10
369.852948075333
 20
227.5430467919332
 30
0.0
 10
369.867885400228
 20
227.8237191164344
 30
0.0
 10
369.871590603224
 20
228.6664301295745
 30
0.0
 10
369.819700934134
 20
229.2291666813216
 30
0.0
 10
369.5996939101438
 20
230.357593753013
 30
0.0
 10
369.4346786926604
 20
230.9052469164994
 30
0.0
 10
369.1095454144856
 20
231.6949564168182
 30
0.0
 10
368.9880490023696
 20
231.9533062006603
 30
0.0
 10
368.7181990983854
 20
232.4599980352686
 30
0.0
 10
368.569315390714
 20
232.7088005590456
 30
0.0
 10
368.092913282694
 20
233.4223161351433
 30
0.0
 10
367.733028396933
 20
233.8606388410526
 30
0.0
 10
367.1307800429874
 20
234.463644721845
 30
0.0
 10
366.9184276586114
 20
234.6563049402255
 30
0.0
 10
366.4806083756076
 20
235.0160746897532
 30
0.0
 10
366.2546113955436
 20
235.183910128461
 30
0.0
 10
365.7886613406822
 20
235.4963311303638
 30
0.0
 10
365.548707915215
 20
235.6409150324492
 30
0.0
 10
365.0545832958502
 20
235.9069250917698
 30
0.0
 10
364.7992990576392
 20
236.028803111951
 30
0.0
 10
364.0190127608336
 20
236.3554461515396
 30
0.0
 10
363.485399059069
 20
236.5198434514398
 30
0.0
 10
362.6634016579688
 20
236.6886192567628
 30
0.0
 10
362.3857795170894
 20
236.7318015907329
 30
0.0
 10
361.82268823626
 20
236.7910589995658
 30
0.0
 10
361.5376621150228
 20
236.806883053493
 30
0.0
 10
361.255112255643
 20
236.8086320997144
 30
0.0
  0
SPLINE
  5
1A3
330
1F
100
AcDbEntity
  8
SLD-0
  6
SLD-DURCHGEHEND
 62
     7
100
AcDbSpline
210
0.0
220
0.0
230
1.0
 70
     8
 71
     3
 72
    38
 73
    34
 74
     0
 42
0.000000001
 43
0.00000001
 40
0.4999999999999997
 40
0.4999999999999997
 40
0.4999999999999997
 40
0.4999999999999997
 40
0.5312499999999997
 40
0.5312499999999997
 40
0.5624999999999997
 40
0.5624999999999997
 40
0.5937499999999997
 40
0.5937499999999997
 40
0.6249999999999996
 40
0.6249999999999996
 40
0.6562499999999996
 40
0.6562499999999996
 40
0.6874999999999996
 40
0.6874999999999996
 40
0.7187499999999996
 40
0.7187499999999996
 40
0.7499999999999996
 40
0.7499999999999996
 40
0.7812499999999996
 40
0.7812499999999996
 40
0.8124999999999996
 40
0.8124999999999996
 40
0.8437499999999996
 40
0.8437499999999996
 40
0.8749999999999994
 40
0.8749999999999994
 40
0.9062499999999996
 40
0.9062499999999996
 40
0.9374999999999997
 40
0.9374999999999997
 40
0.9687499999999998
 40
0.9687499999999998
 40
1.0
 40
1.0
 40
1.0
 40
1.0
 10
389.2141745386707
 20
239.6017397177676
 30
0.0
 10
389.2945049510956
 20
239.4052932190762
 30
0.0
 10
389.3934846729066
 20
239.2176819930762
 30
0.0
 10
389.6297628416908
 20
238.860605599914
 30
0.0
 10
389.7649884116492
 20
238.6947864939994
 30
0.0
 10
390.0630609716288
 20
238.3943446249118
 30
0.0
 10
390.2282961417616
 20
238.257505739457
 30
0.0
 10
390.5819542142108
 20
238.0193870581038
 30
0.0
 10
390.768080393021
 20
237.919147147606
 30
0.0
 10
391.1586687928618
 20
237.7554539624444
 30
0.0
 10
391.3651490509226
 20
237.6918957662378
 30
0.0
 10
391.7806115657142
 20
237.6075534386534
 30
0.0
 10
391.991016841414
 20
237.585784702766
 30
0.0
 10
392.4173682530317
 20
237.5837002325384
 30
0.0
 10
392.6319185003026
 20
237.6039142203174
 30
0.0
 10
393.0479567059588
 20
237.6845920813798
 30
0.0
 10
393.2521801200062
 20
237.7451477906346
 30
0.0
 10
393.6499097386066
 20
237.907550084751
 30
0.0
 10
393.8375724411626
 20
238.0069097638292
 30
0.0
 10
394.1913561922601
 20
238.2405695944386
 30
0.0
 10
394.3591058160534
 20
238.3766869772322
 30
0.0
 10
394.66139811833
 20
238.6759755070728
 30
0.0
 10
394.7963887033754
 20
238.8387213690576
 30
0.0
 10
395.0342809954374
 20
239.1903851440852
 30
0.0
 10
395.1368929715034
 20
239.3799983777054
 30
0.0
 10
395.300757884431
 20
239.7696711847938
 30
0.0
 10
395.3634892082919
 20
239.9716135520676
 30
0.0
 10
395.4492933322734
 20
240.3903486098668
 30
0.0
 10
395.4711671378392
 20
240.602326263252
 30
0.0
 10
395.4735610335046
 20
241.0252496355178
 30
0.0
 10
395.4539289294266
 20
241.238891934668
 30
0.0
 10
395.3725930900992
 20
241.6591454096708
 30
0.0
 10
395.311658701005
 20
241.8637440362222
 30
0.0
 10
395.2301923476116
 20
242.0627491585956
 30
0.0
  0
SPLINE
  5
1A4
330
1F
100
AcDbEntity
  8
SLD-0
  6
SLD-DURCHGEHEND
 62
     7
100
AcDbSpline
210
0.0
220
0.0
230
1.0
 70
     8
 71
     3
 72
    38
 73
    34
 74
     0
 42
0.000000001
 43
0.00000001
 40
0.0
 40
0.0
 40
0.0
 40
0.0
 40
0.0312499999999998
 40
0.0312499999999998
 40
0.0624999999999995
 40
0.0624999999999995
 40
0.0937499999999993
 40
0.0937499999999993
 40
0.1249999999999992
 40
0.1249999999999992
 40
0.1562499999999992
 40
0.1562499999999992
 40
0.1874999999999993
 40
0.1874999999999993
 40
0.2187499999999993
 40
0.2187499999999993
 40
0.2499999999999993
 40
0.2499999999999993
 40
0.2812499999999994
 40
0.2812499999999994
 40
0.3124999999999994
 40
0.3124999999999994
 40
0.3437499999999994
 40
0.3437499999999994
 40
0.3749999999999995
 40
0.3749999999999995
 40
0.4062499999999996
 40
0.4062499999999996
 40
0.4374999999999996
 40
0.4374999999999996
 40
0.4687499999999996
 40
0.4687499999999996
 40
0.4999999999999997
 40
0.4999999999999997
 40
0.4999999999999997
 40
0.4999999999999997
 10
395.2301923476116
 20
242.0627491585956
 30
0.0
 10
395.148725994218
 20
242.261754280969
 30
0.0
 10
395.0490859293904
 20
242.4494127247794
 30
0.0
 10
394.8149924450619
 20
242.8029997957338
 30
0.0
 10
394.6787630905072
 20
242.9705571558342
 30
0.0
 10
394.3786472345188
 20
243.2730944451442
 30
0.0
 10
394.2155724919428
 20
243.4080783011214
 30
0.0
 10
393.8635667342792
 20
243.6458343108756
 30
0.0
 10
393.6734921144342
 20
243.748585117916
 30
0.0
 10
393.2830612696914
 20
243.9125680221706
 30
0.0
 10
393.080916992618
 20
243.9752673474198
 30
0.0
 10
392.6622419219972
 20
244.0610023853486
 30
0.0
 10
392.4494533632538
 20
244.082959614934
 30
0.0
 10
392.026232161507
 20
244.0852702087944
 30
0.0
 10
391.8126840556824
 20
244.065587085547
 30
0.0
 10
391.3926296709798
 20
243.9841615981228
 30
0.0
 10
391.1894355646788
 20
243.9234234817554
 30
0.0
 10
390.7963956745692
 20
243.762812999691
 30
0.0
 10
390.6048036058676
 20
243.6614773377254
 30
0.0
 10
390.250292072759
 20
243.4264891906898
 30
0.0
 10
390.0859382134823
 20
243.2927182800406
 30
0.0
 10
389.783186933002
 20
242.9923744077686
 30
0.0
 10
389.6459814522798
 20
242.8262416685074
 30
0.0
 10
389.4094564344212
 20
242.4750839678372
 30
0.0
 10
389.3082571256034
 20
242.2880500840276
 30
0.0
 10
389.1425974986736
 20
241.8927477578222
 30
0.0
 10
389.0804016398986
 20
241.6901287671436
 30
0.0
 10
388.995773478576
 20
241.2752077090524
 30
0.0
 10
388.9734559435726
 20
241.060459132584
 30
0.0
 10
388.9714485657312
 20
240.6344981155012
 30
0.0
 10
388.9911636198898
 20
240.423582776632
 30
0.0
 10
389.071932232613
 20
240.0058438225194
 30
0.0
 10
389.1338441262458
 20
239.798186216459
 30
0.0
 10
389.2141745386707
 20
239.6017397177676
 30
0.0
  0
SPLINE
  5
1A5
330
1F
100
AcDbEntity
  8
SLD-0
  6
SLD-DURCHGEHEND
 62
     7
100
AcDbSpline
210
0.0
220
0.0
230
1.0
 70
     8
 71
     3
 72
    25
 73
    21
 74
     0
 42
0.000000001
 43
0.00000001
 40
0.0
 40
0.0
 40
0.0
 40
0.0
 40
0.0521480220078975
 40
0.0983997955599835
 40
0.1785463801335328
 40
0.2123262175390019
 40
0.2770497431342152
 40
0.3391180620572696
 40
0.396890265479634
 40
0.4247131843716109
 40
0.4889840330959077
 40
0.5539766659020864
 40
0.6356174302157123
 40
0.6862228055718763
 40
0.7371907267891494
 40
0.7887153611327734
 40
0.8409952985455537
 40
0.8821743183764112
 40
0.9651064444592065
 40
1.0
 40
1.0
 40
1.0
 40
1.0
 10
325.0302970710228
 20
229.7467799158812
 30
0.0
 10
324.7781415216252
 20
229.858576964524
 30
0.0
 10
324.3023410299726
 20
230.0695304447728
 30
0.0
 10
323.4764733672139
 20
230.5245846835286
 30
0.0
 10
322.77368807714
 20
230.9916634266982
 30
0.0
 10
322.0418308845704
 20
231.571055031041
 30
0.0
 10
321.4255455713418
 20
232.1352721156794
 30
0.0
 10
320.7879811045402
 20
232.8428799562856
 30
0.0
 10
320.3366523041312
 20
233.450131651893
 30
0.0
 10
319.9249077180944
 20
234.093003974446
 30
0.0
 10
319.5467207195332
 20
234.7961240308044
 30
0.0
 10
319.1470351500518
 20
235.7862426667072
 30
0.0
 10
318.8931426239164
 20
236.753091285444
 30
0.0
 10
318.7615263525482
 20
237.672827609418
 30
0.0
 10
318.7184342645328
 20
238.4512306596962
 30
0.0
 10
318.742748244696
 20
239.242924733104
 30
0.0
 10
318.828195997316
 20
239.9845404373064
 30
0.0
 10
318.9998455334788
 20
240.880590464364
 30
0.0
 10
319.2254805576943
 20
241.6801973446226
 30
0.0
 10
319.4541726658654
 20
242.2539610564918
 30
0.0
 10
319.5218988242736
 20
242.4238786472202
 30
0.0
  0
SPLINE
  5
1A6
330
1F
100
AcDbEntity
  8
SLD-0
  6
SLD-DURCHGEHEND
 62
     7
100
AcDbSpline
210
0.0
220
0.0
230
1.0
 70
     8
 71
     3
 72
    24
 73
    20
 74
     0
 42
0.000000001
 43
0.00000001
 40
0.0
 40
0.0
 40
0.0
 40
0.0
 40
0.0455133688480174
 40
0.0915297617316281
 40
0.1712333135637538
 40
0.2048194027872117
 40
0.2503911671572617
 40
0.3293809627367731
 40
0.3896122302368067
 40
0.4166151873316751
 40
0.4667933638160207
 40
0.517319041881671
 40
0.5683748627697442
 40
0.6201507478079386
 40
0.6582511367781357
 40
0.735141409130795
 40
0.8263738253888567
 40
0.9125668821318228
 40
1.0
 40
1.0
 40
1.0
 40
1.0
 10
403.0324305952416
 20
242.0823148147108
 30
0.0
 10
403.1183335375512
 20
241.859590958067
 30
0.0
 10
403.291088840897
 20
241.4116816503944
 30
0.0
 10
403.5381259582837
 20
240.5531927222348
 30
0.0
 10
403.6973478216512
 20
239.7415606785436
 30
0.0
 10
403.7807086024978
 20
238.9285381959394
 30
0.0
 10
403.8118768419532
 20
238.118839925802
 30
0.0
 10
403.7500183328917
 20
237.1779661851558
 30
0.0
 10
403.5946270949822
 20
236.3495740187666
 30
0.0
 10
403.4153269076828
 20
235.6783481755514
 30
0.0
 10
403.2072062531462
 20
235.0666801402204
 30
0.0
 10
402.8975082841628
 20
234.3631881449024
 30
0.0
 10
402.5234557850004
 20
233.6798019165308
 30
0.0
 10
402.1256517765934
 20
233.0805471719778
 30
0.0
 10
401.6026085480052
 20
232.4046639748838
 30
0.0
 10
400.8767637841024
 20
231.6230855822686
 30
0.0
 10
399.8547499954554
 20
230.7732463360026
 30
0.0
 10
398.68118465229
 20
230.0124494156204
 30
0.0
 10
397.8427644913803
 20
229.6349720425172
 30
0.0
 10
397.420560357032
 20
229.4448853592794
 30
0.0
  0
SPLINE
  5
1A7
330
1F
100
AcDbEntity
  8
SLD-0
  6
SLD-DURCHGEHEND
 62
     7
100
AcDbSpline
210
0.0
220
0.0
230
1.0
 70
     8
 71
     3
 72
    24
 73
    20
 74
     0
 42
0.000000001
 43
0.00000001
 40
0.0
 40
0.0
 40
0.0
 40
0.0
 40
0.0521398205568049
 40
0.1046406597898025
 40
0.1582801204010715
 40
0.2123133631199818
 40
0.2644534269926479
 40
0.3107051540081703
 40
0.3908653149296591
 40
0.4246590999434706
 40
0.5223602202113008
 40
0.6019981022374599
 40
0.6354871566912893
 40
0.6860845732122958
 40
0.7370444785759079
 40
0.788561009510192
 40
0.8408327247252115
 40
0.9232237789868586
 40
1.0
 40
1.0
 40
1.0
 40
1.0
 10
387.9499271149519
 20
252.5796452789039
 30
0.0
 10
388.207317381212
 20
252.6787690743757
 30
0.0
 10
388.7238800965666
 20
252.8777030033433
 30
0.0
 10
389.5288668371198
 20
253.1051732672255
 30
0.0
 10
390.3542915880008
 20
253.2774712442459
 30
0.0
 10
391.1851838844894
 20
253.383627853541
 30
0.0
 10
391.9786983559997
 20
253.4227496161293
 30
0.0
 10
392.9035522615342
 20
253.3994149739978
 30
0.0
 10
393.7236789159658
 20
253.2974485700153
 30
0.0
 10
394.7811779477934
 20
253.0653896594245
 30
0.0
 10
395.804349636399
 20
252.7207827688435
 30
0.0
 10
396.7583682251104
 20
252.2279325996194
 30
0.0
 10
397.4577394340834
 20
251.7753426217593
 30
0.0
 10
398.0078545352678
 20
251.3601438724479
 30
0.0
 10
398.5906072682948
 20
250.8355448537701
 30
0.0
 10
399.1355441201682
 20
250.2543154174107
 30
0.0
 10
399.7317366939738
 20
249.4978051897547
 30
0.0
 10
400.3305972753866
 20
248.5688757307557
 30
0.0
 10
400.6728949022691
 20
247.8049150306461
 30
0.0
 10
400.8380062180746
 20
247.4364095356835
 30
0.0
  0
SPLINE
  5
1A8
330
1F
100
AcDbEntity
  8
SLD-0
  6
SLD-DURCHGEHEND
 62
     7
100
AcDbSpline
210
0.0
220
0.0
230
1.0
 70
     8
 71
     3
 72
    25
 73
    21
 74
     0
 42
0.000000001
 43
0.00000001
 40
0.0
 40
0.0
 40
0.0
 40
0.0
 40
0.0447919019474511
 40
0.0970867445495634
 40
0.1772865990127351
 40
0.2042019544807268
 40
0.2498045432676124
 40
0.3355248962093238
 40
0.4160925713779554
 40
0.4663488820843786
 40
0.5169538519952722
 40
0.5679548967844686
 40
0.6197658026625303
 40
0.6706764738028738
 40
0.7219299422034345
 40
0.7737089341180927
 40
0.8262047220310154
 40
0.8692544772462637
 40
0.9561219519987669
 40
1.0
 40
1.0
 40
1.0
 40
1.0
 10
321.7656155819242
 20
247.7745957291838
 30
0.0
 10
321.8610998943384
 20
247.9898103396002
 30
0.0
 10
322.0680627747876
 20
248.4562894350704
 30
0.0
 10
322.5208310226096
 20
249.2661477011582
 30
0.0
 10
322.9900179530506
 20
249.9512240096132
 30
0.0
 10
323.4903060864782
 20
250.561115811205
 30
0.0
 10
324.0425834982016
 20
251.1600633155368
 30
0.0
 10
324.8618183112362
 20
251.8743569154436
 30
0.0
 10
325.7885110297776
 20
252.4746084178448
 30
0.0
 10
326.6138137469324
 20
252.885614597147
 30
0.0
 10
327.3323620276341
 20
253.1690176877102
 30
0.0
 10
328.0818933229684
 20
253.392523074514
 30
0.0
 10
328.8522142810826
 20
253.5524172011454
 30
0.0
 10
329.6382133480038
 20
253.6485737130588
 30
0.0
 10
330.4336401110128
 20
253.681653503988
 30
0.0
 10
331.2420102924704
 20
253.6516853616234
 30
0.0
 10
332.007712081022
 20
253.5639715137628
 30
0.0
 10
332.9491542839848
 20
253.3886396174352
 30
0.0
 10
333.8359340389786
 20
253.142853414031
 30
0.0
 10
334.4781438535646
 20
252.8874552038708
 30
0.0
 10
334.6936687333294
 20
252.8017438564472
 30
0.0
  0
SPLINE
  5
1A9
330
1F
100
AcDbEntity
  8
SLD-0
  6
SLD-DURCHGEHEND
 62
     7
100
AcDbSpline
210
0.0
220
0.0
230
1.0
 70
     8
 71
     3
 72
    11
 73
     7
 74
     0
 42
0.000000001
 43
0.00000001
 40
0.0
 40
0.0
 40
0.0
 40
0.0
 40
0.2179099992275911
 40
0.6611759857178839
 40
0.8870579459401258
 40
1.0
 40
1.0
 40
1.0
 40
1.0
 10
395.2307142193558
 20
242.0111001590386
 30
0.0
 10
395.2625442708363
 20
241.927614951468
 30
0.0
 10
395.3591220586272
 20
241.6743066379258
 30
0.0
 10
395.4355260838879
 20
241.316916191608
 30
0.0
 10
395.4701133620996
 20
240.998109577398
 30
0.0
 10
395.4700282488964
 20
240.8594227660972
 30
0.0
 10
395.4699998776488
 20
240.8131935359392
 30
0.0
  0
SPLINE
  5
1AA
330
1F
100
AcDbEntity
  8
SLD-0
  6
SLD-DURCHGEHEND
 62
     7
100
AcDbSpline
210
0.0
220
0.0
230
1.0
 70
     8
 71
     3
 72
    33
 73
    29
 74
     0
 42
0.000000001
 43
0.00000001
 40
0.0
 40
0.0
 40
0.0
 40
0.0
 40
0.0337976513345862
 40
0.0646024230766671
 40
0.0946082042351722
 40
0.1553031153120379
 40
0.1862771706890523
 40
0.2164590396113635
 40
0.246852430079798
 40
0.2775744363913487
 40
0.30874750635662
 40
0.3388407636223593
 40
0.3691469470578392
 40
0.3997840287898471
 40
0.4308750184048751
 40
0.4607500859557264
 40
0.5211898731804443
 40
0.5520418809285561
 40
0.5819108403153422
 40
0.6423286566094327
 40
0.6731594984512657
 40
0.7032422721902222
 40
0.7640953734898439
 40
0.7951535695356639
 40
0.8862474246800491
 40
0.9174289138771081
 40
0.958509360051189
 40
1.0
 40
1.0
 40
1.0
 40
1.0
 10
388.9842492339649
 20
240.7475626609558
 30
0.0
 10
388.981191100191
 20
240.8488732062028
 30
0.0
 10
388.975345639217
 20
241.0425229554526
 30
0.0
 10
389.0156750614868
 20
241.3236293815718
 30
0.0
 10
389.0898593934534
 20
241.6794393700676
 30
0.0
 10
389.2107053745144
 20
242.0250097075802
 30
0.0
 10
389.3729258144316
 20
242.3516078314894
 30
0.0
 10
389.5151754705492
 20
242.585946975466
 30
0.0
 10
389.6760419879234
 20
242.8070031960098
 30
0.0
 10
389.8569599791016
 20
243.0160215708888
 30
0.0
 10
390.054480908444
 20
243.2082588245278
 30
0.0
 10
390.2666226406354
 20
243.382336236814
 30
0.0
 10
390.4912827792104
 20
243.5372315837784
 30
0.0
 10
390.730820513236
 20
243.6741586943802
 30
0.0
 10
390.9800536144698
 20
243.7896129298998
 30
0.0
 10
391.321908762083
 20
243.914201888218
 30
0.0
 10
391.6775522422986
 20
243.9953351219674
 30
0.0
 10
392.0387544635676
 20
244.0307652796124
 30
0.0
 10
392.4014524759554
 20
244.035836901245
 30
0.0
 10
392.7633820648656
 20
243.995498761036
 30
0.0
 10
393.1162934844234
 20
243.9102068839118
 30
0.0
 10
393.4619892679406
 20
243.795275030868
 30
0.0
 10
393.7928039059218
 20
243.6368310522996
 30
0.0
 10
394.2526996463176
 20
243.3399213369634
 30
0.0
 10
394.5957934997236
 20
243.0258008955148
 30
0.0
 10
394.8950355683874
 20
242.6388529840696
 30
0.0
 10
395.0785275248916
 20
242.350426558694
 30
0.0
 10
395.1798175927736
 20
242.1245829382892
 30
0.0
 10
395.2307142193558
 20
242.0111001590386
 30
0.0
  0
SPLINE
  5
1AB
330
1F
100
AcDbEntity
  8
SLD-0
  6
SLD-DURCHGEHEND
 62
     7
100
AcDbSpline
210
0.0
220
0.0
230
1.0
 70
     8
 71
     3
 72
    33
 73
    29
 74
     0
 42
0.000000001
 43
0.00000001
 40
0.0
 40
0.0
 40
0.0
 40
0.0
 40
0.0300044452835659
 40
0.0602159327900637
 40
0.0910812785800931
 40
0.1221732338998641
 40
0.182561450986706
 40
0.2132177861234451
 40
0.2443266502030593
 40
0.3044430577989698
 40
0.3348775390170579
 40
0.3658146338539676
 40
0.4257297605898582
 40
0.4560559608175441
 40
0.4868731993705409
 40
0.5471307327092062
 40
0.5776294732312095
 40
0.6086221723186392
 40
0.6387113650315351
 40
0.6999160875121105
 40
0.7311069407044815
 40
0.7914786518272531
 40
0.822128541178734
 40
0.8532323721875166
 40
0.913228481074503
 40
0.9435998924411658
 40
0.9744693689490137
 40
1.0
 40
1.0
 40
1.0
 40
1.0
 10
333.3309394884986
 20
242.2697118540896
 30
0.0
 10
333.294996907287
 20
242.3519268475024
 30
0.0
 10
333.2228637272174
 20
242.5169241494324
 30
0.0
 10
333.0880219433202
 20
242.7539638781778
 30
0.0
 10
332.9332974889774
 20
242.9822914074828
 30
0.0
 10
332.7023326080258
 20
243.266467959736
 30
0.0
 10
332.436670119664
 20
243.5201658049264
 30
0.0
 10
332.142374576294
 20
243.7375485840738
 30
0.0
 10
331.8312814457034
 20
243.928710499456
 30
0.0
 10
331.4976547685384
 20
244.0795479706814
 30
0.0
 10
331.1499009981878
 20
244.1867898863532
 30
0.0
 10
330.794962708619
 20
244.2640742197568
 30
0.0
 10
330.4320076002074
 20
244.2962917660284
 30
0.0
 10
330.0700147594576
 20
244.2831401738434
 30
0.0
 10
329.7094811484312
 20
244.2394594298856
 30
0.0
 10
329.355308881466
 20
244.1503619041756
 30
0.0
 10
329.016121092493
 20
244.0181494158644
 30
0.0
 10
328.7701596895658
 20
243.8973982055746
 30
0.0
 10
328.4565505814706
 20
243.7092168752876
 30
0.0
 10
328.1670414764336
 20
243.4815354414488
 30
0.0
 10
327.846448076251
 20
243.1554891248432
 30
0.0
 10
327.6236861405816
 20
242.862868665906
 30
0.0
 10
327.4403236987728
 20
242.5462448449552
 30
0.0
 10
327.2851651896362
 20
242.216192925089
 30
0.0
 10
327.1715255267492
 20
241.8685566496018
 30
0.0
 10
327.1053705407502
 20
241.5121096598774
 30
0.0
 10
327.0725795308996
 20
241.2537492720118
 30
0.0
 10
327.0805844997566
 20
241.0852018032312
 30
0.0
 10
327.0842081082088
 20
241.008905437386
 30
0.0
  0
SPLINE
  5
1AC
330
1F
100
AcDbEntity
  8
SLD-0
  6
SLD-DURCHGEHEND
 62
     7
100
AcDbSpline
210
0.0
220
0.0
230
1.0
 70
     8
 71
     3
 72
    11
 73
     7
 74
     0
 42
0.000000001
 43
0.00000001
 40
0.0
 40
0.0
 40
0.0
 40
0.0
 40
0.1710009809673542
 40
0.3950601049562403
 40
0.8096292597858158
 40
1.0
 40
1.0
 40
1.0
 40
1.0
 10
333.5710651904902
 20
241.0666609101188
 30
0.0
 10
333.56991129964
 20
241.1370535603028
 30
0.0
 10
333.5672454889659
 20
241.2996802751468
 30
0.0
 10
333.5258166879742
 20
241.6305837182022
 30
0.0
 10
333.4482201292444
 20
241.9643539291784
 30
0.0
 10
333.3590125475044
 20
242.196619389814
 30
0.0
 10
333.3309394884986
 20
242.2697118540896
 30
0.0
  0
SPLINE
  5
1AD
330
1F
100
AcDbEntity
  8
SLD-0
  6
SLD-DURCHGEHEND
 62
     7
100
AcDbSpline
210
0.0
220
0.0
230
1.0
 70
     8
 71
     3
 72
    46
 73
    42
 74
     0
 42
0.000000001
 43
0.00000001
 40
0.4999999999999969
 40
0.4999999999999969
 40
0.4999999999999969
 40
0.4999999999999969
 40
0.5312499999999971
 40
0.5312499999999971
 40
0.5468749999999971
 40
0.5468749999999971
 40
0.5624999999999971
 40
0.5624999999999971
 40
0.5937499999999971
 40
0.5937499999999971
 40
0.6249999999999971
 40
0.6249999999999971
 40
0.6562499999999971
 40
0.6562499999999971
 40
0.6874999999999971
 40
0.6874999999999971
 40
0.7031249999999972
 40
0.7031249999999972
 40
0.7187499999999972
 40
0.7187499999999972
 40
0.7499999999999972
 40
0.7499999999999972
 40
0.7812499999999972
 40
0.7812499999999972
 40
0.7968749999999971
 40
0.7968749999999971
 40
0.8124999999999971
 40
0.8124999999999971
 40
0.8437499999999976
 40
0.8437499999999976
 40
0.874999999999998
 40
0.874999999999998
 40
0.9062499999999984
 40
0.9062499999999984
 40
0.9218749999999987
 40
0.9218749999999987
 40
0.937499999999999
 40
0.937499999999999
 40
0.9687499999999994
 40
0.9687499999999994
 40
1.0
 40
1.0
 40
1.0
 40
1.0
 10
364.4323203225044
 20
233.2084416238717
 30
0.0
 10
364.7657632931552
 20
232.999274528632
 30
0.0
 10
365.076861080562
 20
232.7590781880314
 30
0.0
 10
365.5093085782402
 20
232.3512935829052
 30
0.0
 10
365.6477843763826
 20
232.207119635741
 30
0.0
 10
365.9070954715022
 20
231.9090886150594
 30
0.0
 10
366.028767692163
 20
231.7545014470636
 30
0.0
 10
366.3702374101476
 20
231.2743062541424
 30
0.0
 10
366.5676095422244
 20
230.9304024437104
 30
0.0
 10
366.892804831426
 20
230.205526977626
 30
0.0
 10
367.0175397044194
 20
229.8325297200426
 30
0.0
 10
367.1935602186848
 20
229.0660509949856
 30
0.0
 10
367.2446316373934
 20
228.6681030327466
 30
0.0
 10
367.2674268457362
 20
227.8793409479656
 30
0.0
 10
367.2403860825606
 20
227.4874757713162
 30
0.0
 10
367.1420457849918
 20
226.9034597642244
 30
0.0
 10
367.0992427858874
 20
226.708349649136
 30
0.0
 10
366.9951919284652
 20
226.325716825351
 30
0.0
 10
366.9341089930952
 20
226.138258753025
 30
0.0
 10
366.72438642091
 20
225.5871618978466
 30
0.0
 10
366.5495294060304
 20
225.2346912599804
 30
0.0
 10
366.1272513999482
 20
224.5606609705862
 30
0.0
 10
365.8850338022138
 20
224.2479500730004
 30
0.0
 10
365.4807601411318
 20
223.8191915465798
 30
0.0
 10
365.3389328147454
 20
223.6827278993314
 30
0.0
 10
365.040866822377
 20
223.4229611411498
 30
0.0
 10
364.8837742258914
 20
223.2991277079294
 30
0.0
 10
364.3998035867934
 20
222.9549786940834
 30
0.0
 10
364.058731062126
 20
222.7598132230166
 30
0.0
 10
363.3403164600956
 20
222.436935581065
 30
0.0
 10
362.9594889452738
 20
222.30906261803
 30
0.0
 10
362.191864368592
 20
222.1329409065866
 30
0.0
 10
361.8021061252836
 20
222.0826972121044
 30
0.0
 10
361.2083999086176
 20
222.0650109210032
 30
0.0
 10
361.0084160557096
 20
222.0689416897802
 30
0.0
 10
360.6140253796888
 20
222.0961687962142
 30
0.0
 10
360.4185900847342
 20
222.1193756569774
 30
0.0
 10
359.8374665024802
 20
222.217242947462
 30
0.0
 10
359.4556944244604
 20
222.32033818451
 30
0.0
 10
358.7116873914148
 20
222.603096134499
 30
0.0
 10
358.356911234811
 20
222.7796502907518
 30
0.0
 10
358.0194297242648
 20
222.991517013966
 30
0.0
  0
SPLINE
  5
1AE
330
1F
100
AcDbEntity
  8
SLD-0
  6
SLD-DURCHGEHEND
 62
     7
100
AcDbSpline
210
0.0
220
0.0
230
1.0
 70
     8
 71
     3
 72
    47
 73
    43
 74
     0
 42
0.000000001
 43
0.00000001
 40
0.0
 40
0.0
 40
0.0
 40
0.0
 40
0.0312499999999999
 40
0.0312499999999999
 40
0.0468749999999997
 40
0.0468749999999997
 40
0.0624999999999996
 40
0.0624999999999996
 40
0.0937499999999992
 40
0.0937499999999992
 40
0.1249999999999988
 40
0.1249999999999988
 40
0.1562499999999985
 40
0.1562499999999985
 40
0.1718749999999983
 40
0.1718749999999983
 40
0.1874999999999981
 40
0.2031249999999979
 40
0.2031249999999979
 40
0.2187499999999977
 40
0.2187499999999977
 40
0.2499999999999974
 40
0.2499999999999974
 40
0.2812499999999971
 40
0.2812499999999971
 40
0.3124999999999967
 40
0.3124999999999967
 40
0.3281249999999968
 40
0.3281249999999968
 40
0.3437499999999969
 40
0.3437499999999969
 40
0.3749999999999966
 40
0.3749999999999966
 40
0.4062499999999963
 40
0.4062499999999963
 40
0.4218749999999964
 40
0.4218749999999964
 40
0.4374999999999965
 40
0.4374999999999965
 40
0.4687499999999967
 40
0.4687499999999967
 40
0.4999999999999969
 40
0.4999999999999969
 40
0.4999999999999969
 40
0.4999999999999969
 10
358.0194297242648
 20
222.991517013966
 30
0.0
 10
357.6819482137186
 20
223.2033837371802
 30
0.0
 10
357.3708978492404
 20
223.4448219317852
 30
0.0
 10
356.9423475980172
 20
223.8495223619272
 30
0.0
 10
356.8058821897316
 20
223.9915657537958
 30
0.0
 10
356.5460120756316
 20
224.290265001974
 30
0.0
 10
356.4223442446674
 20
224.4474686963774
 30
0.0
 10
356.0791101962588
 20
224.9310332463716
 30
0.0
 10
355.8842155671572
 20
225.2721237635002
 30
0.0
 10
355.561674537428
 20
225.9913977851358
 30
0.0
 10
355.434235294531
 20
226.3722020896084
 30
0.0
 10
355.2589209735896
 20
227.139333457333
 30
0.0
 10
355.2089324133868
 20
227.5292379743102
 30
0.0
 10
355.1918009633814
 20
228.123829922092
 30
0.0
 10
355.1959467627008
 20
228.323513259476
 30
0.0
 10
355.2235154495432
 20
228.7173471482958
 30
0.0
 10
355.2702374304656
 20
229.1078810011888
 30
0.0
 10
355.3546871748398
 20
229.491914511475
 30
0.0
 10
355.4582576295356
 20
229.8726535999544
 30
0.0
 10
355.519996084067
 20
230.0623544388802
 30
0.0
 10
355.7320906459844
 20
230.6186396224556
 30
0.0
 10
355.9077422870149
 20
230.970426654795
 30
0.0
 10
356.3257276224978
 20
231.636879112779
 30
0.0
 10
356.5713261829162
 20
231.9544157175934
 30
0.0
 10
357.112973745228
 20
232.5277262854538
 30
0.0
 10
357.4093124766114
 20
232.7856087504576
 30
0.0
 10
357.8923060535698
 20
233.1290329612994
 30
0.0
 10
358.0607452601682
 20
233.2367319840702
 30
0.0
 10
358.4047300994528
 20
233.4334071628276
 30
0.0
 10
358.5804388580602
 20
233.5226539363884
 30
0.0
 10
359.1184464530536
 20
233.7637766451154
 30
0.0
 10
359.4915203972148
 20
233.889294780003
 30
0.0
 10
360.267596150904
 20
234.067122250798
 30
0.0
 10
360.6591753850682
 20
234.1166615640574
 30
0.0
 10
361.2483140339098
 20
234.1337540889236
 30
0.0
 10
361.4451786122566
 20
234.1298876527876
 30
0.0
 10
361.8398982359222
 20
234.1026244508288
 30
0.0
 10
362.0385647569148
 20
234.079007762303
 30
0.0
 10
362.6236831656338
 20
233.9799688642754
 30
0.0
 10
363.0027822903912
 20
233.8767045337422
 30
0.0
 10
363.7392925761252
 20
233.5966204359622
 30
0.0
 10
364.0988773518536
 20
233.4176087191114
 30
0.0
 10
364.4323203225044
 20
233.2084416238717
 30
0.0
  0
SPLINE
  5
1AF
330
1F
100
AcDbEntity
  8
SLD-0
  6
SLD-DURCHGEHEND
 62
     7
100
AcDbSpline
210
0.0
220
0.0
230
1.0
 70
     8
 71
     3
 72
    28
 73
    24
 74
     0
 42
0.000000001
 43
0.00000001
 40
0.0
 40
0.0
 40
0.0
 40
0.0
 40
0.1249999999999997
 40
0.1249999999999997
 40
0.1874999999999996
 40
0.1874999999999996
 40
0.2499999999999995
 40
0.2499999999999995
 40
0.3749999999999993
 40
0.3749999999999993
 40
0.4374999999999992
 40
0.4374999999999992
 40
0.4999999999999992
 40
0.4999999999999992
 40
0.6249999999999993
 40
0.6249999999999993
 40
0.7499999999999996
 40
0.7499999999999996
 40
0.8124999999999997
 40
0.8124999999999997
 40
0.8749999999999997
 40
0.8749999999999997
 40
1.0
 40
1.0
 40
1.0
 40
1.0
 10
238.0089288105154
 20
114.8783414333067
 30
0.0
 10
238.6826594619098
 20
114.841790495895
 30
0.0
 10
239.350387843506
 20
114.8061028481282
 30
0.0
 10
240.3434829978192
 20
114.7566208380089
 30
0.0
 10
240.6730901425532
 20
114.7408592629479
 30
0.0
 10
241.3294425827204
 20
114.7120047450705
 30
0.0
 10
241.6562931822398
 20
114.6989350093353
 30
0.0
 10
242.6103628760598
 20
114.6669892680365
 30
0.0
 10
243.2189932356066
 20
114.6547828290921
 30
0.0
 10
244.091293247694
 20
114.6621945172873
 30
0.0
 10
244.3768694176496
 20
114.6690982390891
 30
0.0
 10
244.9245502135036
 20
114.6939469395356
 30
0.0
 10
245.186481913349
 20
114.7118083326964
 30
0.0
 10
245.9376910198206
 20
114.7847880151576
 30
0.0
 10
246.3926734631578
 20
114.8590660646956
 30
0.0
 10
247.2096465531906
 20
115.0796606854126
 30
0.0
 10
247.5566401488604
 20
115.222180430298
 30
0.0
 10
247.9926731249146
 20
115.4918286416369
 30
0.0
 10
248.1239028725892
 20
115.5910553459586
 30
0.0
 10
248.3586098183588
 20
115.809791868472
 30
0.0
 10
248.4613703748332
 20
115.9288744059623
 30
0.0
 10
248.7241218489028
 20
116.3102145696491
 30
0.0
 10
248.8411512588792
 20
116.5984917438486
 30
0.0
 10
248.90653462426
 20
116.9219834125252
 30
0.0
  0
SPLINE
  5
1B0
330
1F
100
AcDbEntity
  8
SLD-0
  6
SLD-DURCHGEHEND
 62
     7
100
AcDbSpline
210
0.0
220
0.0
230
1.0
 70
     8
 71
     3
 72
    28
 73
    24
 74
     0
 42
0.000000001
 43
0.00000001
 40
0.0
 40
0.0
 40
0.0
 40
0.0
 40
0.125
 40
0.125
 40
0.1875000000000001
 40
0.1875000000000001
 40
0.2500000000000001
 40
0.2500000000000001
 40
0.3750000000000001
 40
0.3750000000000001
 40
0.4375
 40
0.4375
 40
0.4999999999999999
 40
0.4999999999999999
 40
0.6249999999999999
 40
0.6249999999999999
 40
0.7499999999999999
 40
0.7499999999999999
 40
0.8125
 40
0.8125
 40
0.875
 40
0.875
 40
1.0
 40
1.0
 40
1.0
 40
1.0
 10
248.6706054100842
 20
112.4909843166479
 30
0.0
 10
248.6064535061632
 20
112.220084424441
 30
0.0
 10
248.4875082284968
 20
111.980829689539
 30
0.0
 10
248.2220172146732
 20
111.6668204864583
 30
0.0
 10
248.1189303478798
 20
111.5696449825842
 30
0.0
 10
247.8816651715358
 20
111.3900162839505
 30
0.0
 10
247.7471246850388
 20
111.3076063857142
 30
0.0
 10
247.3047461677218
 20
111.0869148984283
 30
0.0
 10
246.9559208050444
 20
110.9727770472626
 30
0.0
 10
246.3486093803762
 20
110.8423495395855
 30
0.0
 10
246.1307011982066
 20
110.8055364045959
 30
0.0
 10
245.6723658649728
 20
110.7452256324725
 30
0.0
 10
245.4326933865596
 20
110.7217002342808
 30
0.0
 10
244.6827206820878
 20
110.6676107493594
 30
0.0
 10
244.141107253258
 20
110.6534114892185
 30
0.0
 10
242.9745825129202
 20
110.6546451638422
 30
0.0
 10
242.3681032604616
 20
110.6698801587811
 30
0.0
 10
241.4243932058824
 20
110.7040716886746
 30
0.0
 10
241.1041172688286
 20
110.7174157569994
 30
0.0
 10
240.4517934960176
 20
110.7468132172315
 30
0.0
 10
240.1206912170894
 20
110.7628301601845
 30
0.0
 10
239.1292846027618
 20
110.8125643106515
 30
0.0
 10
238.4646882982332
 20
110.848044074404
 30
0.0
 10
237.7962658473984
 20
110.8843070336661
 30
0.0
  0
SPLINE
  5
1B1
330
1F
100
AcDbEntity
  8
SLD-0
  6
SLD-DURCHGEHEND
 62
     7
100
AcDbSpline
210
0.0
220
0.0
230
1.0
 70
     8
 71
     3
 72
    28
 73
    24
 74
     0
 42
0.000000001
 43
0.00000001
 40
0.0
 40
0.0
 40
0.0
 40
0.0
 40
0.125
 40
0.125
 40
0.1875000000000001
 40
0.1875000000000001
 40
0.2500000000000001
 40
0.2500000000000001
 40
0.3749999999999999
 40
0.3749999999999999
 40
0.4374999999999999
 40
0.4374999999999999
 40
0.4999999999999999
 40
0.4999999999999999
 40
0.5624999999999999
 40
0.5624999999999999
 40
0.6249999999999999
 40
0.6249999999999999
 40
0.7499999999999999
 40
0.7499999999999999
 40
0.875
 40
0.875
 40
1.0
 40
1.0
 40
1.0
 40
1.0
 10
249.0206907293908
 20
117.5141223239191
 30
0.0
 10
249.0862680323488
 20
117.8699296912862
 30
0.0
 10
249.0982635752761
 20
118.2507356854462
 30
0.0
 10
249.027370554137
 20
118.8561861153888
 30
0.0
 10
248.9888559197229
 20
119.0637168027959
 30
0.0
 10
248.8795734550405
 20
119.489702596246
 30
0.0
 10
248.8085550113802
 20
119.7081612611224
 30
0.0
 10
248.5500969657701
 20
120.3623209905789
 30
0.0
 10
248.3165165399413
 20
120.8020750754823
 30
0.0
 10
247.8692907447669
 20
121.4578083941729
 30
0.0
 10
247.7027869930151
 20
121.6770555940483
 30
0.0
 10
247.3423521027727
 20
122.1042930440905
 30
0.0
 10
247.1486599951849
 20
122.3123501702854
 30
0.0
 10
246.7348694410191
 20
122.7160167467687
 30
0.0
 10
246.5147709602843
 20
122.9116292715629
 30
0.0
 10
246.0479872733079
 20
123.2887910547641
 30
0.0
 10
245.8001309096777
 20
123.471109121575
 30
0.0
 10
245.0235758195235
 20
123.9885010742434
 30
0.0
 10
244.4694168683243
 20
124.2900948638309
 30
0.0
 10
243.2909051251399
 20
124.8003610868371
 30
0.0
 10
242.6606226774613
 20
125.0096206655584
 30
0.0
 10
241.3768704774779
 20
125.3109846096897
 30
0.0
 10
240.7192665730239
 20
125.4059308243575
 30
0.0
 10
240.0455472881635
 20
125.4424811451171
 30
0.0
  0
SPLINE
  5
1B2
330
1F
100
AcDbEntity
  8
SLD-0
  6
SLD-DURCHGEHEND
 62
     7
100
AcDbSpline
210
0.0
220
0.0
230
1.0
 70
     8
 71
     3
 72
    52
 73
    48
 74
     0
 42
0.000000001
 43
0.00000001
 40
0.0
 40
0.0
 40
0.0
 40
0.0
 40
0.0312500000000001
 40
0.0312500000000001
 40
0.0625000000000002
 40
0.0625000000000002
 40
0.1249999999999997
 40
0.1249999999999997
 40
0.1562499999999994
 40
0.1562499999999994
 40
0.1874999999999992
 40
0.1874999999999992
 40
0.2499999999999994
 40
0.2499999999999994
 40
0.3124999999999996
 40
0.3124999999999996
 40
0.3749999999999998
 40
0.3749999999999998
 40
0.4374999999999999
 40
0.4374999999999999
 40
0.46875
 40
0.46875
 40
0.5
 40
0.5
 40
0.5625000000000001
 40
0.5625000000000001
 40
0.6250000000000001
 40
0.6250000000000001
 40
0.6562500000000001
 40
0.6562500000000001
 40
0.6875000000000001
 40
0.6875000000000001
 40
0.7500000000000001
 40
0.7500000000000001
 40
0.7812500000000001
 40
0.7812500000000001
 40
0.8125000000000001
 40
0.8125000000000001
 40
0.8437500000000001
 40
0.8437500000000001
 40
0.8750000000000001
 40
0.8750000000000001
 40
0.9375000000000001
 40
0.9375000000000001
 40
0.9687500000000001
 40
0.9687500000000001
 40
1.0
 40
1.0
 40
1.0
 40
1.0
 10
201.1106011907839
 20
117.100767274693
 30
0.0
 10
201.3593694088115
 20
117.0704540468428
 30
0.0
 10
201.6152870679893
 20
117.0425654072096
 30
0.0
 10
202.1420838647423
 20
116.990627950714
 30
0.0
 10
202.4142422808421
 20
116.9664959577445
 30
0.0
 10
203.2352219200007
 20
116.9002835130207
 30
0.0
 10
203.7933512298589
 20
116.8635862663302
 30
0.0
 10
204.6468628008513
 20
116.817513931637
 30
0.0
 10
204.9357480934145
 20
116.8036437743562
 30
0.0
 10
205.5109684607379
 20
116.7796948923002
 30
0.0
 10
205.7959615368755
 20
116.7696509807965
 30
0.0
 10
206.6434748118095
 20
116.7459437909705
 30
0.0
 10
207.2002319370091
 20
116.7385013633064
 30
0.0
 10
208.2877216073983
 20
116.7488515906889
 30
0.0
 10
208.8043067177049
 20
116.7665330948367
 30
0.0
 10
209.7881089810113
 20
116.8365992273957
 30
0.0
 10
210.2588385331317
 20
116.8898682080456
 30
0.0
 10
211.1187328219149
 20
117.0398345987699
 30
0.0
 10
211.5115527760307
 20
117.1363639340942
 30
0.0
 10
212.0452732670967
 20
117.3226756969708
 30
0.0
 10
212.2145803849145
 20
117.392174273752
 30
0.0
 10
212.5273906845413
 20
117.5438817508178
 30
0.0
 10
212.6715900050129
 20
117.626224967362
 30
0.0
 10
213.0681562977203
 20
117.8940209063292
 30
0.0
 10
213.2848906879319
 20
118.1000843165938
 30
0.0
 10
213.6169442001209
 20
118.5771276537573
 30
0.0
 10
213.7265889575581
 20
118.8407504062099
 30
0.0
 10
213.8075889767731
 20
119.2703494357441
 30
0.0
 10
213.8207060010291
 20
119.4194431019821
 30
0.0
 10
213.8185165986325
 20
119.7295677690325
 30
0.0
 10
213.8029561401465
 20
119.8910392002999
 30
0.0
 10
213.7146119119029
 20
120.3812913920269
 30
0.0
 10
213.6008863829293
 20
120.7195312396872
 30
0.0
 10
213.3496670890129
 20
121.2397543389898
 30
0.0
 10
213.2517724276379
 20
121.4161528569636
 30
0.0
 10
213.0324600029105
 20
121.7656460296145
 30
0.0
 10
212.9109122036413
 20
121.9392692590137
 30
0.0
 10
212.6446229723185
 20
122.2833368352193
 30
0.0
 10
212.4998804548933
 20
122.4537832831942
 30
0.0
 10
212.1870133552541
 20
122.7903682306563
 30
0.0
 10
212.0181152588321
 20
122.9571973792527
 30
0.0
 10
211.4804587182429
 20
123.444146923474
 30
0.0
 10
211.0852445522429
 20
123.7476047268922
 30
0.0
 10
210.4370220448453
 20
124.1640443278079
 30
0.0
 10
210.2116409886197
 20
124.2963569607668
 30
0.0
 10
209.7412880151579
 20
124.5461846534215
 30
0.0
 10
209.4965907613863
 20
124.6633603262264
 30
0.0
 10
209.2475148172801
 20
124.7697314018746
 30
0.0
  0
SPLINE
  5
1B3
330
1F
100
AcDbEntity
  8
SLD-0
  6
SLD-DURCHGEHEND
 62
     7
100
AcDbSpline
210
0.0
220
0.0
230
1.0
 70
     8
 71
     3
 72
    38
 73
    34
 74
     0
 42
0.000000001
 43
0.00000001
 40
0.4999999999999997
 40
0.4999999999999997
 40
0.4999999999999997
 40
0.4999999999999997
 40
0.5312499999999997
 40
0.5312499999999997
 40
0.5624999999999997
 40
0.5624999999999997
 40
0.5937499999999997
 40
0.5937499999999997
 40
0.6249999999999996
 40
0.6249999999999996
 40
0.6562499999999996
 40
0.6562499999999996
 40
0.6874999999999996
 40
0.6874999999999996
 40
0.7187499999999996
 40
0.7187499999999996
 40
0.7499999999999996
 40
0.7499999999999996
 40
0.7812499999999996
 40
0.7812499999999996
 40
0.8124999999999996
 40
0.8124999999999996
 40
0.8437499999999996
 40
0.8437499999999996
 40
0.8749999999999994
 40
0.8749999999999994
 40
0.9062499999999996
 40
0.9062499999999996
 40
0.9374999999999997
 40
0.9374999999999997
 40
0.9687499999999998
 40
0.9687499999999998
 40
1.0
 40
1.0
 40
1.0
 40
1.0
 10
235.2785466113037
 20
117.9540496541778
 30
0.0
 10
235.2579116086634
 20
117.8474304821984
 30
0.0
 10
235.2578937742258
 20
117.7429896037805
 30
0.0
 10
235.3002165622708
 20
117.5382698502866
 30
0.0
 10
235.3424254947292
 20
117.4400328836974
 30
0.0
 10
235.4658314334054
 20
117.2545872320439
 30
0.0
 10
235.5481063353412
 20
117.1659809119699
 30
0.0
 10
235.7497590528872
 20
117.0011710157543
 30
0.0
 10
235.8675909143294
 20
116.9257951714637
 30
0.0
 10
236.1366395185512
 20
116.787206515402
 30
0.0
 10
236.2895920834504
 20
116.7235799729818
 30
0.0
 10
236.6176724850346
 20
116.612245273339
 30
0.0
 10
236.7935993550986
 20
116.563879409503
 30
0.0
 10
237.1696994570924
 20
116.4805887667503
 30
0.0
 10
237.3688853586776
 20
116.4461090735793
 30
0.0
 10
237.7744890728168
 20
116.3928408100116
 30
0.0
 10
237.9833690313534
 20
116.3735555136737
 30
0.0
 10
238.4109207153874
 20
116.350225420575
 30
0.0
 10
238.6232637143622
 20
116.3464908874584
 30
0.0
 10
239.0452044405114
 20
116.3545974083209
 30
0.0
 10
239.2570906026018
 20
116.366721894548
 30
0.0
 10
239.6641199696152
 20
116.4071450858793
 30
0.0
 10
239.859460832641
 20
116.435213891345
 30
0.0
 10
240.233976949007
 20
116.5083663763453
 30
0.0
 10
240.4132204619516
 20
116.5537835781389
 30
0.0
 10
240.7400040627114
 20
116.6596317035262
 30
0.0
 10
240.889730353967
 20
116.7203962518046
 30
0.0
 10
241.1610387967892
 20
116.8597857403491
 30
0.0
 10
241.2793133802128
 20
116.9368862017353
 30
0.0
 10
241.478806972628
 20
117.1045169832822
 30
0.0
 10
241.5611498599084
 20
117.1961729339289
 30
0.0
 10
241.6853453286312
 20
117.3916619653429
 30
0.0
 10
241.726939086276
 20
117.4944298255829
 30
0.0
 10
241.7477635400128
 20
117.602448308702
 30
0.0
  0
SPLINE
  5
1B4
330
1F
100
AcDbEntity
  8
SLD-0
  6
SLD-DURCHGEHEND
 62
     7
100
AcDbSpline
210
0.0
220
0.0
230
1.0
 70
     8
 71
     3
 72
    38
 73
    34
 74
     0
 42
0.000000001
 43
0.00000001
 40
0.0
 40
0.0
 40
0.0
 40
0.0
 40
0.0312499999999998
 40
0.0312499999999998
 40
0.0624999999999995
 40
0.0624999999999995
 40
0.0937499999999993
 40
0.0937499999999993
 40
0.1249999999999992
 40
0.1249999999999992
 40
0.1562499999999992
 40
0.1562499999999992
 40
0.1874999999999993
 40
0.1874999999999993
 40
0.2187499999999993
 40
0.2187499999999993
 40
0.2499999999999993
 40
0.2499999999999993
 40
0.2812499999999994
 40
0.2812499999999994
 40
0.3124999999999994
 40
0.3124999999999994
 40
0.3437499999999994
 40
0.3437499999999994
 40
0.3749999999999995
 40
0.3749999999999995
 40
0.4062499999999996
 40
0.4062499999999996
 40
0.4374999999999996
 40
0.4374999999999996
 40
0.4687499999999996
 40
0.4687499999999996
 40
0.4999999999999997
 40
0.4999999999999997
 40
0.4999999999999997
 40
0.4999999999999997
 10
241.7477635400128
 20
117.602448308702
 30
0.0
 10
241.7685879937498
 20
117.7104667918211
 30
0.0
 10
241.7680438451912
 20
117.8206109672032
 30
0.0
 10
241.726024781084
 20
118.0446710207226
 30
0.0
 10
241.6837393185518
 20
118.1598652090444
 30
0.0
 10
241.5595041748132
 20
118.3862777036341
 30
0.0
 10
241.4782742604556
 20
118.4972129280791
 30
0.0
 10
241.2779136228858
 20
118.7133176421051
 30
0.0
 10
241.1577615124786
 20
118.8188326562127
 30
0.0
 10
240.8889874634052
 20
119.0134955602001
 30
0.0
 10
240.739468887551
 20
119.1038645303407
 30
0.0
 10
240.4091972148704
 20
119.268721445826
 30
0.0
 10
240.2312504952332
 20
119.3415633295803
 30
0.0
 10
239.8580243384308
 20
119.4641581689172
 30
0.0
 10
239.6599725009304
 20
119.5147819403648
 30
0.0
 10
239.250467891487
 20
119.5904130692727
 30
0.0
 10
239.0424131428154
 20
119.6150198923128
 30
0.0
 10
238.619845370067
 20
119.6380996722965
 30
0.0
 10
238.403104986364
 20
119.6362505488379
 30
0.0
 10
237.9799006774644
 20
119.6061591739515
 30
0.0
 10
237.7721128787796
 20
119.5782661852808
 30
0.0
 10
237.364185059679
 20
119.4975228773427
 30
0.0
 10
237.1653046627714
 20
119.4445978400092
 30
0.0
 10
236.7922339710572
 20
119.3194603863892
 30
0.0
 10
236.6154436172898
 20
119.2466655860047
 30
0.0
 10
236.2844454683294
 20
119.08247139623
 30
0.0
 10
236.1348769750762
 20
118.9934561861077
 30
0.0
 10
235.8663885510172
 20
118.803582762071
 30
0.0
 10
235.7464283482118
 20
118.7014984428159
 30
0.0
 10
235.5458589443352
 20
118.4928312689223
 30
0.0
 10
235.4648620793982
 20
118.3864910259787
 30
0.0
 10
235.3413384604924
 20
118.1706670777991
 30
0.0
 10
235.299181613944
 20
118.0606688261571
 30
0.0
 10
235.2785466113037
 20
117.9540496541778
 30
0.0
  0
SPLINE
  5
1B5
330
1F
100
AcDbEntity
  8
SLD-0
  6
SLD-DURCHGEHEND
 62
     7
100
AcDbSpline
210
0.0
220
0.0
230
1.0
 70
     8
 71
     3
 72
    28
 73
    24
 74
     0
 42
0.000000001
 43
0.00000001
 40
0.0
 40
0.0
 40
0.0
 40
0.0
 40
0.1249999999999992
 40
0.1249999999999992
 40
0.1874999999999988
 40
0.1874999999999988
 40
0.2499999999999984
 40
0.2499999999999984
 40
0.3749999999999987
 40
0.3749999999999987
 40
0.4374999999999988
 40
0.4374999999999988
 40
0.4999999999999989
 40
0.4999999999999989
 40
0.562499999999999
 40
0.562499999999999
 40
0.6249999999999992
 40
0.6249999999999992
 40
0.7499999999999994
 40
0.7499999999999994
 40
0.8749999999999997
 40
0.8749999999999997
 40
1.0
 40
1.0
 40
1.0
 40
1.0
 10
176.7628572020153
 20
136.7147148574024
 30
0.0
 10
176.240888183462
 20
136.5166362321238
 30
0.0
 10
175.7611989420881
 20
136.328821810308
 30
0.0
 10
175.1110476592594
 20
136.0561105646215
 30
0.0
 10
174.905946316105
 20
135.96669371611
 30
0.0
 10
174.5207630056514
 20
135.7894655165852
 30
0.0
 10
174.3409625682739
 20
135.7016914429556
 30
0.0
 10
173.8536602032856
 20
135.4446096006979
 30
0.0
 10
173.5929333385968
 20
135.2794236813712
 30
0.0
 10
173.300765031974
 20
135.0289815370419
 30
0.0
 10
173.219625142714
 20
134.9445045433207
 30
0.0
 10
173.0942199656107
 20
134.775469262299
 30
0.0
 10
173.0496523711646
 20
134.6909038912997
 30
0.0
 10
172.995441996896
 20
134.5194177729737
 30
0.0
 10
172.9858004884213
 20
134.4325015366688
 30
0.0
 10
173.0010736278994
 20
134.2540621002275
 30
0.0
 10
173.0261930103041
 20
134.1621167879632
 30
0.0
 10
173.1528715657235
 20
133.8788102476383
 30
0.0
 10
173.3033907479836
 20
133.6824398770127
 30
0.0
 10
173.7271195737369
 20
133.2604990260749
 30
0.0
 10
174.0039926162253
 20
133.0326998858951
 30
0.0
 10
174.6583867010821
 20
132.5547308674555
 30
0.0
 10
175.0366165170879
 20
132.3031800460187
 30
0.0
 10
175.466657771
 20
132.0369119258
 30
0.0
  0
SPLINE
  5
1B6
330
1F
100
AcDbEntity
  8
SLD-0
  6
SLD-DURCHGEHEND
 62
     7
100
AcDbSpline
210
0.0
220
0.0
230
1.0
 70
     8
 71
     3
 72
    28
 73
    24
 74
     0
 42
0.000000001
 43
0.00000001
 40
0.0
 40
0.0
 40
0.0
 40
0.0
 40
0.1250000000000021
 40
0.1250000000000021
 40
0.1875000000000032
 40
0.1875000000000032
 40
0.2500000000000042
 40
0.2500000000000042
 40
0.3750000000000063
 40
0.3750000000000063
 40
0.4375000000000073
 40
0.4375000000000073
 40
0.5000000000000082
 40
0.5000000000000082
 40
0.6250000000000075
 40
0.6250000000000075
 40
0.7500000000000069
 40
0.7500000000000069
 40
0.8125000000000053
 40
0.8125000000000053
 40
0.8750000000000039
 40
0.8750000000000039
 40
1.0
 40
1.0
 40
1.0
 40
1.0
 10
191.7083028185403
 20
138.703880241455
 30
0.0
 10
191.2782543092644
 20
138.9701528539684
 30
0.0
 10
190.8098533862596
 20
139.1838494936273
 30
0.0
 10
190.0509837493347
 20
139.4303705775613
 30
0.0
 10
189.7885565951788
 20
139.5001420593678
 30
0.0
 10
189.2438412620979
 20
139.614942768513
 30
0.0
 10
188.9612882709368
 20
139.659804415537
 30
0.0
 10
188.1021090231449
 20
139.7554689589447
 30
0.0
 10
187.5079664508035
 20
139.7691564577783
 30
0.0
 10
186.5806040164033
 20
139.7220739006185
 30
0.0
 10
186.263461317013
 20
139.6947789628169
 30
0.0
 10
185.6266351103414
 20
139.6194446681595
 30
0.0
 10
185.3073719373242
 20
139.5716183084225
 30
0.0
 10
184.3461518609868
 20
139.401022748707
 30
0.0
 10
183.7008126188599
 20
139.2513171834021
 30
0.0
 10
182.3956041186195
 20
138.8921761352313
 30
0.0
 10
181.7595542920911
 20
138.6894132896659
 30
0.0
 10
180.8274254152325
 20
138.3638848498464
 30
0.0
 10
180.520314618576
 20
138.2517259707605
 30
0.0
 10
179.9128499900679
 20
138.0217278315732
 30
0.0
 10
179.6140238714659
 20
137.9044340744214
 30
0.0
 10
178.7447566521366
 20
137.5535961894731
 30
0.0
 10
178.1956482726119
 20
137.3190449513284
 30
0.0
 10
177.6732304339474
 20
137.0884103469591
 30
0.0
  0
SPLINE
  5
1B7
330
1F
100
AcDbEntity
  8
SLD-0
  6
SLD-DURCHGEHEND
 62
     7
100
AcDbSpline
210
0.0
220
0.0
230
1.0
 70
     8
 71
     3
 72
    22
 73
    18
 74
     0
 42
0.000000001
 43
0.00000001
 40
0.0
 40
0.0
 40
0.0
 40
0.0
 40
0.125
 40
0.125
 40
0.25
 40
0.25
 40
0.375
 40
0.375
 40
0.5
 40
0.5
 40
0.625
 40
0.625
 40
0.75
 40
0.75
 40
0.875
 40
0.875
 40
1.0
 40
1.0
 40
1.0
 40
1.0
 10
199.6743964663568
 20
122.9880126696429
 30
0.0
 10
200.0047136106392
 20
123.1235557563371
 30
0.0
 10
200.3568082639139
 20
123.2584799224842
 30
0.0
 10
201.1002737305671
 20
123.5241430024573
 30
0.0
 10
201.4833299090817
 20
123.6519526697409
 30
0.0
 10
202.2711546001467
 20
123.8963053458147
 30
0.0
 10
202.6759248892757
 20
124.012857544989
 30
0.0
 10
203.5079050745639
 20
124.2316627606021
 30
0.0
 10
203.9268133730675
 20
124.3316714189046
 30
0.0
 10
204.7657005545359
 20
124.5090159905744
 30
0.0
 10
205.1865586256153
 20
124.5865999651566
 30
0.0
 10
206.0321022521227
 20
124.7149154773966
 30
0.0
 10
206.4538901551591
 20
124.7649688391479
 30
0.0
 10
207.2775728435297
 20
124.8305232583133
 30
0.0
 10
207.6823267388135
 20
124.8465023839135
 30
0.0
 10
208.4784442189893
 20
124.8392595839479
 30
0.0
 10
208.8724792037493
 20
124.8154645110147
 30
0.0
 10
209.2475148172801
 20
124.7697314018746
 30
0.0
  0
SPLINE
  5
1B8
330
1F
100
AcDbEntity
  8
SLD-0
  6
SLD-DURCHGEHEND
 62
     7
100
AcDbSpline
210
0.0
220
0.0
230
1.0
 70
     8
 71
     3
 72
    34
 73
    30
 74
     0
 42
0.000000001
 43
0.00000001
 40
0.0
 40
0.0
 40
0.0
 40
0.0
 40
0.0625000000000002
 40
0.0625000000000002
 40
0.1250000000000004
 40
0.1250000000000004
 40
0.1875000000000007
 40
0.1875000000000007
 40
0.2500000000000009
 40
0.2500000000000009
 40
0.3750000000000012
 40
0.3750000000000012
 40
0.4375000000000012
 40
0.4375000000000012
 40
0.5000000000000011
 40
0.5000000000000011
 40
0.562500000000001
 40
0.562500000000001
 40
0.6250000000000009
 40
0.6250000000000009
 40
0.6875000000000009
 40
0.6875000000000009
 40
0.7500000000000009
 40
0.7500000000000009
 40
0.8750000000000004
 40
0.8750000000000004
 40
0.9375000000000002
 40
0.9375000000000002
 40
1.0
 40
1.0
 40
1.0
 40
1.0
 10
201.1106011907839
 20
117.100767274693
 30
0.0
 10
200.8006130439257
 20
117.2331869214801
 30
0.0
 10
200.4995019376239
 20
117.3699942029009
 30
0.0
 10
199.9155274199245
 20
117.6507445629453
 30
0.0
 10
199.6351007316871
 20
117.7936145767301
 30
0.0
 10
199.1086739179559
 20
118.0768621184142
 30
0.0
 10
198.86081870033
 20
118.2181229736143
 30
0.0
 10
198.3959716946216
 20
118.4992967911159
 30
0.0
 10
198.1777639973622
 20
118.6400628230992
 30
0.0
 10
197.5805198679039
 20
119.0546101216181
 30
0.0
 10
197.2640982317542
 20
119.3155618635347
 30
0.0
 10
196.9074207939268
 20
119.6943850696016
 30
0.0
 10
196.8088321859558
 20
119.8185350379278
 30
0.0
 10
196.6562140553398
 20
120.0587950638988
 30
0.0
 10
196.6012763301443
 20
120.1757916332033
 30
0.0
 10
196.533328009897
 20
120.4065649580461
 30
0.0
 10
196.5203569151841
 20
120.5207491975399
 30
0.0
 10
196.5375222467058
 20
120.7471134923133
 30
0.0
 10
196.5673958142854
 20
120.8580720442061
 30
0.0
 10
196.6684601448077
 20
121.0786664696605
 30
0.0
 10
196.7396540513061
 20
121.1882923333017
 30
0.0
 10
196.9242391075387
 20
121.4089842759047
 30
0.0
 10
197.0386959092975
 20
121.5208538673868
 30
0.0
 10
197.4404577202654
 20
121.8551822411724
 30
0.0
 10
197.7839880335399
 20
122.076818463558
 30
0.0
 10
198.4163846168201
 20
122.4179132245614
 30
0.0
 10
198.6485727777943
 20
122.5336686720366
 30
0.0
 10
199.1397371120423
 20
122.7620316651675
 30
0.0
 10
199.3998792100835
 20
122.8753666356415
 30
0.0
 10
199.6743964663568
 20
122.9880126696429
 30
0.0
  0
SPLINE
  5
1B9
330
1F
100
AcDbEntity
  8
SLD-0
  6
SLD-DURCHGEHEND
 62
     7
100
AcDbSpline
210
0.0
220
0.0
230
1.0
 70
     8
 71
     3
 72
    38
 73
    34
 74
     0
 42
0.000000001
 43
0.00000001
 40
0.5
 40
0.5
 40
0.5
 40
0.5
 40
0.53125
 40
0.53125
 40
0.5625
 40
0.5625
 40
0.59375
 40
0.59375
 40
0.625
 40
0.625
 40
0.65625
 40
0.65625
 40
0.6875
 40
0.6875
 40
0.71875
 40
0.71875
 40
0.75
 40
0.75
 40
0.78125
 40
0.78125
 40
0.8125
 40
0.8125
 40
0.84375
 40
0.84375
 40
0.875
 40
0.875
 40
0.90625
 40
0.90625
 40
0.9375
 40
0.9375
 40
0.96875
 40
0.96875
 40
1.0
 40
1.0
 40
1.0
 40
1.0
 10
185.9536869570731
 20
131.4859729238902
 30
0.0
 10
185.7898290818465
 20
131.4186542038209
 30
0.0
 10
185.613738092268
 20
131.3625263330219
 30
0.0
 10
185.236417163375
 20
131.2729506668358
 30
0.0
 10
185.0387408585771
 20
131.2405335656907
 30
0.0
 10
184.6338553529565
 20
131.200038931024
 30
0.0
 10
184.423492742224
 20
131.1917247296564
 30
0.0
 10
183.9992072284238
 20
131.1986543384003
 30
0.0
 10
183.7877996103514
 20
131.2136116078084
 30
0.0
 10
183.3662785726957
 20
131.2644924159214
 30
0.0
 10
183.1543385024342
 20
131.3009796253776
 30
0.0
 10
182.7485336862864
 20
131.3909959163244
 30
0.0
 10
182.5529491763304
 20
131.4445583782304
 30
0.0
 10
182.1765539165536
 20
131.5677219206532
 30
0.0
 10
181.9972234026318
 20
131.6370910694423
 30
0.0
 10
181.6691463421307
 20
131.7851122896887
 30
0.0
 10
181.518034735698
 20
131.8645920211217
 30
0.0
 10
181.2448242723194
 20
132.0335171391501
 30
0.0
 10
181.1266916422141
 20
132.1204483559294
 30
0.0
 10
180.9259593353574
 20
132.299383219951
 30
0.0
 10
180.8427872287034
 20
132.392455143721
 30
0.0
 10
180.7185079766127
 20
132.5786378266406
 30
0.0
 10
180.6768048182642
 20
132.671736451313
 30
0.0
 10
180.6340605077864
 20
132.8593565675777
 30
0.0
 10
180.633604101283
 20
132.9540698566324
 30
0.0
 10
180.6740597436605
 20
133.1384619422142
 30
0.0
 10
180.7145626883509
 20
133.2291863474159
 30
0.0
 10
180.8375270415737
 20
133.4092618788794
 30
0.0
 10
180.9187614303169
 20
133.4965178650306
 30
0.0
 10
181.117151373967
 20
133.6644380203907
 30
0.0
 10
181.2357193129035
 20
133.7461485808515
 30
0.0
 10
181.5065640759288
 20
133.9013899798374
 30
0.0
 10
181.6572094213477
 20
133.9742322595641
 30
0.0
 10
181.8232804307749
 20
134.0423949971598
 30
0.0
  0
SPLINE
  5
1BA
330
1F
100
AcDbEntity
  8
SLD-0
  6
SLD-DURCHGEHEND
 62
     7
100
AcDbSpline
210
0.0
220
0.0
230
1.0
 70
     8
 71
     3
 72
    38
 73
    34
 74
     0
 42
0.000000001
 43
0.00000001
 40
0.0
 40
0.0
 40
0.0
 40
0.0
 40
0.03125
 40
0.03125
 40
0.0625
 40
0.0625
 40
0.09375
 40
0.09375
 40
0.125
 40
0.125
 40
0.15625
 40
0.15625
 40
0.1875
 40
0.1875
 40
0.21875
 40
0.21875
 40
0.25
 40
0.25
 40
0.28125
 40
0.28125
 40
0.3125
 40
0.3125
 40
0.34375
 40
0.34375
 40
0.375
 40
0.375
 40
0.40625
 40
0.40625
 40
0.4375
 40
0.4375
 40
0.46875
 40
0.46875
 40
0.5
 40
0.5
 40
0.5
 40
0.5
 10
181.8232804307749
 20
134.0423949971598
 30
0.0
 10
181.989351440202
 20
134.1105577347554
 30
0.0
 10
182.166044336608
 20
134.1720697109048
 30
0.0
 10
182.5397801262284
 20
134.282053243416
 30
0.0
 10
182.7391587935272
 20
134.3309398426757
 30
0.0
 10
183.1468231211024
 20
134.4114123155634
 30
0.0
 10
183.3543959244847
 20
134.4431081578503
 30
0.0
 10
183.7770367654147
 20
134.4882803512534
 30
0.0
 10
183.9931015936094
 20
134.5015485248655
 30
0.0
 10
184.4146019335179
 20
134.5068243101288
 30
0.0
 10
184.6223073213832
 20
134.4991842000534
 30
0.0
 10
185.031583017437
 20
134.4611378783128
 30
0.0
 10
185.2293471345339
 20
134.4308998471561
 30
0.0
 10
185.6030796715145
 20
134.3485604902223
 30
0.0
 10
185.781773894942
 20
134.2958215047807
 30
0.0
 10
186.113025262986
 20
134.1682225530812
 30
0.0
 10
186.2631421481681
 20
134.0945638039959
 30
0.0
 10
186.5330727286242
 20
133.9276555636446
 30
0.0
 10
186.6537303602123
 20
133.8332413978534
 30
0.0
 10
186.8544812158659
 20
133.6319694367504
 30
0.0
 10
186.9357812564998
 20
133.5247665924056
 30
0.0
 10
187.0599781286693
 20
133.2980389656825
 30
0.0
 10
187.1020341490623
 20
133.1790157246368
 30
0.0
 10
187.143832391487
 20
132.9400655007831
 30
0.0
 10
187.1442774420781
 20
132.8186500160922
 30
0.0
 10
187.102752723811
 20
132.5750476946383
 30
0.0
 10
187.0614671439767
 20
132.4563299938495
 30
0.0
 10
186.939293330914
 20
132.2263259645922
 30
0.0
 10
186.8571442924166
 20
132.1138741082084
 30
0.0
 10
186.6569876573904
 20
131.9051062482391
 30
0.0
 10
186.5396449010763
 20
131.808744082838
 30
0.0
 10
186.2704990597673
 20
131.6328853837619
 30
0.0
 10
186.1175448322996
 20
131.5532916439595
 30
0.0
 10
185.9536869570731
 20
131.4859729238902
 30
0.0
  0
SPLINE
  5
1BB
330
1F
100
AcDbEntity
  8
SLD-0
  6
SLD-DURCHGEHEND
 62
     7
100
AcDbSpline
210
0.0
220
0.0
230
1.0
 70
     8
 71
     3
 72
    36
 73
    32
 74
     0
 42
0.000000001
 43
0.00000001
 40
0.0
 40
0.0
 40
0.0
 40
0.0
 40
0.006271854290347
 40
0.0623893889717589
 40
0.0909839751189799
 40
0.1185739938792077
 40
0.1746914202768867
 40
0.2032859510870332
 40
0.2308759203459808
 40
0.2869932446520649
 40
0.3155877223552376
 40
0.3431776675268228
 40
0.3992949407118234
 40
0.4278893908301666
 40
0.4554793479223295
 40
0.5115966434380995
 40
0.5401911036230163
 40
0.5677811034410059
 40
0.6238984849988352
 40
0.652492988514995
 40
0.6800830431244758
 40
0.7362005366987744
 40
0.7647950978071417
 40
0.7923851952237264
 40
0.8485027776205161
 40
0.8770973853024133
 40
0.9046874947562522
 40
0.9324691673087891
 40
0.9608550196778746
 40
0.9894496424749923
 40
1.0
 40
1.0
 40
1.0
 40
1.0
 10
199.2675269883358
 20
117.9943558839311
 30
0.0
 10
199.2745383944862
 20
118.0130700086723
 30
0.0
 10
199.3442844895494
 20
118.1992291178747
 30
0.0
 10
199.5301910363671
 20
118.4614230439699
 30
0.0
 10
199.8192371030078
 20
118.7690076550046
 30
0.0
 10
200.1621775840708
 20
119.0625217006906
 30
0.0
 10
200.5769103650464
 20
119.3330921369838
 30
0.0
 10
201.0550926227666
 20
119.5734460689179
 30
0.0
 10
201.5719421172578
 20
119.7924929206974
 30
0.0
 10
202.1425481914288
 20
119.977728770466
 30
0.0
 10
202.75306821351
 20
120.1240489939203
 30
0.0
 10
203.3862511306194
 20
120.2438622747122
 30
0.0
 10
204.048099352415
 20
120.32291073896
 30
0.0
 10
204.7221755970872
 20
120.3586962174396
 30
0.0
 10
205.400293871742
 20
120.3657695522656
 30
0.0
 10
206.078771793597
 20
120.3297183287201
 30
0.0
 10
206.7404073157878
 20
120.2509347960151
 30
0.0
 10
207.3870093845742
 20
120.1444706841426
 30
0.0
 10
208.0056245894526
 20
119.997384095421
 30
0.0
 10
208.5802258081918
 20
119.8129134672804
 30
0.0
 10
209.122412599336
 20
119.6049144458443
 30
0.0
 10
209.6114215116636
 20
119.3633750188809
 30
0.0
 10
210.03420553808
 20
119.0940139755378
 30
0.0
 10
210.410852671621
 20
118.8079315156161
 30
0.0
 10
210.7151008004818
 20
118.4991602428878
 30
0.0
 10
210.9384523162834
 20
118.1753011804335
 30
0.0
 10
211.0643918975242
 20
117.9270646634225
 30
0.0
 10
211.1495663889524
 20
117.6752098251267
 30
0.0
 10
211.1901999218044
 20
117.4179095106329
 30
0.0
 10
211.1958668835954
 20
117.2119781373484
 30
0.0
 10
211.1731793901574
 20
117.0935460438702
 30
0.0
 10
211.1670646555186
 20
117.0616262186883
 30
0.0
  0
SPLINE
  5
1BC
330
1F
100
AcDbEntity
  8
SLD-0
  6
SLD-DURCHGEHEND
 62
     7
100
AcDbSpline
210
0.0
220
0.0
230
1.0
 70
     8
 71
     3
 72
     9
 73
     5
 74
     0
 42
0.000000001
 43
0.00000001
 40
0.0
 40
0.0
 40
0.0
 40
0.0
 40
0.2384484753018893
 40
0.9999999999999999
 40
0.9999999999999999
 40
0.9999999999999999
 40
0.9999999999999999
 10
249.2314355415203
 20
116.3765612423262
 30
0.0
 10
249.2440766820829
 20
116.2860887473664
 30
0.0
 10
249.2970908208678
 20
115.9066671769612
 30
0.0
 10
249.248258232148
 20
115.5591090199417
 30
0.0
 10
249.2110696997538
 20
115.2944255755422
 30
0.0
  0
SPLINE
  5
1BD
330
1F
100
AcDbEntity
  8
SLD-0
  6
SLD-DURCHGEHEND
 62
     7
100
AcDbSpline
210
0.0
220
0.0
230
1.0
 70
     8
 71
     3
 72
    16
 73
    12
 74
     0
 42
0.000000001
 43
0.00000001
 40
0.0
 40
0.0
 40
0.0
 40
0.0
 40
0.0928175400397882
 40
0.2204753986743332
 40
0.3444979735276286
 40
0.4721293719166633
 40
0.5956617060377967
 40
0.7230154864003727
 40
0.8425561195575813
 40
0.9656650471023839
 40
1.0
 40
1.0
 40
1.0
 40
1.0
 10
207.7799737553754
 20
120.0351978224465
 30
0.0
 10
207.5071058748136
 20
120.0596757650551
 30
0.0
 10
206.8589454654072
 20
120.1178197769848
 30
0.0
 10
205.7806914518782
 20
120.0738555201116
 30
0.0
 10
204.5846073965072
 20
119.9406583041714
 30
0.0
 10
203.4121310830088
 20
119.7212069721308
 30
0.0
 10
202.2780712802538
 20
119.4325571407445
 30
0.0
 10
201.2432363956898
 20
119.0981479886113
 30
0.0
 10
200.3315642753202
 20
118.7262947837483
 30
0.0
 10
199.7160408890095
 20
118.4319009064326
 30
0.0
 10
199.4552079469118
 20
118.2558623964035
 30
0.0
 10
199.3983261757315
 20
118.2174723749366
 30
0.0
  0
SPLINE
  5
1BE
330
1F
100
AcDbEntity
  8
SLD-0
  6
SLD-DURCHGEHEND
 62
     7
100
AcDbSpline
210
0.0
220
0.0
230
1.0
 70
     8
 71
     3
 72
    17
 73
    13
 74
     0
 42
0.000000001
 43
0.00000001
 40
0.0
 40
0.0
 40
0.0
 40
0.0
 40
0.0994446450032286
 40
0.1995778496085047
 40
0.3018827110692535
 40
0.4049386207976186
 40
0.504383729869558
 40
0.6045230281232653
 40
0.7068653605532418
 40
0.809979020460606
 40
0.9090377424571517
 40
1.0
 40
1.0
 40
1.0
 40
1.0
 10
173.9138979618
 20
128.410535205
 30
0.0
 10
173.7430986960095
 20
128.5180016043548
 30
0.0
 10
173.4003175419307
 20
128.733678505687
 30
0.0
 10
172.9442199683212
 20
129.0444270028652
 30
0.0
 10
172.5342127348943
 20
129.3452794952447
 30
0.0
 10
172.1851896904315
 20
129.6298385734048
 30
0.0
 10
171.8995742055599
 20
129.8971120863244
 30
0.0
 10
171.677851404772
 20
130.1489670605208
 30
0.0
 10
171.5203855157014
 20
130.3895342664787
 30
0.0
 10
171.4356812185679
 20
130.6156761379453
 30
0.0
 10
171.4169203856019
 20
130.8227838404654
 30
0.0
 10
171.4610447096326
 20
130.9495553366252
 30
0.0
 10
171.4821668411789
 20
131.0102403278863
 30
0.0
  0
ELLIPSE
  5
1BF
330
1F
100
AcDbEntity
  8
SLD-0
  6
SLD-DURCHGEHEND
 62
     7
100
AcDbEllipse
 10
204.6288845979
 20
331.348059237
 30
0.0
 11
-0.004878043758623107
 21
25.20035996437611
 31
0.0
210
0.0
220
0.0
230
1.0
 40
0.0045138131
 41
2.60859345693006
 42
2.869498563783209
  0
ELLIPSE
  5
1C0
330
1F
100
AcDbEntity
  8
SLD-0
  6
SLD-DURCHGEHEND
 62
     7
100
AcDbEllipse
 10
358.2557611912
 20
331.3480592368
 30
0.0
 11
27.27377342261479
 21
-0.352093734000789
 31
0.0
210
0.0
220
0.0
230
1.0
 40
0.9238875665
 41
4.193362886073317
 42
4.454267992932324
  0
ELLIPSE
  5
1C1
330
1F
100
AcDbEntity
  8
SLD-0
  6
SLD-DURCHGEHEND
 62
     7
100
AcDbEllipse
 10
358.2557611912
 20
331.3480592368
 30
0.0
 11
22.94460303827958
 21
-0.2962058397175724
 31
0.0
210
0.0
220
0.0
230
1.0
 40
0.9238875665
 41
5.098767317936336
 42
5.231408205520509
  0
ELLIPSE
  5
1C2
330
1F
100
AcDbEntity
  8
SLD-0
  6
SLD-DURCHGEHEND
 62
     7
100
AcDbEllipse
 10
500.1704457051
 20
331.3480592368
 30
0.0
 11
27.27377342293727
 21
0.3520937340049954
 31
0.0
210
0.0
220
0.0
230
1.0
 40
0.9238875665
 41
4.970509967843451
 42
5.231415074695986
  0
ELLIPSE
  5
1C3
330
1F
100
AcDbEntity
  8
SLD-0
  6
SLD-DURCHGEHEND
 62
     7
100
AcDbEllipse
 10
500.1704457051
 20
331.3480592368
 30
0.0
 11
22.94460303827947
 21
0.2962058397176293
 31
0.0
210
0.0
220
0.0
230
1.0
 40
0.9238875665
 41
4.193369755258239
 42
4.326010642833092
  0
ELLIPSE
  5
1C4
330
1F
100
AcDbEntity
  8
SLD-0
  6
SLD-DURCHGEHEND
 62
     7
100
AcDbEllipse
 10
203.2387016088
 20
267.3342661336
 30
0.0
 11
0.004878043758594686
 21
25.20035996437611
 31
0.0
210
0.0
220
0.0
230
1.0
 40
0.0045138131
 41
2.636546530815573
 42
2.898559824507775
  0
ELLIPSE
  5
1C5
330
1F
100
AcDbEntity
  8
SLD-0
  6
SLD-DURCHGEHEND
 62
     7
100
AcDbEllipse
 10
203.2387016088
 20
267.3342661336
 30
0.0
 11
0.004103751101553144
 21
21.20030284288094
 31
0.0
210
0.0
220
0.0
230
1.0
 40
0.0045138131
 41
3.646590493120713
 42
3.674591851496338
  0
ELLIPSE
  5
1C6
330
1F
100
AcDbEntity
  8
SLD-0
  6
SLD-DURCHGEHEND
 62
     7
100
AcDbEllipse
 10
496.1378501165
 20
252.6435491534
 30
0.0
 11
-0.1137594636902577
 21
27.27571325507631
 31
0.0
210
0.0
220
0.0
230
1.0
 40
0.0001703034
 41
4.982435718732109
 42
5.243340825583335
  0
ELLIPSE
  5
1C7
330
1F
100
AcDbEntity
  8
SLD-0
  6
SLD-DURCHGEHEND
 62
     7
100
AcDbEllipse
 10
496.1378501165
 20
252.6435491534
 30
0.0
 11
-0.11375946456468
 21
27.27571346472604
 31
0.0
210
0.0
220
0.0
230
1.0
 40
0.0001703034
 41
4.205295510422102
 42
4.467308801759616
  0
ELLIPSE
  5
1C8
330
1F
100
AcDbEntity
  8
SLD-0
  6
SLD-DURCHGEHEND
 62
     7
100
AcDbEllipse
 10
361.2164708058
 20
228.4157611912
 30
0.0
 11
0.09570240620200821
 21
22.94623501825902
 31
0.0
210
0.0
220
0.0
230
1.0
 40
0.0001703034
 41
5.08684156609066
 42
5.219482453294553
  0
ELLIPSE
  5
1C9
330
1F
100
AcDbEntity
  8
SLD-0
  6
SLD-DURCHGEHEND
 62
     7
100
AcDbEllipse
 10
361.2164708058
 20
228.4157611912
 30
0.0
 11
0.09570240596167422
 21
22.9462349606188
 31
0.0
210
0.0
220
0.0
230
1.0
 40
0.0001703034
 41
4.18143713523812
 42
4.313817015907395
  0
ELLIPSE
  5
1CA
330
1F
100
AcDbEntity
  8
SLD-0
  6
SLD-DURCHGEHEND
 62
     7
100
AcDbEllipse
 10
205.2964254648
 20
137.8825756935
 30
0.0
 11
6.519540706186774
 21
20.75953283780356
 31
0.0
210
0.0
220
0.0
230
1.0
 40
0.4143688004
 41
4.164903228067274
 42
4.297544115664424
  0
ELLIPSE
  5
1CB
330
1F
100
AcDbEntity
  8
SLD-0
  6
SLD-DURCHGEHEND
 62
     7
100
AcDbEllipse
 10
205.2964254648
 20
137.8825756935
 30
0.0
 11
6.519540706516409
 21
20.75953283885329
 31
0.0
210
0.0
220
0.0
230
1.0
 40
0.4143688004
 41
3.259498796220135
 42
3.391878676924514
  0
MTEXT
  5
1CD
330
1F
100
AcDbEntity
  8
SLD-0
 62
     7
100
AcDbMText
 10
560.5538745598
 20
38.6404264526
 30
0.0
 40
3.0
 41
0.0
 71
     1
 72
     1
  1
Blattformat
  7
SLDTEXTSTYLE0
  0
MTEXT
  5
1CE
330
1F
100
AcDbEntity
  8
SLD-0
 62
     7
100
AcDbMText
 10
324.7284817854
 20
51.525397496
 30
0.0
 40
3.0
 41
0.0
 71
     1
 72
     1
  1
Ch. Höfig
  7
SLDTEXTSTYLE0
  0
MTEXT
  5
1CF
330
1F
100
AcDbEntity
  8
SLD-0
 62
     7
100
AcDbMText
 10
333.5565622027
 20
64.2964751712
 30
0.0
 40
3.0
 41
0.0
 71
     2
 72
     1
  1
Name
  7
SLDTEXTSTYLE0
  0
MTEXT
  5
1D0
330
1F
100
AcDbEntity
  8
SLD-0
 62
     7
100
AcDbMText
 10
320.8917246176
 20
41.7476491356
 30
0.0
 40
3.0
 41
0.0
 71
     1
 72
     1
  1
Werkstoff:
  7
SLDTEXTSTYLE0
  0
MTEXT
  5
1D1
330
1F
100
AcDbEntity
  8
SLD-0
 62
     7
100
AcDbMText
 10
409.7299718068
 20
64.2677394832
 30
0.0
 40
3.0
 41
0.0
 71
     1
 72
     1
  1
Artikelnummer
  7
SLDTEXTSTYLE0
  0
MTEXT
  5
1D2
330
1F
100
AcDbEntity
  8
SLD-0
 62
     7
100
AcDbMText
 10
409.747932235
 20
39.5128122112
 30
0.0
 40
3.0
 41
0.0
 71
     1
 72
     1
  1
Hersteller
  7
SLDTEXTSTYLE0
  0
MTEXT
  5
1D3
330
1F
100
AcDbEntity
  8
SLD-0
 62
     7
100
AcDbMText
 10
409.747932235
 20
15.5757111062
 30
0.0
 40
3.0
 41
0.0
 71
     1
 72
     1
  1
Massstab: 1:2
  7
SLDTEXTSTYLE0
  0
MTEXT
  5
1D5
330
1F
100
AcDbEntity
  8
SLD-0
 62
     7
100
AcDbMText
 10
498.5565888556
 20
15.5757111062
 30
0.0
 40
3.0
 41
0.0
 71
     1
 72
     1
  1
Blatt 1 von 1
  7
SLDTEXTSTYLE1
  0
MTEXT
  5
1D6
330
1F
100
AcDbEntity
  8
SLD-0
 62
     7
100
AcDbMText
 10
566.036402504
 20
27.9934659972
 30
0.0
 40
5.8208333334
 41
0.0
 71
     1
 72
     1
  1
A4
  7
SLDTEXTSTYLE0
  0
MTEXT
  5
1D7
330
1F
100
AcDbEntity
  8
SLD-0
 62
     7
100
AcDbMText
 10
489.6247311999
 20
35.7835812752
 30
0.0
 40
10.5833333334
 41
0.0
 71
     2
 72
     1
  1
Feldmann GmbH
  7
SLDTEXTSTYLE0
  0
MTEXT
  5
1D8
330
1F
100
AcDbEntity
  8
SLD-0
 62
     7
100
AcDbMText
 10
392.513905949
 20
64.2964751712
 30
0.0
 40
3.0
 41
0.0
 71
     2
 72
     1
  1
Datum
  7
SLDTEXTSTYLE0
  0
MTEXT
  5
1D9
330
1F
100
AcDbEntity
  8
SLD-0
 62
     7
100
AcDbMText
 10
360.0535019006
 20
51.525397496
 30
0.0
 40
3.0
 41
0.0
 71
     1
 72
     1
  1
CH
  7
SLDTEXTSTYLE0
  0
MTEXT
  5
1DA
330
1F
100
AcDbEntity
  8
SLD-0
 62
     7
100
AcDbMText
 10
382.7945986128
 20
51.529470723
 30
0.0
 40
3.0
 41
0.0
 71
     1
 72
     1
  1
11.04.2014
  7
SLDTEXTSTYLE0
  0
MTEXT
  5
1DB
330
1F
100
AcDbEntity
  8
SLD-0
 62
     7
100
AcDbMText
 10
363.1526150807
 20
15.6044467944
 30
0.0
 40
3.0
 41
0.0
 71
     2
 72
     1
  1
Gewicht 0.057 kg
  7
SLDTEXTSTYLE0
  0
MTEXT
  5
1DC
330
1F
100
AcDbEntity
  8
SLD-0
 62
     7
100
AcDbMText
 10
363.3339708451
 20
30.8741803075
 30
0.0
 40
4.7625
 41
0.0
 71
     2
 72
     1
  1
1.4401 (X5CrNiMo17-12-2)
  7
SLDTEXTSTYLE0
  0
MTEXT
  5
1DD
330
1F
100
AcDbEntity
  8
SLD-0
 62
     7
100
AcDbMText
 10
460.6720204185
 20
58.1528938536
 30
0.0
 40
8.4666666666
 41
0.0
 71
     2
 72
     1
  1
60178-V4A
  7
SLDTEXTSTYLE0
  0
MTEXT
  5
1DE
330
1F
100
AcDbEntity
  8
SLD-0
 62
     7
100
AcDbMText
 10
363.5265429531
 20
63.8976520754
 30
0.0
 40
3.0
 41
0.0
 71
     2
 72
     1
  1
Signatur
  7
SLDTEXTSTYLE0
  0
ENDSEC
  0
SECTION
  2
OBJECTS
  0
DICTIONARY
  5
C
330
0
100
AcDbDictionary
  3
ACAD_GROUP
350
D
  3
ACAD_MLINESTYLE
350
17
  3
ACAD_SCALELIST
350
47
1001
ACAD
1000
TREAT_AS_HARD
1070
     0
  0
DICTIONARY
  5
D
102
{ACAD_REACTORS
330
C
102
}
330
C
100
AcDbDictionary
1001
ACAD
1000
TREAT_AS_HARD
1070
     0
  0
DICTIONARY
  5
17
102
{ACAD_REACTORS
330
C
102
}
330
C
100
AcDbDictionary
  3
STANDARD
350
18
1001
ACAD
1000
TREAT_AS_HARD
1070
     0
  0
DICTIONARY
  5
47
102
{ACAD_REACTORS
330
C
102
}
330
C
100
AcDbDictionary
1001
ACAD
1000
TREAT_AS_HARD
1070
     0
  0
MLINESTYLE
  5
18
102
{ACAD_REACTORS
330
17
102
}
330
17
100
AcDbMlineStyle
  2
Standard
 70
     0
  3

 62
   256
 51
90.0
 52
90.0
 71
     2
 49
0.5
 62
   256
  6
BYLAYER
 49
-0.5
 62
   256
  6
BYLAYER
  0
ENDSEC
  0
EOF
