  0
SECTION
  2
HEADER
  9
$ACADVER
  1
AC1015
  9
$ACADMAINTVER
 70
     6
  9
$DWGCODEPAGE
  3
ANSI_1252
  9
$INSBASE
 10
0.0
 20
0.0
 30
0.0
  9
$EXTMIN
 10
0.0
 20
0.0
 30
0.0
  9
$EXTMAX
 10
1485.0
 20
1050.0
 30
0.0
  9
$LIMMIN
 10
0.0
 20
0.0
  9
$LIMMAX
 10
1485.0
 20
1050.0
  9
$ORTHOMODE
 70
     0
  9
$REGENMODE
 70
     1
  9
$FILLMODE
 70
     1
  9
$QTEXTMODE
 70
     0
  9
$MIRRTEXT
 70
     1
  9
$LTSCALE
 40
5.0
  9
$ATTMODE
 70
     1
  9
$TEXTSIZE
 40
17.5
  9
$TRACEWID
 40
1.0
  9
$TEXTSTYLE
  7
Standard
  9
$CLAYER
  8
0
  9
$CELTYPE
  6
ByLayer
  9
$CECOLOR
 62
   256
  9
$CELTSCALE
 40
1.0
  9
$DISPSILH
 70
     0
  9
$DIMSCALE
 40
1.0
  9
$DIMASZ
 40
16.51
  9
$DIMEXO
 40
5.0
  9
$DIMDLI
 40
3.75
  9
$DIMRND
 40
0.0
  9
$DIMDLE
 40
0.0
  9
$DIMEXE
 40
5.0
  9
$DIMTP
 40
0.0
  9
$DIMTM
 40
0.0
  9
$DIMTXT
 40
17.5
  9
$DIMCEN
 40
2.5
  9
$DIMTSZ
 40
0.0
  9
$DIMTOL
 70
     0
  9
$DIMLIM
 70
     0
  9
$DIMTIH
 70
     1
  9
$DIMTOH
 70
     1
  9
$DIMSE1
 70
     0
  9
$DIMSE2
 70
     0
  9
$DIMTAD
 70
     1
  9
$DIMZIN
 70
     0
  9
$DIMBLK
  1

  9
$DIMASO
 70
     1
  9
$DIMSHO
 70
     1
  9
$DIMPOST
  1

  9
$DIMAPOST
  1

  9
$DIMALT
 70
     0
  9
$DIMALTD
 70
     3
  9
$DIMALTF
 40
0.0393700787
  9
$DIMLFAC
 40
1.0
  9
$DIMTOFL
 70
     1
  9
$DIMTVP
 40
0.0
  9
$DIMTIX
 70
     0
  9
$DIMSOXD
 70
     0
  9
$DIMSAH
 70
     0
  9
$DIMBLK1
  1

  9
$DIMBLK2
  1

  9
$DIMSTYLE
  2
ISO-25
  9
$DIMCLRD
 70
     0
  9
$DIMCLRE
 70
     0
  9
$DIMCLRT
 70
     0
  9
$DIMTFAC
 40
1.0
  9
$DIMGAP
 40
7.62
  9
$DIMJUST
 70
     0
  9
$DIMSD1
 70
     0
  9
$DIMSD2
 70
     0
  9
$DIMTOLJ
 70
     0
  9
$DIMTZIN
 70
     0
  9
$DIMALTZ
 70
     0
  9
$DIMALTTZ
 70
     0
  9
$DIMUPT
 70
     0
  9
$DIMDEC
 70
     2
  9
$DIMTDEC
 70
     2
  9
$DIMALTU
 70
     2
  9
$DIMALTTD
 70
     3
  9
$DIMTXSTY
  7
Standard
  9
$DIMAUNIT
 70
     0
  9
$DIMADEC
 70
     2
  9
$DIMALTRND
 40
0.0
  9
$DIMAZIN
 70
     0
  9
$DIMDSEP
 70
    44
  9
$DIMATFIT
 70
     3
  9
$DIMFRAC
 70
     0
  9
$DIMLDRBLK
  1

  9
$DIMLUNIT
 70
     2
  9
$DIMLWD
 70
    -2
  9
$DIMLWE
 70
    -2
  9
$DIMTMOVE
 70
     0
  9
$LUNITS
 70
     2
  9
$LUPREC
 70
     2
  9
$SKETCHINC
 40
1.0
  9
$FILLETRAD
 40
10.0
  9
$AUNITS
 70
     0
  9
$AUPREC
 70
     2
  9
$MENU
  1
.
  9
$ELEVATION
 40
0.0
  9
$PELEVATION
 40
0.0
  9
$THICKNESS
 40
0.0
  9
$LIMCHECK
 70
     0
  9
$CHAMFERA
 40
0.0
  9
$CHAMFERB
 40
0.0
  9
$CHAMFERC
 40
0.0
  9
$CHAMFERD
 40
0.0
  9
$SKPOLY
 70
     0
  9
$TDCREATE
 40
2456834.373951933
  9
$TDUCREATE
 40
2456834.290618599
  9
$TDUPDATE
 40
2456834.373953044
  9
$TDUUPDATE
 40
2456834.29061971
  9
$TDINDWG
 40
0.0000000116
  9
$TDUSRTIMER
 40
0.0000000116
  9
$USRTIMER
 70
     1
  9
$ANGBASE
 50
0.0
  9
$ANGDIR
 70
     0
  9
$PDMODE
 70
     0
  9
$PDSIZE
 40
-1.0
  9
$PLINEWID
 40
0.0
  9
$SPLFRAME
 70
     0
  9
$SPLINETYPE
 70
     6
  9
$SPLINESEGS
 70
     8
  9
$HANDSEED
  5
3D3
  9
$SURFTAB1
 70
     6
  9
$SURFTAB2
 70
     6
  9
$SURFTYPE
 70
     6
  9
$SURFU
 70
     6
  9
$SURFV
 70
     6
  9
$UCSBASE
  2

  9
$UCSNAME
  2

  9
$UCSORG
 10
0.0
 20
0.0
 30
0.0
  9
$UCSXDIR
 10
1.0
 20
0.0
 30
0.0
  9
$UCSYDIR
 10
0.0
 20
1.0
 30
0.0
  9
$UCSORTHOREF
  2

  9
$UCSORTHOVIEW
 70
     0
  9
$UCSORGTOP
 10
0.0
 20
0.0
 30
0.0
  9
$UCSORGBOTTOM
 10
0.0
 20
0.0
 30
0.0
  9
$UCSORGLEFT
 10
0.0
 20
0.0
 30
0.0
  9
$UCSORGRIGHT
 10
0.0
 20
0.0
 30
0.0
  9
$UCSORGFRONT
 10
0.0
 20
0.0
 30
0.0
  9
$UCSORGBACK
 10
0.0
 20
0.0
 30
0.0
  9
$PUCSBASE
  2

  9
$PUCSNAME
  2

  9
$PUCSORG
 10
0.0
 20
0.0
 30
0.0
  9
$PUCSXDIR
 10
1.0
 20
0.0
 30
0.0
  9
$PUCSYDIR
 10
0.0
 20
1.0
 30
0.0
  9
$PUCSORTHOREF
  2

  9
$PUCSORTHOVIEW
 70
     0
  9
$PUCSORGTOP
 10
0.0
 20
0.0
 30
0.0
  9
$PUCSORGBOTTOM
 10
0.0
 20
0.0
 30
0.0
  9
$PUCSORGLEFT
 10
0.0
 20
0.0
 30
0.0
  9
$PUCSORGRIGHT
 10
0.0
 20
0.0
 30
0.0
  9
$PUCSORGFRONT
 10
0.0
 20
0.0
 30
0.0
  9
$PUCSORGBACK
 10
0.0
 20
0.0
 30
0.0
  9
$USERI1
 70
     0
  9
$USERI2
 70
     0
  9
$USERI3
 70
     0
  9
$USERI4
 70
     0
  9
$USERI5
 70
     0
  9
$USERR1
 40
0.0
  9
$USERR2
 40
0.0
  9
$USERR3
 40
0.0
  9
$USERR4
 40
0.0
  9
$USERR5
 40
0.0
  9
$WORLDVIEW
 70
     1
  9
$SHADEDGE
 70
     3
  9
$SHADEDIF
 70
    70
  9
$TILEMODE
 70
     1
  9
$MAXACTVP
 70
    64
  9
$PINSBASE
 10
0.0
 20
0.0
 30
0.0
  9
$PLIMCHECK
 70
     0
  9
$PEXTMIN
 10
1.0000000000E+20
 20
1.0000000000E+20
 30
1.0000000000E+20
  9
$PEXTMAX
 10
-1.0000000000E+20
 20
-1.0000000000E+20
 30
-1.0000000000E+20
  9
$PLIMMIN
 10
0.0
 20
0.0
  9
$PLIMMAX
 10
420.0
 20
297.0
  9
$UNITMODE
 70
     0
  9
$VISRETAIN
 70
     1
  9
$PLINEGEN
 70
     0
  9
$PSLTSCALE
 70
     1
  9
$TREEDEPTH
 70
  3020
  9
$CMLSTYLE
  2
Standard
  9
$CMLJUST
 70
     0
  9
$CMLSCALE
 40
20.0
  9
$PROXYGRAPHICS
 70
     1
  9
$MEASUREMENT
 70
     1
  9
$CELWEIGHT
370
    -1
  9
$ENDCAPS
280
     0
  9
$JOINSTYLE
280
     0
  9
$LWDISPLAY
290
     1
  9
$INSUNITS
 70
     4
  9
$HYPERLINKBASE
  1

  9
$STYLESHEET
  1

  9
$XEDIT
290
     1
  9
$CEPSNTYPE
380
     0
  9
$PSTYLEMODE
290
     1
  9
$FINGERPRINTGUID
  2
{FDA9FD1C-BB01-4FBB-81C8-73BCA34A8ACF}
  9
$VERSIONGUID
  2
{FAEB1C32-E019-11D5-929B-00C0DF256EC4}
  9
$EXTNAMES
290
     1
  9
$PSVPSCALE
 40
0.0
  9
$OLESTARTUP
290
     0
  0
ENDSEC
  0
SECTION
  2
CLASSES
  0
CLASS
  1
ACDBDICTIONARYWDFLT
  2
AcDbDictionaryWithDefault
  3
ObjectDBX Classes
 90
        0
280
     0
281
     0
  0
CLASS
  1
VISUALSTYLE
  2
AcDbVisualStyle
  3
ObjectDBX Classes
 90
     4095
280
     0
281
     0
  0
CLASS
  1
MATERIAL
  2
AcDbMaterial
  3
ObjectDBX Classes
 90
     1153
280
     0
281
     0
  0
CLASS
  1
SCALE
  2
AcDbScale
  3
ObjectDBX Classes
 90
     1153
280
     0
281
     0
  0
CLASS
  1
SUN
  2
AcDbSun
  3
SCENEOE
 90
     1153
280
     0
281
     0
  0
CLASS
  1
ACDBPLACEHOLDER
  2
AcDbPlaceHolder
  3
ObjectDBX Classes
 90
        0
280
     0
281
     0
  0
CLASS
  1
LAYOUT
  2
AcDbLayout
  3
ObjectDBX Classes
 90
        0
280
     0
281
     0
  0
ENDSEC
  0
SECTION
  2
TABLES
  0
TABLE
  2
VPORT
  5
8
330
0
100
AcDbSymbolTable
 70
     1
  0
VPORT
  5
29
330
8
100
AcDbSymbolTableRecord
100
AcDbViewportTableRecord
  2
*Active
 70
     0
 10
0.0
 20
0.0
 11
1.0
 21
1.0
 12
742.5
 22
525.0
 13
0.0
 23
0.0
 14
10.0
 24
10.0
 15
10.0
 25
10.0
 16
0.0
 26
0.0
 36
1.0
 17
0.0
 27
0.0
 37
0.0
 40
1050.0
 41
1.4142857143
 42
50.0
 43
0.0
 44
0.0
 50
0.0
 51
0.0
 71
     0
 72
  2000
 73
     1
 74
     3
 75
     0
 76
     0
 77
     0
 78
     0
281
     0
 65
     1
110
0.0
120
0.0
130
0.0
111
1.0
121
0.0
131
0.0
112
0.0
122
1.0
132
0.0
 79
     0
146
0.0
  0
ENDTAB
  0
TABLE
  2
LTYPE
  5
5
330
0
100
AcDbSymbolTable
 70
     6
  0
LTYPE
  5
14
330
5
100
AcDbSymbolTableRecord
100
AcDbLinetypeTableRecord
  2
ByBlock
 70
     0
  3

 72
    65
 73
     0
 40
0.0
  0
LTYPE
  5
15
330
5
100
AcDbSymbolTableRecord
100
AcDbLinetypeTableRecord
  2
ByLayer
 70
     0
  3

 72
    65
 73
     0
 40
0.0
  0
LTYPE
  5
16
330
5
100
AcDbSymbolTableRecord
100
AcDbLinetypeTableRecord
  2
Continuous
 70
     0
  3
Solid line
 72
    65
 73
     0
 40
0.0
  0
LTYPE
  5
6A
330
5
100
AcDbSymbolTableRecord
100
AcDbLinetypeTableRecord
  2
HIDDEN
 70
     0
  3
Hidden __ __ __ __ __ __ __ __ __ __ __ __ __ __
 72
    65
 73
     2
 40
1.905
 49
1.27
 74
     0
 49
-0.635
 74
     0
  0
LTYPE
  5
6B
330
5
100
AcDbSymbolTableRecord
100
AcDbLinetypeTableRecord
  2
PHANTOM
 70
     0
  3
Phantom ______  __  __  ______  __  __  ______
 72
    65
 73
     6
 40
12.7
 49
6.35
 74
     0
 49
-1.27
 74
     0
 49
1.27
 74
     0
 49
-1.27
 74
     0
 49
1.27
 74
     0
 49
-1.27
 74
     0
  0
LTYPE
  5
6C
330
5
100
AcDbSymbolTableRecord
100
AcDbLinetypeTableRecord
  2
CENTER
 70
     0
  3
Center ____ _ ____ _ ____ _ ____ _ ____ _ ____
 72
    65
 73
     4
 40
10.16
 49
6.35
 74
     0
 49
-1.27
 74
     0
 49
1.27
 74
     0
 49
-1.27
 74
     0
  0
LTYPE
  5
6D
330
5
100
AcDbSymbolTableRecord
100
AcDbLinetypeTableRecord
  2
CENTERX2
 70
     0
  3
Center (2x) ________  __  ________  __  _____
 72
    65
 73
     4
 40
20.32
 49
12.7
 74
     0
 49
-2.54
 74
     0
 49
2.54
 74
     0
 49
-2.54
 74
     0
  0
LTYPE
  5
6E
330
5
100
AcDbSymbolTableRecord
100
AcDbLinetypeTableRecord
  2
DOT2
 70
     0
  3
Dot (.5x) ........................................
 72
    65
 73
     2
 40
0.635
 49
0.0
 74
     0
 49
-0.635
 74
     0
  0
ENDTAB
  0
TABLE
  2
LAYER
  5
2
330
0
100
AcDbSymbolTable
 70
     2
  0
LAYER
  5
10
330
2
100
AcDbSymbolTableRecord
100
AcDbLayerTableRecord
  2
0
 70
     0
 62
     7
  6
Continuous
370
    -3
390
F
  0
LAYER
  5
6F
330
2
100
AcDbSymbolTableRecord
100
AcDbLayerTableRecord
  2
FORMAT
 70
     0
 62
     7
  6
Continuous
370
    -3
390
F
  0
ENDTAB
  0
TABLE
  2
STYLE
  5
3
330
0
100
AcDbSymbolTable
 70
     3
  0
STYLE
  5
11
330
3
100
AcDbSymbolTableRecord
100
AcDbTextStyleTableRecord
  2
Standard
 70
     0
 40
0.0
 41
1.0
 50
0.0
 71
     0
 42
17.5
  3
txt
  4

  0
STYLE
  5
8C
330
3
100
AcDbSymbolTableRecord
100
AcDbTextStyleTableRecord
  2
SLDTEXTSTYLE0
 70
     0
 40
0.0
 41
0.75
 50
0.0
 71
     0
 42
17.5
  3
TXT
  4

  0
STYLE
  5
94
330
3
100
AcDbSymbolTableRecord
100
AcDbTextStyleTableRecord
  2
SLDTEXTSTYLE1
 70
     0
 40
0.0
 41
0.6923076923
 50
0.0
 71
     0
 42
17.5
  3
TXT
  4

  0
ENDTAB
  0
TABLE
  2
VIEW
  5
6
330
0
100
AcDbSymbolTable
 70
     0
  0
ENDTAB
  0
TABLE
  2
UCS
  5
7
330
0
100
AcDbSymbolTable
 70
     0
  0
ENDTAB
  0
TABLE
  2
APPID
  5
9
330
0
100
AcDbSymbolTable
 70
     1
  0
APPID
  5
12
330
9
100
AcDbSymbolTableRecord
100
AcDbRegAppTableRecord
  2
ACAD
 70
     0
  0
ENDTAB
  0
TABLE
  2
DIMSTYLE
  5
A
330
0
100
AcDbSymbolTable
 70
     1
100
AcDbDimStyleTable
  0
DIMSTYLE
105
27
330
A
100
AcDbSymbolTableRecord
100
AcDbDimStyleTableRecord
  2
ISO-25
 70
     0
 41
2.5
 42
0.625
 43
3.75
 44
1.25
 73
     0
 74
     0
 77
     1
 78
     8
140
2.5
141
2.5
143
0.0393700787
147
0.625
171
     3
172
     1
178
     0
271
     2
272
     2
274
     3
278
    44
283
     0
284
     8
340
11
  0
ENDTAB
  0
TABLE
  2
BLOCK_RECORD
  5
1
330
0
100
AcDbSymbolTable
 70
     1
  0
BLOCK_RECORD
  5
1F
330
1
100
AcDbSymbolTableRecord
100
AcDbBlockTableRecord
  2
*Model_Space
340
22
  0
BLOCK_RECORD
  5
1B
330
1
100
AcDbSymbolTableRecord
100
AcDbBlockTableRecord
  2
*Paper_Space
340
1E
  0
BLOCK_RECORD
  5
23
330
1
100
AcDbSymbolTableRecord
100
AcDbBlockTableRecord
  2
*Paper_Space0
340
26
  0
ENDTAB
  0
ENDSEC
  0
SECTION
  2
BLOCKS
  0
BLOCK
  5
20
330
1F
100
AcDbEntity
  8
0
100
AcDbBlockBegin
  2
*Model_Space
 70
     0
 10
0.0
 20
0.0
 30
0.0
  3
*Model_Space
  1
*Model_Space
  0
ENDBLK
  5
21
330
1F
100
AcDbEntity
  8
0
100
AcDbBlockEnd
  0
BLOCK
  5
1C
330
1B
100
AcDbEntity
 67
     1
  8
0
100
AcDbBlockBegin
  2
*Paper_Space
 70
     0
 10
0.0
 20
0.0
 30
0.0
  3
*Paper_Space
  1
*Paper_Space
  0
ENDBLK
  5
1D
330
1B
100
AcDbEntity
 67
     1
  8
0
100
AcDbBlockEnd
  0
BLOCK
  5
24
330
23
100
AcDbEntity
  8
0
100
AcDbBlockBegin
  2
*Paper_Space0
 70
     0
 10
0.0
 20
0.0
 30
0.0
  3
*Paper_Space0
  1
*Paper_Space0
  0
ENDBLK
  5
25
330
23
100
AcDbEntity
  8
0
100
AcDbBlockEnd
  0
ENDSEC
  0
SECTION
  2
ENTITIES
  0
LINE
  5
70
330
1F
100
AcDbEntity
  8
0
  6
Continuous
 62
     7
370
     0
100
AcDbLine
 10
1460.0
 20
1025.0
 30
0.0
 11
1460.0
 21
25.0
 31
0.0
  0
LINE
  5
71
330
1F
100
AcDbEntity
  8
0
  6
Continuous
 62
     7
370
     0
100
AcDbLine
 10
797.0
 20
173.75
 30
0.0
 11
870.65
 21
173.75
 31
0.0
  0
LINE
  5
72
330
1F
100
AcDbEntity
  8
0
  6
Continuous
 62
     7
370
     0
100
AcDbLine
 10
1018.0
 20
173.75
 30
0.0
 11
1460.0
 21
173.75
 31
0.0
  0
LINE
  5
73
330
1F
100
AcDbEntity
  8
0
  6
Continuous
 62
     7
370
     0
100
AcDbLine
 10
797.0
 20
46.25
 30
0.0
 11
1460.0
 21
46.25
 31
0.0
  0
LINE
  5
74
330
1F
100
AcDbEntity
  8
0
  6
Continuous
 62
     7
370
     0
100
AcDbLine
 10
797.0
 20
173.75
 30
0.0
 11
797.0
 21
141.875
 31
0.0
  0
LINE
  5
75
330
1F
100
AcDbEntity
  8
0
  6
Continuous
 62
     7
370
     0
100
AcDbLine
 10
1460.0
 20
110.0
 30
0.0
 11
1395.0
 21
110.0
 31
0.0
  0
LINE
  5
76
330
1F
100
AcDbEntity
  8
0
  6
Continuous
 62
     7
370
     0
100
AcDbLine
 10
944.3
 20
110.0
 30
0.0
 11
1018.0
 21
110.0
 31
0.0
  0
LINE
  5
77
330
1F
100
AcDbEntity
  8
0
  6
Continuous
 62
     7
370
     0
100
AcDbLine
 10
1018.0
 20
173.75
 30
0.0
 11
1018.0
 21
25.0
 31
0.0
  0
LINE
  5
78
330
1F
100
AcDbEntity
  8
0
  6
Continuous
 62
     7
370
     0
100
AcDbLine
 10
1239.0
 20
25.0
 30
0.0
 11
1239.0
 21
46.25
 31
0.0
  0
LINE
  5
79
330
1F
100
AcDbEntity
  8
0
  6
Continuous
 62
     7
370
     0
100
AcDbLine
 10
870.65
 20
173.75
 30
0.0
 11
944.3
 21
173.75
 31
0.0
  0
LINE
  5
7A
330
1F
100
AcDbEntity
  8
0
  6
Continuous
 62
     7
370
     0
100
AcDbLine
 10
1395.0
 20
46.25
 30
0.0
 11
1395.0
 21
77.4748468009
 31
0.0
  0
LINE
  5
7B
330
1F
100
AcDbEntity
  8
0
  6
Continuous
 62
     7
370
     0
100
AcDbLine
 10
944.3
 20
173.75
 30
0.0
 11
1018.0
 21
173.75
 31
0.0
  0
LINE
  5
7C
330
1F
100
AcDbEntity
  8
0
  6
Continuous
 62
     7
370
     0
100
AcDbLine
 10
1460.0
 20
77.4748468009
 30
0.0
 11
1395.0
 21
77.4748468009
 31
0.0
  0
LINE
  5
7D
330
1F
100
AcDbEntity
  8
0
  6
Continuous
 62
     7
370
     0
100
AcDbLine
 10
1018.0
 20
110.0
 30
0.0
 11
1395.0
 21
110.0
 31
0.0
  0
LINE
  5
7E
330
1F
100
AcDbEntity
  8
0
  6
Continuous
 62
     7
370
     0
100
AcDbLine
 10
944.3
 20
173.75
 30
0.0
 11
944.3
 21
110.0
 31
0.0
  0
LINE
  5
7F
330
1F
100
AcDbEntity
  8
0
  6
Continuous
 62
     7
370
     0
100
AcDbLine
 10
944.3
 20
110.0
 30
0.0
 11
870.65
 21
110.0
 31
0.0
  0
LINE
  5
80
330
1F
100
AcDbEntity
  8
0
  6
Continuous
 62
     7
370
     0
100
AcDbLine
 10
1460.0
 20
1025.0
 30
0.0
 11
25.0
 21
1025.0
 31
0.0
  0
LINE
  5
81
330
1F
100
AcDbEntity
  8
0
  6
Continuous
 62
     7
370
     0
100
AcDbLine
 10
25.0
 20
1025.0
 30
0.0
 11
25.0
 21
25.0
 31
0.0
  0
LINE
  5
82
330
1F
100
AcDbEntity
  8
0
  6
Continuous
 62
     7
370
     0
100
AcDbLine
 10
25.0
 20
25.0
 30
0.0
 11
1460.0
 21
25.0
 31
0.0
  0
LINE
  5
83
330
1F
100
AcDbEntity
  8
0
  6
Continuous
 62
     7
370
     0
100
AcDbLine
 10
870.65
 20
110.0
 30
0.0
 11
870.65
 21
173.75
 31
0.0
  0
LINE
  5
84
330
1F
100
AcDbEntity
  8
0
  6
Continuous
 62
     7
370
     0
100
AcDbLine
 10
870.65
 20
110.0
 30
0.0
 11
797.0
 21
110.0
 31
0.0
  0
LINE
  5
85
330
1F
100
AcDbEntity
  8
0
  6
Continuous
 62
     7
370
     0
100
AcDbLine
 10
1395.0
 20
77.4748468009
 30
0.0
 11
1395.0
 21
110.0
 31
0.0
  0
LINE
  5
86
330
1F
100
AcDbEntity
  8
0
  6
Continuous
 62
     7
370
     0
100
AcDbLine
 10
797.0
 20
141.875
 30
0.0
 11
870.65
 21
141.875
 31
0.0
  0
LINE
  5
87
330
1F
100
AcDbEntity
  8
0
  6
Continuous
 62
     7
370
     0
100
AcDbLine
 10
870.65
 20
141.875
 30
0.0
 11
944.3
 21
141.875
 31
0.0
  0
LINE
  5
88
330
1F
100
AcDbEntity
  8
0
  6
Continuous
 62
     7
370
     0
100
AcDbLine
 10
944.3
 20
141.875
 30
0.0
 11
1018.0
 21
141.875
 31
0.0
  0
LINE
  5
89
330
1F
100
AcDbEntity
  8
0
  6
Continuous
 62
     7
370
     0
100
AcDbLine
 10
797.0
 20
110.0
 30
0.0
 11
797.0
 21
141.875
 31
0.0
  0
LINE
  5
8A
330
1F
100
AcDbEntity
  8
0
  6
Continuous
 62
     7
370
     0
100
AcDbLine
 10
797.0
 20
110.0
 30
0.0
 11
797.0
 21
46.25
 31
0.0
  0
LINE
  5
8B
330
1F
100
AcDbEntity
  8
0
  6
Continuous
 62
     7
370
     0
100
AcDbLine
 10
797.0
 20
25.0
 30
0.0
 11
797.0
 21
46.25
 31
0.0
  0
MTEXT
  5
8D
330
1F
100
AcDbEntity
  8
0
  6
Continuous
 62
     7
370
     0
100
AcDbMText
 10
1401.3846863997
 20
97.1622247384
 30
0.0
 40
7.5
 41
0.0
 71
     1
 72
     1
  1
Blattformat
  7
SLDTEXTSTYLE0
 73
     1
 44
1.0
  0
MTEXT
  5
8E
330
1F
100
AcDbEntity
  8
0
  6
Continuous
 62
     7
370
     0
100
AcDbMText
 10
811.8212044635
 20
129.3746523468
 30
0.0
 40
7.5
 41
0.0
 71
     1
 72
     1
  1
Ch. Höfig
  7
SLDTEXTSTYLE0
 73
     1
 44
1.0
  0
MTEXT
  5
8F
330
1F
100
AcDbEntity
  8
0
  6
Continuous
 62
     7
370
     0
100
AcDbMText
 10
833.8809891295
 20
161.0080619896
 30
0.0
 40
7.5
 41
0.0
 71
     2
 72
     1
  1
Name
  7
SLDTEXTSTYLE0
 73
     1
 44
1.0
  0
MTEXT
  5
90
330
1F
100
AcDbEntity
  8
0
  6
Continuous
 62
     7
370
     0
100
AcDbMText
 10
802.2293115438
 20
104.9302814462
 30
0.0
 40
7.5
 41
0.0
 71
     1
 72
     1
  1
Werkstoff:
  7
SLDTEXTSTYLE0
 73
     1
 44
1.0
  0
MTEXT
  5
91
330
1F
100
AcDbEntity
  8
0
  6
Continuous
 62
     7
370
     0
100
AcDbMText
 10
1024.3249295171
 20
161.2305073149
 30
0.0
 40
7.5
 41
0.0
 71
     1
 72
     1
  1
Artikelnummer
  7
SLDTEXTSTYLE0
 73
     1
 44
1.0
  0
MTEXT
  5
92
330
1F
100
AcDbEntity
  8
0
  6
Continuous
 62
     7
370
     0
100
AcDbMText
 10
1024.3698305875
 20
99.3431891352
 30
0.0
 40
7.5
 41
0.0
 71
     1
 72
     1
  1
Hersteller
  7
SLDTEXTSTYLE0
 73
     1
 44
1.0
  0
MTEXT
  5
93
330
1F
100
AcDbEntity
  8
0
  6
Continuous
 62
     7
370
     0
100
AcDbMText
 10
1024.3698305875
 20
39.5004363727
 30
0.0
 40
7.5
 41
0.0
 71
     1
 72
     1
  1
Massstab: 1:5
  7
SLDTEXTSTYLE0
 73
     1
 44
1.0
  0
MTEXT
  5
95
330
1F
100
AcDbEntity
  8
0
  6
Continuous
 62
     7
370
     0
100
AcDbMText
 10
1246.3914721391
 20
39.5004363727
 30
0.0
 40
7.5
 41
0.0
 71
     1
 72
     1
  1
Blatt 1 von 1
  7
SLDTEXTSTYLE1
 73
     1
 44
1.0
  0
MTEXT
  5
96
330
1F
100
AcDbEntity
  8
0
  6
Continuous
 62
     7
370
     0
100
AcDbMText
 10
1415.0910062598
 20
71.07246794
 30
0.0
 40
14.5520833333
 41
0.0
 71
     1
 72
     1
  1
A4
  7
SLDTEXTSTYLE0
 73
     1
 44
1.0
  0
MTEXT
  5
97
330
1F
100
AcDbEntity
  8
0
  6
Continuous
 62
     7
370
     0
100
AcDbMText
 10
1223.9286054088
 20
91.4385968682
 30
0.0
 40
26.4583333333
 41
0.0
 71
     2
 72
     1
  1
Feldmann GmbH
  7
SLDTEXTSTYLE0
 73
     1
 44
1.0
  0
MTEXT
  5
98
330
1F
100
AcDbEntity
  8
0
  6
Continuous
 62
     7
370
     0
100
AcDbMText
 10
981.2717449829
 20
161.0080619896
 30
0.0
 40
7.5
 41
0.0
 71
     2
 72
     1
  1
Datum
  7
SLDTEXTSTYLE0
 73
     1
 44
1.0
  0
MTEXT
  5
99
330
1F
100
AcDbEntity
  8
0
  6
Continuous
 62
     7
370
     0
100
AcDbMText
 10
900.1337547517
 20
129.3746523468
 30
0.0
 40
7.5
 41
0.0
 71
     1
 72
     1
  1
CH
  7
SLDTEXTSTYLE0
 73
     1
 44
1.0
  0
MTEXT
  5
9A
330
1F
100
AcDbEntity
  8
0
  6
Continuous
 62
     7
370
     0
100
AcDbMText
 10
956.986496532
 20
129.3848354147
 30
0.0
 40
7.5
 41
0.0
 71
     1
 72
     1
  1
25.06.2014
  7
SLDTEXTSTYLE0
 73
     1
 44
1.0
  0
MTEXT
  5
9B
330
1F
100
AcDbEntity
  8
0
  6
Continuous
 62
     7
370
     0
100
AcDbMText
 10
907.9015592743
 20
39.5650174538
 30
0.0
 40
7.5
 41
0.0
 71
     2
 72
     1
  1
Gewicht 2.747 kg
  7
SLDTEXTSTYLE0
 73
     1
 44
1.0
  0
MTEXT
  5
9C
330
1F
100
AcDbEntity
  8
0
  6
Continuous
 62
     7
370
     0
100
AcDbMText
 10
908.6979420714
 20
77.7800262997
 30
0.0
 40
11.90625
 41
0.0
 71
     2
 72
     1
  1
1.4301 (X5CrNi18-10)
  7
SLDTEXTSTYLE0
 73
     1
 44
1.0
  0
MTEXT
  5
9D
330
1F
100
AcDbEntity
  8
0
  6
Continuous
 62
     7
370
     0
100
AcDbMText
 10
1152.9865048214
 20
146.9497827917
 30
0.0
 40
21.1666666667
 41
0.0
 71
     2
 72
     1
  1
60201-240E
  7
SLDTEXTSTYLE0
 73
     1
 44
1.0
  0
MTEXT
  5
9E
330
1F
100
AcDbEntity
  8
0
  6
Continuous
 62
     7
370
     0
100
AcDbMText
 10
908.7650089123
 20
160.2980306565
 30
0.0
 40
7.5
 41
0.0
 71
     2
 72
     1
  1
Signatur
  7
SLDTEXTSTYLE0
 73
     1
 44
1.0
  0
LINE
  5
9F
330
1F
100
AcDbEntity
  8
0
  6
Continuous
 62
     7
370
    15
100
AcDbLine
 10
448.657767361
 20
530.0424580865
 30
0.0
 11
449.4857671465
 21
529.4626874321
 31
0.0
  0
LINE
  5
A0
330
1F
100
AcDbEntity
  8
0
  6
Continuous
 62
     7
370
    15
100
AcDbLine
 10
457.8297664206
 20
529.4626874321
 30
0.0
 11
458.6577662061
 21
530.0424580865
 31
0.0
  0
LINE
  5
A1
330
1F
100
AcDbEntity
  8
0
  6
Continuous
 62
     7
370
    15
100
AcDbLine
 10
457.9725810121
 20
529.3626857393
 30
0.0
 11
457.8297664206
 21
529.4626874321
 31
0.0
  0
LINE
  5
A2
330
1F
100
AcDbEntity
  8
0
  6
Continuous
 62
     7
370
    15
100
AcDbLine
 10
449.4857671465
 20
529.4626874321
 30
0.0
 11
449.342952555
 21
529.3626857393
 31
0.0
  0
LINE
  5
A3
330
1F
100
AcDbEntity
  8
0
  6
Continuous
 62
     7
370
    15
100
AcDbLine
 10
458.3296184222
 20
512.612685322
 30
0.0
 11
457.8297664206
 21
512.9626875215
 31
0.0
  0
LINE
  5
A4
330
1F
100
AcDbEntity
  8
0
  6
Continuous
 62
     7
370
    15
100
AcDbLine
 10
449.4857671465
 20
512.9626875215
 30
0.0
 11
448.9859151448
 21
512.612685322
 31
0.0
  0
LINE
  5
A5
330
1F
100
AcDbEntity
  8
0
  6
Continuous
 62
     7
370
    15
100
AcDbLine
 10
458.6577662061
 20
530.0424580865
 30
0.0
 11
458.6577662061
 21
530.1126872592
 31
0.0
  0
LINE
  5
A6
330
1F
100
AcDbEntity
  8
0
  6
Continuous
 62
     7
370
    15
100
AcDbLine
 10
448.657767361
 20
530.1126872592
 30
0.0
 11
448.657767361
 21
530.0424580865
 31
0.0
  0
LINE
  5
A7
330
1F
100
AcDbEntity
  8
0
  6
Continuous
 62
     7
370
    15
100
AcDbLine
 10
448.9145078491
 20
513.362686842
 30
0.0
 11
449.4857671465
 21
512.9626875215
 31
0.0
  0
LINE
  5
A8
330
1F
100
AcDbEntity
  8
0
  6
Continuous
 62
     7
370
    15
100
AcDbLine
 10
457.8297664206
 20
512.9626875215
 30
0.0
 11
458.4010266493
 21
513.362686842
 31
0.0
  0
LINE
  5
A9
330
1F
100
AcDbEntity
  8
0
  6
Continuous
 62
     7
370
    15
100
AcDbLine
 10
458.6577662061
 20
599.8829153769
 30
0.0
 11
457.8297664206
 21
600.4626860313
 31
0.0
  0
LINE
  5
AA
330
1F
100
AcDbEntity
  8
0
  6
Continuous
 62
     7
370
    15
100
AcDbLine
 10
449.4857671465
 20
600.4626860313
 30
0.0
 11
448.657767361
 21
599.8829153769
 31
0.0
  0
LINE
  5
AB
330
1F
100
AcDbEntity
  8
0
  6
Continuous
 62
     7
370
    15
100
AcDbLine
 10
449.342952555
 20
600.5626877241
 30
0.0
 11
449.4857671465
 21
600.4626860313
 31
0.0
  0
LINE
  5
AC
330
1F
100
AcDbEntity
  8
0
  6
Continuous
 62
     7
370
    15
100
AcDbLine
 10
457.8297664206
 20
600.4626860313
 30
0.0
 11
457.9725810121
 21
600.5626877241
 31
0.0
  0
LINE
  5
AD
330
1F
100
AcDbEntity
  8
0
  6
Continuous
 62
     7
370
    15
100
AcDbLine
 10
448.9859151448
 20
617.3126881413
 30
0.0
 11
449.4857671465
 21
616.9626859419
 31
0.0
  0
LINE
  5
AE
330
1F
100
AcDbEntity
  8
0
  6
Continuous
 62
     7
370
    15
100
AcDbLine
 10
457.8297664206
 20
616.9626859419
 30
0.0
 11
458.3296184222
 21
617.3126881413
 31
0.0
  0
LINE
  5
AF
330
1F
100
AcDbEntity
  8
0
  6
Continuous
 62
     7
370
    15
100
AcDbLine
 10
458.4010266493
 20
616.5626866214
 30
0.0
 11
457.8297664206
 21
616.9626859419
 31
0.0
  0
LINE
  5
B0
330
1F
100
AcDbEntity
  8
0
  6
Continuous
 62
     7
370
    15
100
AcDbLine
 10
449.4857671465
 20
616.9626859419
 30
0.0
 11
448.9145078491
 21
616.5626866214
 31
0.0
  0
LINE
  5
B1
330
1F
100
AcDbEntity
  8
0
  6
Continuous
 62
     7
370
    15
100
AcDbLine
 10
448.657767361
 20
599.8829153769
 30
0.0
 11
448.657767361
 21
599.8126862042
 31
0.0
  0
LINE
  5
B2
330
1F
100
AcDbEntity
  8
0
  6
Continuous
 62
     7
370
    15
100
AcDbLine
 10
458.6577662061
 20
599.8126862042
 30
0.0
 11
458.6577662061
 21
599.8829153769
 31
0.0
  0
LINE
  5
B3
330
1F
100
AcDbEntity
  8
0
  6
Continuous
 62
     7
370
    15
100
AcDbLine
 10
441.1577670629
 20
599.8126862042
 30
0.0
 11
441.1577670629
 21
564.9626866153
 31
0.0
  0
LINE
  5
B4
330
1F
100
AcDbEntity
  8
0
  6
Continuous
 62
     7
370
    15
100
AcDbLine
 10
441.1577670629
 20
512.612685322
 30
0.0
 11
441.1577670629
 21
489.9626893394
 31
0.0
  0
LINE
  5
B5
330
1F
100
AcDbEntity
  8
0
  6
Continuous
 62
     7
370
    15
100
AcDbLine
 10
466.1577665041
 20
530.1126872592
 30
0.0
 11
466.1577665041
 21
564.9626866153
 31
0.0
  0
LINE
  5
B6
330
1F
100
AcDbEntity
  8
0
  6
Continuous
 62
     7
370
    15
100
AcDbLine
 10
466.1577665041
 20
617.3126881413
 30
0.0
 11
466.1577665041
 21
639.9626878493
 31
0.0
  0
LINE
  5
B7
330
1F
100
AcDbEntity
  8
0
  6
Continuous
 62
     7
370
    15
100
AcDbLine
 10
458.6577662061
 20
530.0424580865
 30
0.0
 11
448.657767361
 21
530.0424580865
 31
0.0
  0
LINE
  5
B8
330
1F
100
AcDbEntity
  8
0
  6
Continuous
 62
     7
370
    15
100
AcDbLine
 10
457.8297664206
 20
529.4626874321
 30
0.0
 11
449.4857671465
 21
529.4626874321
 31
0.0
  0
LINE
  5
B9
330
1F
100
AcDbEntity
  8
0
  6
Continuous
 62
     7
370
    15
100
AcDbLine
 10
457.8297664206
 20
512.9626875215
 30
0.0
 11
449.4857671465
 21
512.9626875215
 31
0.0
  0
LINE
  5
BA
330
1F
100
AcDbEntity
  8
0
  6
Continuous
 62
     7
370
    15
100
AcDbLine
 10
452.0500679295
 20
599.8829153769
 30
0.0
 11
458.6577662061
 21
599.8829153769
 31
0.0
  0
LINE
  5
BB
330
1F
100
AcDbEntity
  8
0
  6
Continuous
 62
     7
370
    15
100
AcDbLine
 10
448.657767361
 20
599.8829153769
 30
0.0
 11
452.0500679295
 21
599.8829153769
 31
0.0
  0
LINE
  5
BC
330
1F
100
AcDbEntity
  8
0
  6
Continuous
 62
     7
370
    15
100
AcDbLine
 10
452.3163032512
 20
600.4626860313
 30
0.0
 11
457.8297664206
 21
600.4626860313
 31
0.0
  0
LINE
  5
BD
330
1F
100
AcDbEntity
  8
0
  6
Continuous
 62
     7
370
    15
100
AcDbLine
 10
449.4857671465
 20
600.4626860313
 30
0.0
 11
452.3163032512
 21
600.4626860313
 31
0.0
  0
LINE
  5
BE
330
1F
100
AcDbEntity
  8
0
  6
Continuous
 62
     7
370
    15
100
AcDbLine
 10
452.3163032512
 20
616.9626859419
 30
0.0
 11
457.8297664206
 21
616.9626859419
 31
0.0
  0
LINE
  5
BF
330
1F
100
AcDbEntity
  8
0
  6
Continuous
 62
     7
370
    15
100
AcDbLine
 10
449.4857671465
 20
616.9626859419
 30
0.0
 11
452.3163032512
 21
616.9626859419
 31
0.0
  0
LINE
  5
C0
330
1F
100
AcDbEntity
  8
0
  6
Continuous
 62
     7
370
    15
100
AcDbLine
 10
428.6577668767
 20
529.3626857393
 30
0.0
 11
428.6577668767
 21
513.362686842
 31
0.0
  0
LINE
  5
C1
330
1F
100
AcDbEntity
  8
0
  6
Continuous
 62
     7
370
    15
100
AcDbLine
 10
428.6577668767
 20
529.3626857393
 30
0.0
 11
478.6577657591
 21
529.3626857393
 31
0.0
  0
LINE
  5
C2
330
1F
100
AcDbEntity
  8
0
  6
Continuous
 62
     7
370
    15
100
AcDbLine
 10
478.6577657591
 20
529.3626857393
 30
0.0
 11
478.6577657591
 21
513.362686842
 31
0.0
  0
LINE
  5
C3
330
1F
100
AcDbEntity
  8
0
  6
Continuous
 62
     7
370
    15
100
AcDbLine
 10
428.6577668767
 20
513.362686842
 30
0.0
 11
478.6577657591
 21
513.362686842
 31
0.0
  0
LINE
  5
C4
330
1F
100
AcDbEntity
  8
0
  6
Continuous
 62
     7
370
    15
100
AcDbLine
 10
428.6577668767
 20
616.5626866214
 30
0.0
 11
428.6577668767
 21
600.5626877241
 31
0.0
  0
LINE
  5
C5
330
1F
100
AcDbEntity
  8
0
  6
Continuous
 62
     7
370
    15
100
AcDbLine
 10
428.6577668767
 20
616.5626866214
 30
0.0
 11
478.6577657591
 21
616.5626866214
 31
0.0
  0
LINE
  5
C6
330
1F
100
AcDbEntity
  8
0
  6
Continuous
 62
     7
370
    15
100
AcDbLine
 10
478.6577657591
 20
616.5626866214
 30
0.0
 11
478.6577657591
 21
600.5626877241
 31
0.0
  0
LINE
  5
C7
330
1F
100
AcDbEntity
  8
0
  6
Continuous
 62
     7
370
    15
100
AcDbLine
 10
428.6577668767
 20
600.5626877241
 30
0.0
 11
478.6577657591
 21
600.5626877241
 31
0.0
  0
LINE
  5
C8
330
1F
100
AcDbEntity
  8
0
  6
Continuous
 62
     7
370
    15
100
AcDbLine
 10
466.1577665041
 20
564.9626866153
 30
0.0
 11
466.1577665041
 21
599.8126862042
 31
0.0
  0
LINE
  5
C9
330
1F
100
AcDbEntity
  8
0
  6
Continuous
 62
     7
370
    15
100
AcDbLine
 10
441.1577670629
 20
564.9626866153
 30
0.0
 11
466.1577665041
 21
564.9626866153
 31
0.0
  0
LINE
  5
CA
330
1F
100
AcDbEntity
  8
0
  6
Continuous
 62
     7
370
    15
100
AcDbLine
 10
441.1577670629
 20
599.8126862042
 30
0.0
 11
466.1577665041
 21
599.8126862042
 31
0.0
  0
LINE
  5
CB
330
1F
100
AcDbEntity
  8
0
  6
Continuous
 62
     7
370
    15
100
AcDbLine
 10
466.1577665041
 20
489.9626893394
 30
0.0
 11
466.1577665041
 21
512.612685322
 31
0.0
  0
LINE
  5
CC
330
1F
100
AcDbEntity
  8
0
  6
Continuous
 62
     7
370
    15
100
AcDbLine
 10
441.1577670629
 20
489.9626893394
 30
0.0
 11
466.1577665041
 21
489.9626893394
 31
0.0
  0
LINE
  5
CD
330
1F
100
AcDbEntity
  8
0
  6
Continuous
 62
     7
370
    15
100
AcDbLine
 10
441.1577670629
 20
512.612685322
 30
0.0
 11
466.1577665041
 21
512.612685322
 31
0.0
  0
ARC
  5
CE
330
1F
100
AcDbEntity
  8
0
  6
Continuous
 62
     7
370
    15
100
AcDbCircle
 10
565.6577670429
 20
584.4626865672
 30
0.0
 40
7.0
100
AcDbArc
 50
180.0
 51
0.0
  0
LINE
  5
CF
330
1F
100
AcDbEntity
  8
0
  6
Continuous
 62
     7
370
    15
100
AcDbLine
 10
572.6577625404
 20
584.462687134
 30
0.0
 11
572.6577625404
 21
595.4626870744
 31
0.0
  0
ARC
  5
D0
330
1F
100
AcDbEntity
  8
0
  6
Continuous
 62
     7
370
    15
100
AcDbCircle
 10
565.6577670429
 20
595.4626865672
 30
0.0
 40
7.0
100
AcDbArc
 50
0.0
 51
180.0
  0
LINE
  5
D1
330
1F
100
AcDbEntity
  8
0
  6
Continuous
 62
     7
370
    15
100
AcDbLine
 10
558.6577639709
 20
595.4626870744
 30
0.0
 11
558.6577639709
 21
584.462687134
 31
0.0
  0
LINE
  5
D2
330
1F
100
AcDbEntity
  8
0
  6
Continuous
 62
     7
370
    15
100
AcDbLine
 10
466.1577665041
 20
530.1126872592
 30
0.0
 11
489.1577684115
 21
530.1126872592
 31
0.0
  0
LINE
  5
D3
330
1F
100
AcDbEntity
  8
0
  6
Continuous
 62
     7
370
    15
100
AcDbLine
 10
489.1577684115
 20
617.3126881413
 30
0.0
 11
489.1577684115
 21
599.8126862042
 31
0.0
  0
LINE
  5
D4
330
1F
100
AcDbEntity
  8
0
  6
Continuous
 62
     7
370
    15
100
AcDbLine
 10
466.1577665041
 20
617.3126881413
 30
0.0
 11
489.1577684115
 21
617.3126881413
 31
0.0
  0
LINE
  5
D5
330
1F
100
AcDbEntity
  8
0
  6
Continuous
 62
     7
370
    15
100
AcDbLine
 10
530.657766832
 20
639.9626878493
 30
0.0
 11
466.1577665041
 21
639.9626878493
 31
0.0
  0
ARC
  5
D6
330
1F
100
AcDbEntity
  8
0
  6
Continuous
 62
     7
370
    15
100
AcDbCircle
 10
530.6577670429
 20
564.9626865672
 30
0.0
 40
75.00000000000006
100
AcDbArc
 50
270.0
 51
90.0
  0
LINE
  5
D7
330
1F
100
AcDbEntity
  8
0
  6
Continuous
 62
     7
370
    15
100
AcDbLine
 10
489.1577684115
 20
530.1126872592
 30
0.0
 11
489.1577684115
 21
512.612685322
 31
0.0
  0
LINE
  5
D8
330
1F
100
AcDbEntity
  8
0
  6
Continuous
 62
     7
370
    15
100
AcDbLine
 10
466.1577665041
 20
489.9626893394
 30
0.0
 11
530.657766832
 21
489.9626893394
 31
0.0
  0
LINE
  5
D9
330
1F
100
AcDbEntity
  8
0
  6
Continuous
 62
     7
370
    15
100
AcDbLine
 10
489.1577684115
 20
512.612685322
 30
0.0
 11
466.1577665041
 21
512.612685322
 31
0.0
  0
LINE
  5
DA
330
1F
100
AcDbEntity
  8
0
  6
Continuous
 62
     7
370
    15
100
AcDbLine
 10
489.1577684115
 20
599.8126862042
 30
0.0
 11
466.1577665041
 21
599.8126862042
 31
0.0
  0
LINE
  5
DB
330
1F
100
AcDbEntity
  8
0
  6
Continuous
 62
     7
370
    15
100
AcDbLine
 10
441.1577670629
 20
564.9626866153
 30
0.0
 11
441.1577670629
 21
530.1126872592
 31
0.0
  0
LINE
  5
DC
330
1F
100
AcDbEntity
  8
0
  6
Continuous
 62
     7
370
    15
100
AcDbLine
 10
466.1577665041
 20
530.1126872592
 30
0.0
 11
441.1577670629
 21
530.1126872592
 31
0.0
  0
LINE
  5
DD
330
1F
100
AcDbEntity
  8
0
  6
Continuous
 62
     7
370
    15
100
AcDbLine
 10
441.1577670629
 20
639.9626878493
 30
0.0
 11
441.1577670629
 21
617.3126881413
 31
0.0
  0
LINE
  5
DE
330
1F
100
AcDbEntity
  8
0
  6
Continuous
 62
     7
370
    15
100
AcDbLine
 10
466.1577665041
 20
617.3126881413
 30
0.0
 11
441.1577670629
 21
617.3126881413
 31
0.0
  0
LINE
  5
DF
330
1F
100
AcDbEntity
  8
0
  6
Continuous
 62
     7
370
    15
100
AcDbLine
 10
466.1577665041
 20
639.9626878493
 30
0.0
 11
441.1577670629
 21
639.9626878493
 31
0.0
  0
ARC
  5
E0
330
1F
100
AcDbEntity
  8
0
  6
Continuous
 62
     7
370
    15
100
AcDbCircle
 10
341.6577670429
 20
545.4626865672
 30
0.0
 40
7.000000000000057
100
AcDbArc
 50
0.0
 51
180.0
  0
LINE
  5
E1
330
1F
100
AcDbEntity
  8
0
  6
Continuous
 62
     7
370
    15
100
AcDbLine
 10
334.6577645074
 20
545.4626863294
 30
0.0
 11
334.6577645074
 21
534.462686389
 31
0.0
  0
ARC
  5
E2
330
1F
100
AcDbEntity
  8
0
  6
Continuous
 62
     7
370
    15
100
AcDbCircle
 10
341.6577670429
 20
534.4626865672
 30
0.0
 40
7.000000000000057
100
AcDbArc
 50
180.0
 51
0.0
  0
LINE
  5
E3
330
1F
100
AcDbEntity
  8
0
  6
Continuous
 62
     7
370
    15
100
AcDbLine
 10
348.6577705275
 20
534.462686389
 30
0.0
 11
348.6577705275
 21
545.4626863294
 31
0.0
  0
LINE
  5
E4
330
1F
100
AcDbEntity
  8
0
  6
Continuous
 62
     7
370
    15
100
AcDbLine
 10
441.1577670629
 20
599.8126862042
 30
0.0
 11
418.1577679496
 21
599.8126862042
 31
0.0
  0
LINE
  5
E5
330
1F
100
AcDbEntity
  8
0
  6
Continuous
 62
     7
370
    15
100
AcDbLine
 10
441.1577670629
 20
564.9626866153
 30
0.0
 11
441.1577670629
 21
599.8126862042
 31
0.0
  0
LINE
  5
E6
330
1F
100
AcDbEntity
  8
0
  6
Continuous
 62
     7
370
    15
100
AcDbLine
 10
418.1577679496
 20
512.612685322
 30
0.0
 11
418.1577679496
 21
530.1126872592
 31
0.0
  0
LINE
  5
E7
330
1F
100
AcDbEntity
  8
0
  6
Continuous
 62
     7
370
    15
100
AcDbLine
 10
441.1577670629
 20
512.612685322
 30
0.0
 11
418.1577679496
 21
512.612685322
 31
0.0
  0
LINE
  5
E8
330
1F
100
AcDbEntity
  8
0
  6
Continuous
 62
     7
370
    15
100
AcDbLine
 10
441.1577670629
 20
489.9626893394
 30
0.0
 11
441.1577670629
 21
512.612685322
 31
0.0
  0
LINE
  5
E9
330
1F
100
AcDbEntity
  8
0
  6
Continuous
 62
     7
370
    15
100
AcDbLine
 10
376.6577676664
 20
489.9626893394
 30
0.0
 11
441.1577670629
 21
489.9626893394
 31
0.0
  0
ARC
  5
EA
330
1F
100
AcDbEntity
  8
0
  6
Continuous
 62
     7
370
    15
100
AcDbCircle
 10
376.6577670429
 20
564.9626865672
 30
0.0
 40
75.00000000000011
100
AcDbArc
 50
90.0
 51
270.0
  0
LINE
  5
EB
330
1F
100
AcDbEntity
  8
0
  6
Continuous
 62
     7
370
    15
100
AcDbLine
 10
418.1577679496
 20
599.8126862042
 30
0.0
 11
418.1577679496
 21
617.3126881413
 31
0.0
  0
LINE
  5
EC
330
1F
100
AcDbEntity
  8
0
  6
Continuous
 62
     7
370
    15
100
AcDbLine
 10
418.1577679496
 20
617.3126881413
 30
0.0
 11
441.1577670629
 21
617.3126881413
 31
0.0
  0
LINE
  5
ED
330
1F
100
AcDbEntity
  8
0
  6
Continuous
 62
     7
370
    15
100
AcDbLine
 10
418.1577679496
 20
530.1126872592
 30
0.0
 11
441.1577670629
 21
530.1126872592
 31
0.0
  0
LINE
  5
EE
330
1F
100
AcDbEntity
  8
0
  6
Continuous
 62
     7
370
    15
100
AcDbLine
 10
441.1577670629
 20
639.9626878493
 30
0.0
 11
376.6577676664
 21
639.9626878493
 31
0.0
  0
LINE
  5
EF
330
1F
100
AcDbEntity
  8
0
  6
Continuous
 62
     7
370
    15
100
AcDbLine
 10
454.7242731582
 20
271.9485715562
 30
0.0
 11
455.2077674101
 21
272.6390764648
 31
0.0
  0
LINE
  5
F0
330
1F
100
AcDbEntity
  8
0
  6
Continuous
 62
     7
370
    15
100
AcDbLine
 10
455.2077674101
 20
279.258067959
 30
0.0
 11
454.7242731582
 21
279.9485728675
 31
0.0
  0
LINE
  5
F1
330
1F
100
AcDbEntity
  8
0
  6
Continuous
 62
     7
370
    15
100
AcDbLine
 10
453.4742743503
 20
271.9485715562
 30
0.0
 11
453.9577667396
 21
272.6390764648
 31
0.0
  0
LINE
  5
F2
330
1F
100
AcDbEntity
  8
0
  6
Continuous
 62
     7
370
    15
100
AcDbLine
 10
453.9577667396
 20
279.258067959
 30
0.0
 11
453.4742743503
 21
279.9485728675
 31
0.0
  0
LINE
  5
F3
330
1F
100
AcDbEntity
  8
0
  6
Continuous
 62
     7
370
    15
100
AcDbLine
 10
455.657767577
 20
279.9007401401
 30
0.0
 11
455.2077674101
 21
279.258067959
 31
0.0
  0
LINE
  5
F4
330
1F
100
AcDbEntity
  8
0
  6
Continuous
 62
     7
370
    15
100
AcDbLine
 10
455.2077674101
 20
272.6390764648
 30
0.0
 11
455.657767577
 21
271.9964042837
 31
0.0
  0
LINE
  5
F5
330
1F
100
AcDbEntity
  8
0
  6
Continuous
 62
     7
370
    15
100
AcDbLine
 10
454.4412609915
 20
279.9485728675
 30
0.0
 11
453.9577667396
 21
279.258067959
 31
0.0
  0
LINE
  5
F6
330
1F
100
AcDbEntity
  8
0
  6
Continuous
 62
     7
370
    15
100
AcDbLine
 10
453.9577667396
 20
272.6390764648
 30
0.0
 11
454.4412609915
 21
271.9485715562
 31
0.0
  0
LINE
  5
F7
330
1F
100
AcDbEntity
  8
0
  6
Continuous
 62
     7
370
    15
100
AcDbLine
 10
453.191260321
 20
271.9485715562
 30
0.0
 11
453.4742743503
 21
271.9485715562
 31
0.0
  0
LINE
  5
F8
330
1F
100
AcDbEntity
  8
0
  6
Continuous
 62
     7
370
    15
100
AcDbLine
 10
453.4742743503
 20
279.9485728675
 30
0.0
 11
453.191260321
 21
279.9485728675
 31
0.0
  0
LINE
  5
F9
330
1F
100
AcDbEntity
  8
0
  6
Continuous
 62
     7
370
    15
100
AcDbLine
 10
454.4412609915
 20
271.9485715562
 30
0.0
 11
454.7242731582
 21
271.9485715562
 31
0.0
  0
LINE
  5
FA
330
1F
100
AcDbEntity
  8
0
  6
Continuous
 62
     7
370
    15
100
AcDbLine
 10
454.7242731582
 20
279.9485728675
 30
0.0
 11
454.4412609915
 21
279.9485728675
 31
0.0
  0
LINE
  5
FB
330
1F
100
AcDbEntity
  8
0
  6
Continuous
 62
     7
370
    15
100
AcDbLine
 10
453.191260321
 20
279.9485728675
 30
0.0
 11
452.7077679317
 21
279.258067959
 31
0.0
  0
LINE
  5
FC
330
1F
100
AcDbEntity
  8
0
  6
Continuous
 62
     7
370
    15
100
AcDbLine
 10
452.7077679317
 20
272.6390764648
 30
0.0
 11
453.191260321
 21
271.9485715562
 31
0.0
  0
LINE
  5
FD
330
1F
100
AcDbEntity
  8
0
  6
Continuous
 62
     7
370
    15
100
AcDbLine
 10
451.9412596504
 20
271.9485715562
 30
0.0
 11
452.2242736797
 21
271.9485715562
 31
0.0
  0
LINE
  5
FE
330
1F
100
AcDbEntity
  8
0
  6
Continuous
 62
     7
370
    15
100
AcDbLine
 10
452.2242736797
 20
279.9485728675
 30
0.0
 11
451.9412596504
 21
279.9485728675
 31
0.0
  0
LINE
  5
FF
330
1F
100
AcDbEntity
  8
0
  6
Continuous
 62
     7
370
    15
100
AcDbLine
 10
452.2242736797
 20
271.9485715562
 30
0.0
 11
452.7077679317
 21
272.6390764648
 31
0.0
  0
LINE
  5
100
330
1F
100
AcDbEntity
  8
0
  6
Continuous
 62
     7
370
    15
100
AcDbLine
 10
452.7077679317
 20
279.258067959
 30
0.0
 11
452.2242736797
 21
279.9485728675
 31
0.0
  0
LINE
  5
101
330
1F
100
AcDbEntity
  8
0
  6
Continuous
 62
     7
370
    15
100
AcDbLine
 10
451.9412596504
 20
279.9485728675
 30
0.0
 11
451.4577672611
 21
279.258067959
 31
0.0
  0
LINE
  5
102
330
1F
100
AcDbEntity
  8
0
  6
Continuous
 62
     7
370
    15
100
AcDbLine
 10
451.4577672611
 20
272.6390764648
 30
0.0
 11
451.9412596504
 21
271.9485715562
 31
0.0
  0
LINE
  5
103
330
1F
100
AcDbEntity
  8
0
  6
Continuous
 62
     7
370
    15
100
AcDbLine
 10
451.1577677707
 20
272.210623377
 30
0.0
 11
451.4577672611
 21
272.6390764648
 31
0.0
  0
LINE
  5
104
330
1F
100
AcDbEntity
  8
0
  6
Continuous
 62
     7
370
    15
100
AcDbLine
 10
451.4577672611
 20
279.258067959
 30
0.0
 11
451.1577677707
 21
279.6865210468
 31
0.0
  0
LINE
  5
105
330
1F
100
AcDbEntity
  8
0
  6
Continuous
 62
     7
370
    15
100
AcDbLine
 10
605.6577698122
 20
327.6418403322
 30
0.0
 11
605.6577698122
 21
337.6418456966
 31
0.0
  0
LINE
  5
106
330
1F
100
AcDbEntity
  8
0
  6
Continuous
 62
     7
370
    15
100
AcDbLine
 10
301.6577646862
 20
337.6418456966
 30
0.0
 11
301.6577646862
 21
327.6418403322
 31
0.0
  0
LINE
  5
107
330
1F
100
AcDbEntity
  8
0
  6
Continuous
 62
     7
370
    15
100
AcDbLine
 10
456.7027878742
 20
321.6689184839
 30
0.0
 11
452.1726392935
 21
320.7683221036
 31
0.0
  0
LINE
  5
108
330
1F
100
AcDbEntity
  8
0
  6
Continuous
 62
     7
370
    15
100
AcDbLine
 10
455.1428952049
 20
329.5153633291
 30
0.0
 11
458.1879158299
 21
326.0424390966
 31
0.0
  0
LINE
  5
109
330
1F
100
AcDbEntity
  8
0
  6
Continuous
 62
     7
370
    15
100
AcDbLine
 10
455.1428952049
 20
329.5153633291
 30
0.0
 11
450.6127466242
 21
328.6147669488
 31
0.0
  0
CIRCLE
  5
10A
330
1F
100
AcDbEntity
  8
0
  6
Continuous
 62
     7
370
    15
100
AcDbCircle
 10
453.6577670429
 20
325.141840809
 30
0.0
 40
7.00000000000002
  0
LINE
  5
10B
330
1F
100
AcDbEntity
  8
0
  6
Continuous
 62
     7
370
    15
100
AcDbLine
 10
450.6127466242
 20
328.6147669488
 30
0.0
 11
449.1276186685
 21
324.241231435
 31
0.0
  0
LINE
  5
10C
330
1F
100
AcDbEntity
  8
0
  6
Continuous
 62
     7
370
    15
100
AcDbLine
 10
452.1726392935
 20
320.7683221036
 30
0.0
 11
449.1276186685
 21
324.241231435
 31
0.0
  0
LINE
  5
10D
330
1F
100
AcDbEntity
  8
0
  6
Continuous
 62
     7
370
    15
100
AcDbLine
 10
456.7027878742
 20
321.6689184839
 30
0.0
 11
458.1879158299
 21
326.0424390966
 31
0.0
  0
CIRCLE
  5
10E
330
1F
100
AcDbEntity
  8
0
  6
Continuous
 62
     7
370
    15
100
AcDbCircle
 10
453.6577670429
 20
325.141840809
 30
0.0
 40
8.000000000000023
  0
ARC
  5
10F
330
1F
100
AcDbEntity
  8
0
  6
Continuous
 62
     7
370
    15
100
AcDbCircle
 10
453.6577670429
 20
325.141840809
 30
0.0
 40
4.000000000000012
100
AcDbArc
 50
281.2439369112
 51
341.2439369112
  0
ARC
  5
110
330
1F
100
AcDbEntity
  8
0
  6
Continuous
 62
     7
370
    15
100
AcDbCircle
 10
453.6577670429
 20
325.141840809
 30
0.0
 40
4.000000000000006
100
AcDbArc
 50
41.2439369112
 51
101.2439369112
  0
ARC
  5
111
330
1F
100
AcDbEntity
  8
0
  6
Continuous
 62
     7
370
    15
100
AcDbCircle
 10
453.6577670429
 20
325.141840809
 30
0.0
 40
4.000000000000012
100
AcDbArc
 50
341.2439369112
 51
41.2439369112
  0
ARC
  5
112
330
1F
100
AcDbEntity
  8
0
  6
Continuous
 62
     7
370
    15
100
AcDbCircle
 10
453.6577670429
 20
325.141840809
 30
0.0
 40
4.000000000000006
100
AcDbArc
 50
221.2439369112
 51
281.2439369112
  0
ARC
  5
113
330
1F
100
AcDbEntity
  8
0
  6
Continuous
 62
     7
370
    15
100
AcDbCircle
 10
453.6577670429
 20
325.141840809
 30
0.0
 40
4.000000000000012
100
AcDbArc
 50
161.2439369112
 51
221.2439369112
  0
ARC
  5
114
330
1F
100
AcDbEntity
  8
0
  6
Continuous
 62
     7
370
    15
100
AcDbCircle
 10
453.6577670429
 20
325.141840809
 30
0.0
 40
4.000000000000012
100
AcDbArc
 50
101.2439369112
 51
161.2439369112
  0
CIRCLE
  5
115
330
1F
100
AcDbEntity
  8
0
  6
Continuous
 62
     7
370
    15
100
AcDbCircle
 10
453.6577670429
 20
325.141840809
 30
0.0
 40
2.499999999999998
  0
LINE
  5
116
330
1F
100
AcDbEntity
  8
0
  6
Continuous
 62
     7
370
    15
100
AcDbLine
 10
455.2077674101
 20
272.6390764648
 30
0.0
 11
455.2077674101
 21
279.258067959
 31
0.0
  0
LINE
  5
117
330
1F
100
AcDbEntity
  8
0
  6
Continuous
 62
     7
370
    15
100
AcDbLine
 10
454.7242731582
 20
271.9485715562
 30
0.0
 11
454.7242731582
 21
279.9485728675
 31
0.0
  0
LINE
  5
118
330
1F
100
AcDbEntity
  8
0
  6
Continuous
 62
     7
370
    15
100
AcDbLine
 10
453.9577667396
 20
272.6390764648
 30
0.0
 11
453.9577667396
 21
279.258067959
 31
0.0
  0
LINE
  5
119
330
1F
100
AcDbEntity
  8
0
  6
Continuous
 62
     7
370
    15
100
AcDbLine
 10
453.4742743503
 20
271.9485715562
 30
0.0
 11
453.4742743503
 21
279.9485728675
 31
0.0
  0
LINE
  5
11A
330
1F
100
AcDbEntity
  8
0
  6
Continuous
 62
     7
370
    15
100
AcDbLine
 10
454.4412609915
 20
271.9485715562
 30
0.0
 11
454.4412609915
 21
279.9485728675
 31
0.0
  0
LINE
  5
11B
330
1F
100
AcDbEntity
  8
0
  6
Continuous
 62
     7
370
    15
100
AcDbLine
 10
453.191260321
 20
271.9485715562
 30
0.0
 11
453.191260321
 21
279.9485728675
 31
0.0
  0
LINE
  5
11C
330
1F
100
AcDbEntity
  8
0
  6
Continuous
 62
     7
370
    15
100
AcDbLine
 10
452.7077679317
 20
272.6390764648
 30
0.0
 11
452.7077679317
 21
279.258067959
 31
0.0
  0
LINE
  5
11D
330
1F
100
AcDbEntity
  8
0
  6
Continuous
 62
     7
370
    15
100
AcDbLine
 10
451.9412596504
 20
271.9485715562
 30
0.0
 11
451.9412596504
 21
279.9485728675
 31
0.0
  0
LINE
  5
11E
330
1F
100
AcDbEntity
  8
0
  6
Continuous
 62
     7
370
    15
100
AcDbLine
 10
452.2242736797
 20
271.9485715562
 30
0.0
 11
452.2242736797
 21
279.9485728675
 31
0.0
  0
LINE
  5
11F
330
1F
100
AcDbEntity
  8
0
  6
Continuous
 62
     7
370
    15
100
AcDbLine
 10
451.4577672611
 20
272.6390764648
 30
0.0
 11
451.4577672611
 21
279.258067959
 31
0.0
  0
ARC
  5
120
330
1F
100
AcDbEntity
  8
0
  6
Continuous
 62
     7
370
    15
100
AcDbCircle
 10
453.6577670429
 20
249.198572509
 30
0.0
 40
25.00000000000006
100
AcDbArc
 50
180.0
 51
0.0
  0
LINE
  5
121
330
1F
100
AcDbEntity
  8
0
  6
Continuous
 62
     7
370
    15
100
AcDbLine
 10
428.6577668767
 20
289.1985729867
 30
0.0
 11
428.6577668767
 21
249.1985664302
 31
0.0
  0
LINE
  5
122
330
1F
100
AcDbEntity
  8
0
  6
Continuous
 62
     7
370
    15
100
AcDbLine
 10
449.1577674429
 20
289.1985729867
 30
0.0
 11
428.6577668767
 21
289.1985729867
 31
0.0
  0
LINE
  5
123
330
1F
100
AcDbEntity
  8
0
  6
Continuous
 62
     7
370
    15
100
AcDbLine
 10
476.2021624278
 20
316.6210756237
 30
0.0
 11
466.6139916311
 21
327.6418403322
 31
0.0
  0
LINE
  5
124
330
1F
100
AcDbEntity
  8
0
  6
Continuous
 62
     7
370
    15
100
AcDbLine
 10
466.1577665041
 20
328.1662270957
 30
0.0
 11
465.6127323191
 21
328.7927017147
 31
0.0
  0
LINE
  5
125
330
1F
100
AcDbEntity
  8
0
  6
Continuous
 62
     7
370
    15
100
AcDbLine
 10
451.1577677707
 20
270.2506438428
 30
0.0
 11
451.1577677707
 21
287.1985689336
 31
0.0
  0
LINE
  5
126
330
1F
100
AcDbEntity
  8
0
  6
Continuous
 62
     7
370
    15
100
AcDbLine
 10
428.6577668767
 20
292.3985675508
 30
0.0
 11
449.1577674429
 21
292.3985675508
 31
0.0
  0
ARC
  5
127
330
1F
100
AcDbEntity
  8
0
  6
Continuous
 62
     7
370
    15
100
AcDbCircle
 10
468.6577670429
 20
310.057380425
 30
0.0
 40
10.00000000000003
100
AcDbArc
 50
0.0
 51
41.0235771256
  0
LINE
  5
128
330
1F
100
AcDbEntity
  8
0
  6
Continuous
 62
     7
370
    15
100
AcDbLine
 10
428.6577668767
 20
310.0573823387
 30
0.0
 11
428.6577668767
 21
292.3985675508
 31
0.0
  0
LINE
  5
129
330
1F
100
AcDbEntity
  8
0
  6
Continuous
 62
     7
370
    15
100
AcDbLine
 10
478.6577657591
 20
249.1985664302
 30
0.0
 11
478.6577657591
 21
310.0573823387
 31
0.0
  0
LINE
  5
12A
330
1F
100
AcDbEntity
  8
0
  6
Continuous
 62
     7
370
    15
100
AcDbLine
 10
440.7015414703
 20
327.6418403322
 30
0.0
 11
431.113371605
 21
316.6210756237
 31
0.0
  0
ARC
  5
12B
330
1F
100
AcDbEntity
  8
0
  6
Continuous
 62
     7
370
    15
100
AcDbCircle
 10
453.6577670429
 20
249.198572509
 30
0.0
 40
21.20000000000005
100
AcDbArc
 50
96.7723363008
 51
84.586687726
  0
LINE
  5
12C
330
1F
100
AcDbEntity
  8
0
  6
Continuous
 62
     7
370
    15
100
AcDbLine
 10
455.657767577
 20
285.8985767299
 30
0.0
 11
455.657767577
 21
270.3040198022
 31
0.0
  0
ARC
  5
12D
330
1F
100
AcDbEntity
  8
0
  6
Continuous
 62
     7
370
    15
100
AcDbCircle
 10
449.1577670429
 20
285.898572509
 30
0.0
 40
6.5
100
AcDbArc
 50
0.0
 51
90.0
  0
ARC
  5
12E
330
1F
100
AcDbEntity
  8
0
  6
Continuous
 62
     7
370
    15
100
AcDbCircle
 10
438.6577670429
 20
310.0573804251
 30
0.0
 40
10.00000000000009
100
AcDbArc
 50
138.9764228744
 51
180.0
  0
ARC
  5
12F
330
1F
100
AcDbEntity
  8
0
  6
Continuous
 62
     7
370
    15
100
AcDbCircle
 10
449.1577670429
 20
287.198572509
 30
0.0
 40
2.0
100
AcDbArc
 50
0.0
 51
90.0
  0
LINE
  5
130
330
1F
100
AcDbEntity
  8
0
  6
Continuous
 62
     7
370
    15
100
AcDbLine
 10
530.657766832
 20
327.6418403322
 30
0.0
 11
466.1577665041
 21
327.6418403322
 31
0.0
  0
LINE
  5
131
330
1F
100
AcDbEntity
  8
0
  6
Continuous
 62
     7
370
    15
100
AcDbLine
 10
466.1577665041
 20
327.6418403322
 30
0.0
 11
466.1577665041
 21
337.6418456966
 31
0.0
  0
LINE
  5
132
330
1F
100
AcDbEntity
  8
0
  6
Continuous
 62
     7
370
    15
100
AcDbLine
 10
530.657766832
 20
337.6418456966
 30
0.0
 11
466.1577665041
 21
337.6418456966
 31
0.0
  0
LINE
  5
133
330
1F
100
AcDbEntity
  8
0
  6
Continuous
 62
     7
370
    15
100
AcDbLine
 10
530.657766832
 20
327.6418403322
 30
0.0
 11
530.657766832
 21
337.6418456966
 31
0.0
  0
LINE
  5
134
330
1F
100
AcDbEntity
  8
0
  6
Continuous
 62
     7
370
    15
100
AcDbLine
 10
530.657766832
 20
337.6418456966
 30
0.0
 11
605.6577698122
 21
337.6418456966
 31
0.0
  0
LINE
  5
135
330
1F
100
AcDbEntity
  8
0
  6
Continuous
 62
     7
370
    15
100
AcDbLine
 10
605.6577698122
 20
327.6418403322
 30
0.0
 11
530.657766832
 21
327.6418403322
 31
0.0
  0
LINE
  5
136
330
1F
100
AcDbEntity
  8
0
  6
Continuous
 62
     7
370
    15
100
AcDbLine
 10
466.1577665041
 20
337.6418456966
 30
0.0
 11
453.6577672492
 21
337.6418456966
 31
0.0
  0
LINE
  5
137
330
1F
100
AcDbEntity
  8
0
  6
Continuous
 62
     7
370
    15
100
AcDbLine
 10
376.6577676664
 20
327.6418403322
 30
0.0
 11
376.6577676664
 21
337.6418456966
 31
0.0
  0
CIRCLE
  5
138
330
1F
100
AcDbEntity
  8
0
  6
Continuous
 62
     7
370
    15
100
AcDbCircle
 10
453.6577670429
 20
325.141840809
 30
0.0
 40
8.499999999999943
  0
LINE
  5
139
330
1F
100
AcDbEntity
  8
0
  6
Continuous
 62
     7
370
    15
100
AcDbLine
 10
453.6577672492
 20
337.6418456966
 30
0.0
 11
376.6577676664
 21
337.6418456966
 31
0.0
  0
LINE
  5
13A
330
1F
100
AcDbEntity
  8
0
  6
Continuous
 62
     7
370
    15
100
AcDbLine
 10
441.1577670629
 20
327.6418403322
 30
0.0
 11
376.6577676664
 21
327.6418403322
 31
0.0
  0
ARC
  5
13B
330
1F
100
AcDbEntity
  8
0
  6
Continuous
 62
     7
370
    15
100
AcDbCircle
 10
453.6577670429
 20
325.141840809
 30
0.0
 40
12.5
100
AcDbArc
 50
180.0
 51
90.0
  0
LINE
  5
13C
330
1F
100
AcDbEntity
  8
0
  6
Continuous
 62
     7
370
    15
100
AcDbLine
 10
441.1577670629
 20
325.1418427164
 30
0.0
 11
441.1577670629
 21
327.6418403322
 31
0.0
  0
LINE
  5
13D
330
1F
100
AcDbEntity
  8
0
  6
Continuous
 62
     7
370
    15
100
AcDbLine
 10
301.6577646862
 20
337.6418456966
 30
0.0
 11
376.6577676664
 21
337.6418456966
 31
0.0
  0
LINE
  5
13E
330
1F
100
AcDbEntity
  8
0
  6
Continuous
 62
     7
370
    15
100
AcDbLine
 10
376.6577676664
 20
327.6418403322
 30
0.0
 11
301.6577646862
 21
327.6418403322
 31
0.0
  0
LINE
  5
13F
330
1F
100
AcDbEntity
  8
0
  6
Continuous
 62
     7
370
    15
100
AcDbLine
 10
448.6577678796
 20
855.8920562495
 30
0.0
 11
449.4857676652
 21
855.3122855951
 31
0.0
  0
LINE
  5
140
330
1F
100
AcDbEntity
  8
0
  6
Continuous
 62
     7
370
    15
100
AcDbLine
 10
457.8297669392
 20
855.3122855951
 30
0.0
 11
458.6577667248
 21
855.8920562495
 31
0.0
  0
LINE
  5
141
330
1F
100
AcDbEntity
  8
0
  6
Continuous
 62
     7
370
    15
100
AcDbLine
 10
457.9725815308
 20
855.2122839023
 30
0.0
 11
457.8297669392
 21
855.3122855951
 31
0.0
  0
LINE
  5
142
330
1F
100
AcDbEntity
  8
0
  6
Continuous
 62
     7
370
    15
100
AcDbLine
 10
449.4857676652
 20
855.3122855951
 30
0.0
 11
449.3429530736
 21
855.2122839023
 31
0.0
  0
LINE
  5
143
330
1F
100
AcDbEntity
  8
0
  6
Continuous
 62
     7
370
    15
100
AcDbLine
 10
458.6577667248
 20
855.8920562495
 30
0.0
 11
458.6577667248
 21
855.9622854222
 31
0.0
  0
LINE
  5
144
330
1F
100
AcDbEntity
  8
0
  6
Continuous
 62
     7
370
    15
100
AcDbLine
 10
448.6577678796
 20
855.9622854222
 30
0.0
 11
448.6577678796
 21
855.8920562495
 31
0.0
  0
LINE
  5
145
330
1F
100
AcDbEntity
  8
0
  6
Continuous
 62
     7
370
    15
100
AcDbLine
 10
448.9145074364
 20
839.212285005
 30
0.0
 11
449.4857676652
 21
838.8122856845
 31
0.0
  0
LINE
  5
146
330
1F
100
AcDbEntity
  8
0
  6
Continuous
 62
     7
370
    15
100
AcDbLine
 10
457.8297669392
 20
838.8122856845
 30
0.0
 11
458.4010262367
 21
839.212285005
 31
0.0
  0
LINE
  5
147
330
1F
100
AcDbEntity
  8
0
  6
Continuous
 62
     7
370
    15
100
AcDbLine
 10
458.3296189409
 20
838.4622834851
 30
0.0
 11
457.8297669392
 21
838.8122856845
 31
0.0
  0
LINE
  5
148
330
1F
100
AcDbEntity
  8
0
  6
Continuous
 62
     7
370
    15
100
AcDbLine
 10
449.4857676652
 20
838.8122856845
 30
0.0
 11
448.9859156635
 21
838.4622834851
 31
0.0
  0
LINE
  5
149
330
1F
100
AcDbEntity
  8
0
  6
Continuous
 62
     7
370
    15
100
AcDbLine
 10
448.9859156635
 20
943.1622863044
 30
0.0
 11
449.4857676652
 21
942.812284105
 31
0.0
  0
LINE
  5
14A
330
1F
100
AcDbEntity
  8
0
  6
Continuous
 62
     7
370
    15
100
AcDbLine
 10
457.8297669392
 20
942.812284105
 30
0.0
 11
458.3296189409
 21
943.1622863044
 31
0.0
  0
LINE
  5
14B
330
1F
100
AcDbEntity
  8
0
  6
Continuous
 62
     7
370
    15
100
AcDbLine
 10
458.6577667248
 20
925.7325135399
 30
0.0
 11
457.8297669392
 21
926.3122841944
 31
0.0
  0
LINE
  5
14C
330
1F
100
AcDbEntity
  8
0
  6
Continuous
 62
     7
370
    15
100
AcDbLine
 10
449.4857676652
 20
926.3122841944
 30
0.0
 11
448.6577678796
 21
925.7325135399
 31
0.0
  0
LINE
  5
14D
330
1F
100
AcDbEntity
  8
0
  6
Continuous
 62
     7
370
    15
100
AcDbLine
 10
449.3429530736
 20
926.4122858871
 30
0.0
 11
449.4857676652
 21
926.3122841944
 31
0.0
  0
LINE
  5
14E
330
1F
100
AcDbEntity
  8
0
  6
Continuous
 62
     7
370
    15
100
AcDbLine
 10
457.8297669392
 20
926.3122841944
 30
0.0
 11
457.9725815308
 21
926.4122858871
 31
0.0
  0
LINE
  5
14F
330
1F
100
AcDbEntity
  8
0
  6
Continuous
 62
     7
370
    15
100
AcDbLine
 10
448.6577678796
 20
925.7325135399
 30
0.0
 11
448.6577678796
 21
925.6622843672
 31
0.0
  0
LINE
  5
150
330
1F
100
AcDbEntity
  8
0
  6
Continuous
 62
     7
370
    15
100
AcDbLine
 10
458.6577667248
 20
925.6622843672
 30
0.0
 11
458.6577667248
 21
925.7325135399
 31
0.0
  0
LINE
  5
151
330
1F
100
AcDbEntity
  8
0
  6
Continuous
 62
     7
370
    15
100
AcDbLine
 10
458.4010262367
 20
942.4122847845
 30
0.0
 11
457.8297669392
 21
942.812284105
 31
0.0
  0
LINE
  5
152
330
1F
100
AcDbEntity
  8
0
  6
Continuous
 62
     7
370
    15
100
AcDbLine
 10
449.4857676652
 20
942.812284105
 30
0.0
 11
448.9145074364
 21
942.4122847845
 31
0.0
  0
LINE
  5
153
330
1F
100
AcDbEntity
  8
0
  6
Continuous
 62
     7
370
    15
100
AcDbLine
 10
458.6577667248
 20
855.8920562495
 30
0.0
 11
448.6577678796
 21
855.8920562495
 31
0.0
  0
LINE
  5
154
330
1F
100
AcDbEntity
  8
0
  6
Continuous
 62
     7
370
    15
100
AcDbLine
 10
457.8297669392
 20
855.3122855951
 30
0.0
 11
449.4857676652
 21
855.3122855951
 31
0.0
  0
LINE
  5
155
330
1F
100
AcDbEntity
  8
0
  6
Continuous
 62
     7
370
    15
100
AcDbLine
 10
457.8297669392
 20
838.8122856845
 30
0.0
 11
449.4857676652
 21
838.8122856845
 31
0.0
  0
LINE
  5
156
330
1F
100
AcDbEntity
  8
0
  6
Continuous
 62
     7
370
    15
100
AcDbLine
 10
449.4857676652
 20
942.812284105
 30
0.0
 11
457.8297669392
 21
942.812284105
 31
0.0
  0
LINE
  5
157
330
1F
100
AcDbEntity
  8
0
  6
Continuous
 62
     7
370
    15
100
AcDbLine
 10
448.6577678796
 20
925.7325135399
 30
0.0
 11
458.6577667248
 21
925.7325135399
 31
0.0
  0
LINE
  5
158
330
1F
100
AcDbEntity
  8
0
  6
Continuous
 62
     7
370
    15
100
AcDbLine
 10
449.4857676652
 20
926.3122841944
 30
0.0
 11
457.8297669392
 21
926.3122841944
 31
0.0
  0
LINE
  5
159
330
1F
100
AcDbEntity
  8
0
  6
Continuous
 62
     7
370
    15
100
AcDbLine
 10
446.113372254
 20
855.2122839023
 30
0.0
 11
446.113372254
 21
839.212285005
 31
0.0
  0
LINE
  5
15A
330
1F
100
AcDbEntity
  8
0
  6
Continuous
 62
     7
370
    15
100
AcDbLine
 10
461.2021623504
 20
855.2122839023
 30
0.0
 11
461.2021623504
 21
839.212285005
 31
0.0
  0
LINE
  5
15B
330
1F
100
AcDbEntity
  8
0
  6
Continuous
 62
     7
370
    15
100
AcDbLine
 10
446.113372254
 20
839.212285005
 30
0.0
 11
461.2021623504
 21
839.212285005
 31
0.0
  0
LINE
  5
15C
330
1F
100
AcDbEntity
  8
0
  6
Continuous
 62
     7
370
    15
100
AcDbLine
 10
446.113372254
 20
855.2122839023
 30
0.0
 11
461.2021623504
 21
855.2122839023
 31
0.0
  0
LINE
  5
15D
330
1F
100
AcDbEntity
  8
0
  6
Continuous
 62
     7
370
    15
100
AcDbLine
 10
476.2021624808
 20
855.2122839023
 30
0.0
 11
476.2021624808
 21
839.212285005
 31
0.0
  0
LINE
  5
15E
330
1F
100
AcDbEntity
  8
0
  6
Continuous
 62
     7
370
    15
100
AcDbLine
 10
461.2021623504
 20
839.212285005
 30
0.0
 11
476.2021624808
 21
839.212285005
 31
0.0
  0
LINE
  5
15F
330
1F
100
AcDbEntity
  8
0
  6
Continuous
 62
     7
370
    15
100
AcDbLine
 10
461.2021623504
 20
855.2122839023
 30
0.0
 11
476.2021624808
 21
855.2122839023
 31
0.0
  0
LINE
  5
160
330
1F
100
AcDbEntity
  8
0
  6
Continuous
 62
     7
370
    15
100
AcDbLine
 10
431.113371658
 20
855.2122839023
 30
0.0
 11
431.113371658
 21
839.212285005
 31
0.0
  0
LINE
  5
161
330
1F
100
AcDbEntity
  8
0
  6
Continuous
 62
     7
370
    15
100
AcDbLine
 10
431.113371658
 20
839.212285005
 30
0.0
 11
446.113372254
 21
839.212285005
 31
0.0
  0
LINE
  5
162
330
1F
100
AcDbEntity
  8
0
  6
Continuous
 62
     7
370
    15
100
AcDbLine
 10
431.113371658
 20
855.2122839023
 30
0.0
 11
446.113372254
 21
855.2122839023
 31
0.0
  0
LINE
  5
163
330
1F
100
AcDbEntity
  8
0
  6
Continuous
 62
     7
370
    15
100
AcDbLine
 10
478.6577672091
 20
855.2122839023
 30
0.0
 11
478.6577672091
 21
839.212285005
 31
0.0
  0
LINE
  5
164
330
1F
100
AcDbEntity
  8
0
  6
Continuous
 62
     7
370
    15
100
AcDbLine
 10
476.2021624808
 20
839.212285005
 30
0.0
 11
478.6577672091
 21
839.212285005
 31
0.0
  0
LINE
  5
165
330
1F
100
AcDbEntity
  8
0
  6
Continuous
 62
     7
370
    15
100
AcDbLine
 10
476.2021624808
 20
855.2122839023
 30
0.0
 11
478.6577672091
 21
855.2122839023
 31
0.0
  0
LINE
  5
166
330
1F
100
AcDbEntity
  8
0
  6
Continuous
 62
     7
370
    15
100
AcDbLine
 10
428.6577683267
 20
855.2122839023
 30
0.0
 11
428.6577683267
 21
839.212285005
 31
0.0
  0
LINE
  5
167
330
1F
100
AcDbEntity
  8
0
  6
Continuous
 62
     7
370
    15
100
AcDbLine
 10
428.6577683267
 20
839.212285005
 30
0.0
 11
431.113371658
 21
839.212285005
 31
0.0
  0
LINE
  5
168
330
1F
100
AcDbEntity
  8
0
  6
Continuous
 62
     7
370
    15
100
AcDbLine
 10
428.6577683267
 20
855.2122839023
 30
0.0
 11
431.113371658
 21
855.2122839023
 31
0.0
  0
LINE
  5
169
330
1F
100
AcDbEntity
  8
0
  6
Continuous
 62
     7
370
    15
100
AcDbLine
 10
446.113372254
 20
942.4122847845
 30
0.0
 11
446.113372254
 21
926.4122858871
 31
0.0
  0
LINE
  5
16A
330
1F
100
AcDbEntity
  8
0
  6
Continuous
 62
     7
370
    15
100
AcDbLine
 10
461.2021623504
 20
942.4122847845
 30
0.0
 11
461.2021623504
 21
926.4122858871
 31
0.0
  0
LINE
  5
16B
330
1F
100
AcDbEntity
  8
0
  6
Continuous
 62
     7
370
    15
100
AcDbLine
 10
446.113372254
 20
942.4122847845
 30
0.0
 11
461.2021623504
 21
942.4122847845
 31
0.0
  0
LINE
  5
16C
330
1F
100
AcDbEntity
  8
0
  6
Continuous
 62
     7
370
    15
100
AcDbLine
 10
446.113372254
 20
926.4122858871
 30
0.0
 11
461.2021623504
 21
926.4122858871
 31
0.0
  0
LINE
  5
16D
330
1F
100
AcDbEntity
  8
0
  6
Continuous
 62
     7
370
    15
100
AcDbLine
 10
476.2021624808
 20
942.4122847845
 30
0.0
 11
476.2021624808
 21
926.4122858871
 31
0.0
  0
LINE
  5
16E
330
1F
100
AcDbEntity
  8
0
  6
Continuous
 62
     7
370
    15
100
AcDbLine
 10
461.2021623504
 20
942.4122847845
 30
0.0
 11
476.2021624808
 21
942.4122847845
 31
0.0
  0
LINE
  5
16F
330
1F
100
AcDbEntity
  8
0
  6
Continuous
 62
     7
370
    15
100
AcDbLine
 10
461.2021623504
 20
926.4122858871
 30
0.0
 11
476.2021624808
 21
926.4122858871
 31
0.0
  0
LINE
  5
170
330
1F
100
AcDbEntity
  8
0
  6
Continuous
 62
     7
370
    15
100
AcDbLine
 10
431.113371658
 20
942.4122847845
 30
0.0
 11
431.113371658
 21
926.4122858871
 31
0.0
  0
LINE
  5
171
330
1F
100
AcDbEntity
  8
0
  6
Continuous
 62
     7
370
    15
100
AcDbLine
 10
431.113371658
 20
942.4122847845
 30
0.0
 11
446.113372254
 21
942.4122847845
 31
0.0
  0
LINE
  5
172
330
1F
100
AcDbEntity
  8
0
  6
Continuous
 62
     7
370
    15
100
AcDbLine
 10
431.113371658
 20
926.4122858871
 30
0.0
 11
446.113372254
 21
926.4122858871
 31
0.0
  0
LINE
  5
173
330
1F
100
AcDbEntity
  8
0
  6
Continuous
 62
     7
370
    15
100
AcDbLine
 10
478.6577672091
 20
942.4122847845
 30
0.0
 11
478.6577672091
 21
926.4122858871
 31
0.0
  0
LINE
  5
174
330
1F
100
AcDbEntity
  8
0
  6
Continuous
 62
     7
370
    15
100
AcDbLine
 10
476.2021624808
 20
942.4122847845
 30
0.0
 11
478.6577672091
 21
942.4122847845
 31
0.0
  0
LINE
  5
175
330
1F
100
AcDbEntity
  8
0
  6
Continuous
 62
     7
370
    15
100
AcDbLine
 10
476.2021624808
 20
926.4122858871
 30
0.0
 11
478.6577672091
 21
926.4122858871
 31
0.0
  0
LINE
  5
176
330
1F
100
AcDbEntity
  8
0
  6
Continuous
 62
     7
370
    15
100
AcDbLine
 10
428.6577683267
 20
942.4122847845
 30
0.0
 11
428.6577683267
 21
926.4122858871
 31
0.0
  0
LINE
  5
177
330
1F
100
AcDbEntity
  8
0
  6
Continuous
 62
     7
370
    15
100
AcDbLine
 10
428.6577683267
 20
942.4122847845
 30
0.0
 11
431.113371658
 21
942.4122847845
 31
0.0
  0
LINE
  5
178
330
1F
100
AcDbEntity
  8
0
  6
Continuous
 62
     7
370
    15
100
AcDbLine
 10
428.6577683267
 20
926.4122858871
 30
0.0
 11
431.113371658
 21
926.4122858871
 31
0.0
  0
LINE
  5
179
330
1F
100
AcDbEntity
  8
0
  6
Continuous
 62
     7
370
    15
100
AcDbLine
 10
412.657765704
 20
819.5122830798
 30
0.0
 11
376.6577672538
 21
819.5122830798
 31
0.0
  0
LINE
  5
17A
330
1F
100
AcDbEntity
  8
0
  6
Continuous
 62
     7
370
    15
100
AcDbLine
 10
376.6577672538
 20
962.1122829844
 30
0.0
 11
412.657765704
 21
962.1122829844
 31
0.0
  0
LINE
  5
17B
330
1F
100
AcDbEntity
  8
0
  6
Continuous
 62
     7
370
    15
100
AcDbLine
 10
441.1577675816
 20
965.8122860123
 30
0.0
 11
441.1577675816
 21
943.1622863044
 31
0.0
  0
LINE
  5
17C
330
1F
100
AcDbEntity
  8
0
  6
Continuous
 62
     7
370
    15
100
AcDbLine
 10
441.1577675816
 20
943.1622863044
 30
0.0
 11
418.1577656742
 21
943.1622863044
 31
0.0
  0
LINE
  5
17D
330
1F
100
AcDbEntity
  8
0
  6
Continuous
 62
     7
370
    15
100
AcDbLine
 10
418.1577656742
 20
943.1622863044
 30
0.0
 11
418.1577656742
 21
925.6622843672
 31
0.0
  0
LINE
  5
17E
330
1F
100
AcDbEntity
  8
0
  6
Continuous
 62
     7
370
    15
100
AcDbLine
 10
418.1577656742
 20
925.6622843672
 30
0.0
 11
453.6577668365
 21
925.6622843672
 31
0.0
  0
LINE
  5
17F
330
1F
100
AcDbEntity
  8
0
  6
Continuous
 62
     7
370
    15
100
AcDbLine
 10
453.6577668365
 20
890.8122847783
 30
0.0
 11
453.6577668365
 21
925.6622843672
 31
0.0
  0
LINE
  5
180
330
1F
100
AcDbEntity
  8
0
  6
Continuous
 62
     7
370
    15
100
AcDbLine
 10
441.1577675816
 20
890.8122847783
 30
0.0
 11
453.6577668365
 21
890.8122847783
 31
0.0
  0
LINE
  5
181
330
1F
100
AcDbEntity
  8
0
  6
Continuous
 62
     7
370
    15
100
AcDbLine
 10
418.1577656742
 20
855.9622854222
 30
0.0
 11
418.1577656742
 21
838.4622834851
 31
0.0
  0
LINE
  5
182
330
1F
100
AcDbEntity
  8
0
  6
Continuous
 62
     7
370
    15
100
AcDbLine
 10
418.1577656742
 20
838.4622834851
 30
0.0
 11
453.6577668365
 21
838.4622834851
 31
0.0
  0
LINE
  5
183
330
1F
100
AcDbEntity
  8
0
  6
Continuous
 62
     7
370
    15
100
AcDbLine
 10
453.6577668365
 20
815.8122875024
 30
0.0
 11
453.6577668365
 21
838.4622834851
 31
0.0
  0
LINE
  5
184
330
1F
100
AcDbEntity
  8
0
  6
Continuous
 62
     7
370
    15
100
AcDbLine
 10
453.6577668365
 20
815.8122875024
 30
0.0
 11
376.6577672538
 21
815.8122875024
 31
0.0
  0
LINE
  5
185
330
1F
100
AcDbEntity
  8
0
  6
Continuous
 62
     7
370
    15
100
AcDbLine
 10
376.6577672538
 20
965.8122860123
 30
0.0
 11
441.1577675816
 21
965.8122860123
 31
0.0
  0
ARC
  5
186
330
1F
100
AcDbEntity
  8
0
  6
Continuous
 62
     7
370
    15
100
AcDbCircle
 10
376.6577670429
 20
890.8122847302
 30
0.0
 40
71.29999999999995
100
AcDbArc
 50
90.0
 51
270.0
  0
ARC
  5
187
330
1F
100
AcDbEntity
  8
0
  6
Continuous
 62
     7
370
    15
100
AcDbCircle
 10
376.6577670429
 20
890.8122847302
 30
0.0
 40
75.00000000000011
100
AcDbArc
 50
90.0
 51
270.0
  0
LINE
  5
188
330
1F
100
AcDbEntity
  8
0
  6
Continuous
 62
     7
370
    15
100
AcDbLine
 10
441.1577675816
 20
855.9622854222
 30
0.0
 11
418.1577656742
 21
855.9622854222
 31
0.0
  0
LINE
  5
189
330
1F
100
AcDbEntity
  8
0
  6
Continuous
 62
     7
370
    15
100
AcDbLine
 10
441.1577675816
 20
890.8122847783
 30
0.0
 11
441.1577675816
 21
855.9622854222
 31
0.0
  0
LINE
  5
18A
330
1F
100
AcDbEntity
  8
0
  6
Continuous
 62
     7
370
    15
100
AcDbLine
 10
412.657765704
 20
819.5122830798
 30
0.0
 11
412.657765704
 21
962.1122829844
 31
0.0
  0
LINE
  5
18B
330
1F
100
AcDbEntity
  8
0
  6
Continuous
 62
     7
370
    15
100
AcDbLine
 10
453.6577668365
 20
815.8122875024
 30
0.0
 11
466.1577670228
 21
815.8122875024
 31
0.0
  0
LINE
  5
18C
330
1F
100
AcDbEntity
  8
0
  6
Continuous
 62
     7
370
    15
100
AcDbLine
 10
453.6577668365
 20
838.4622834851
 30
0.0
 11
466.1577670228
 21
838.4622834851
 31
0.0
  0
LINE
  5
18D
330
1F
100
AcDbEntity
  8
0
  6
Continuous
 62
     7
370
    15
100
AcDbLine
 10
441.1577675816
 20
890.8122847783
 30
0.0
 11
466.1577670228
 21
890.8122847783
 31
0.0
  0
LINE
  5
18E
330
1F
100
AcDbEntity
  8
0
  6
Continuous
 62
     7
370
    15
100
AcDbLine
 10
453.6577668365
 20
925.6622843672
 30
0.0
 11
466.1577670228
 21
925.6622843672
 31
0.0
  0
LINE
  5
18F
330
1F
100
AcDbEntity
  8
0
  6
Continuous
 62
     7
370
    15
100
AcDbLine
 10
345.357773858
 20
930.9247784544
 30
0.0
 11
345.357773858
 21
954.8747517396
 31
0.0
  0
LINE
  5
190
330
1F
100
AcDbEntity
  8
0
  6
Continuous
 62
     7
370
    15
100
AcDbLine
 10
377.357764202
 20
917.8122855951
 30
0.0
 11
351.9577663716
 21
917.8122855951
 31
0.0
  0
LINE
  5
191
330
1F
100
AcDbEntity
  8
0
  6
Continuous
 62
     7
370
    15
100
AcDbLine
 10
377.357764202
 20
962.1122829844
 30
0.0
 11
377.357764202
 21
917.8122855951
 31
0.0
  0
LINE
  5
192
330
1F
100
AcDbEntity
  8
0
  6
Continuous
 62
     7
370
    15
100
AcDbLine
 10
380.6577679094
 20
962.1122829844
 30
0.0
 11
380.6577679094
 21
917.8122855951
 31
0.0
  0
LINE
  5
193
330
1F
100
AcDbEntity
  8
0
  6
Continuous
 62
     7
370
    15
100
AcDbLine
 10
380.6577679094
 20
917.8122855951
 30
0.0
 11
412.657765704
 21
917.8122855951
 31
0.0
  0
LINE
  5
194
330
1F
100
AcDbEntity
  8
0
  6
Continuous
 62
     7
370
    15
100
AcDbLine
 10
412.657765704
 20
867.1122841765
 30
0.0
 11
380.6577679094
 21
867.1122841765
 31
0.0
  0
LINE
  5
195
330
1F
100
AcDbEntity
  8
0
  6
Continuous
 62
     7
370
    15
100
AcDbLine
 10
380.6577679094
 20
863.8122841944
 30
0.0
 11
412.657765704
 21
863.8122841944
 31
0.0
  0
LINE
  5
196
330
1F
100
AcDbEntity
  8
0
  6
Continuous
 62
     7
370
    15
100
AcDbLine
 10
377.357764202
 20
863.8122841944
 30
0.0
 11
345.357773858
 21
863.8122841944
 31
0.0
  0
LINE
  5
197
330
1F
100
AcDbEntity
  8
0
  6
Continuous
 62
     7
370
    15
100
AcDbLine
 10
342.0577627
 20
867.1122841765
 30
0.0
 11
309.4119560298
 21
867.1122841765
 31
0.0
  0
ARC
  5
198
330
1F
100
AcDbEntity
  8
0
  6
Continuous
 62
     7
370
    15
100
AcDbCircle
 10
341.6577670429
 20
910.3122847302
 30
0.0
 40
10.30000000000007
100
AcDbArc
 50
180.0
 51
272.2256384893
  0
LINE
  5
199
330
1F
100
AcDbEntity
  8
0
  6
Continuous
 62
     7
370
    15
100
AcDbLine
 10
331.3577603873
 20
914.512285613
 30
0.0
 11
309.4119560298
 21
914.512285613
 31
0.0
  0
LINE
  5
19A
330
1F
100
AcDbEntity
  8
0
  6
Continuous
 62
     7
370
    15
100
AcDbLine
 10
331.3577603873
 20
917.8122855951
 30
0.0
 11
310.6676917848
 21
917.8122855951
 31
0.0
  0
LINE
  5
19B
330
1F
100
AcDbEntity
  8
0
  6
Continuous
 62
     7
370
    15
100
AcDbLine
 10
331.3577603873
 20
917.8122855951
 30
0.0
 11
331.3577603873
 21
921.3122852375
 31
0.0
  0
ARC
  5
19C
330
1F
100
AcDbEntity
  8
0
  6
Continuous
 62
     7
370
    15
100
AcDbCircle
 10
341.6577670429
 20
921.3122847302
 30
0.0
 40
10.30000000000007
100
AcDbArc
 50
87.7743615107
 51
180.0
  0
LINE
  5
19D
330
1F
100
AcDbEntity
  8
0
  6
Continuous
 62
     7
370
    15
100
AcDbLine
 10
334.6577715453
 20
910.3122852971
 30
0.0
 11
334.6577715453
 21
921.3122852375
 31
0.0
  0
ARC
  5
19E
330
1F
100
AcDbEntity
  8
0
  6
Continuous
 62
     7
370
    15
100
AcDbCircle
 10
341.6577670429
 20
910.3122847302
 30
0.0
 40
10.30000000000005
100
AcDbArc
 50
291.0525039442
 51
0.0
  0
LINE
  5
19F
330
1F
100
AcDbEntity
  8
0
  6
Continuous
 62
     7
370
    15
100
AcDbLine
 10
331.3577603873
 20
910.3122852971
 30
0.0
 11
331.3577603873
 21
914.512285613
 31
0.0
  0
LINE
  5
1A0
330
1F
100
AcDbEntity
  8
0
  6
Continuous
 62
     7
370
    15
100
AcDbLine
 10
377.357764202
 20
914.512285613
 30
0.0
 11
351.9577663716
 21
914.512285613
 31
0.0
  0
LINE
  5
1A1
330
1F
100
AcDbEntity
  8
0
  6
Continuous
 62
     7
370
    15
100
AcDbLine
 10
351.9577663716
 20
914.512285613
 30
0.0
 11
351.9577663716
 21
910.3122852971
 31
0.0
  0
LINE
  5
1A2
330
1F
100
AcDbEntity
  8
0
  6
Continuous
 62
     7
370
    15
100
AcDbLine
 10
380.6577679094
 20
867.1122841765
 30
0.0
 11
380.6577679094
 21
914.512285613
 31
0.0
  0
ARC
  5
1A3
330
1F
100
AcDbEntity
  8
0
  6
Continuous
 62
     7
370
    15
100
AcDbCircle
 10
341.6577670429
 20
921.3122847302
 30
0.0
 40
10.30000000000001
100
AcDbArc
 50
0.0
 51
68.9474960558
  0
LINE
  5
1A4
330
1F
100
AcDbEntity
  8
0
  6
Continuous
 62
     7
370
    15
100
AcDbLine
 10
351.9577663716
 20
921.3122852375
 30
0.0
 11
351.9577663716
 21
917.8122855951
 31
0.0
  0
LINE
  5
1A5
330
1F
100
AcDbEntity
  8
0
  6
Continuous
 62
     7
370
    15
100
AcDbLine
 10
377.357764202
 20
819.5122830798
 30
0.0
 11
377.357764202
 21
863.8122841944
 31
0.0
  0
ARC
  5
1A6
330
1F
100
AcDbEntity
  8
0
  6
Continuous
 62
     7
370
    15
100
AcDbCircle
 10
341.6577670429
 20
910.3122847302
 30
0.0
 40
7.0
100
AcDbArc
 50
180.0
 51
0.0
  0
LINE
  5
1A7
330
1F
100
AcDbEntity
  8
0
  6
Continuous
 62
     7
370
    15
100
AcDbLine
 10
345.357773858
 20
863.8122841944
 30
0.0
 11
345.357773858
 21
826.7498143245
 31
0.0
  0
LINE
  5
1A8
330
1F
100
AcDbEntity
  8
0
  6
Continuous
 62
     7
370
    15
100
AcDbLine
 10
412.657765704
 20
914.512285613
 30
0.0
 11
380.6577679094
 21
914.512285613
 31
0.0
  0
LINE
  5
1A9
330
1F
100
AcDbEntity
  8
0
  6
Continuous
 62
     7
370
    15
100
AcDbLine
 10
342.0577627
 20
863.8122841944
 30
0.0
 11
310.6676917848
 21
863.8122841944
 31
0.0
  0
LINE
  5
1AA
330
1F
100
AcDbEntity
  8
0
  6
Continuous
 62
     7
370
    15
100
AcDbLine
 10
342.0577627
 20
931.6045135488
 30
0.0
 11
342.0577627
 21
953.1543232728
 31
0.0
  0
LINE
  5
1AB
330
1F
100
AcDbEntity
  8
0
  6
Continuous
 62
     7
370
    15
100
AcDbLine
 10
342.0577627
 20
867.1122841765
 30
0.0
 11
342.0577627
 21
900.0200541918
 31
0.0
  0
LINE
  5
1AC
330
1F
100
AcDbEntity
  8
0
  6
Continuous
 62
     7
370
    15
100
AcDbLine
 10
348.6577701148
 20
921.3122852375
 30
0.0
 11
348.6577701148
 21
910.3122852971
 31
0.0
  0
LINE
  5
1AD
330
1F
100
AcDbEntity
  8
0
  6
Continuous
 62
     7
370
    15
100
AcDbLine
 10
342.0577627
 20
863.8122841944
 30
0.0
 11
342.0577627
 21
828.4702427913
 31
0.0
  0
LINE
  5
1AE
330
1F
100
AcDbEntity
  8
0
  6
Continuous
 62
     7
370
    15
100
AcDbLine
 10
377.357764202
 20
914.512285613
 30
0.0
 11
377.357764202
 21
867.1122841765
 31
0.0
  0
ARC
  5
1AF
330
1F
100
AcDbEntity
  8
0
  6
Continuous
 62
     7
370
    15
100
AcDbCircle
 10
341.6577670429
 20
921.3122847302
 30
0.0
 40
7.0
100
AcDbArc
 50
0.0
 51
180.0
  0
LINE
  5
1B0
330
1F
100
AcDbEntity
  8
0
  6
Continuous
 62
     7
370
    15
100
AcDbLine
 10
380.6577679094
 20
819.5122830798
 30
0.0
 11
380.6577679094
 21
863.8122841944
 31
0.0
  0
LINE
  5
1B1
330
1F
100
AcDbEntity
  8
0
  6
Continuous
 62
     7
370
    15
100
AcDbLine
 10
377.357764202
 20
867.1122841765
 30
0.0
 11
345.357773858
 21
867.1122841765
 31
0.0
  0
LINE
  5
1B2
330
1F
100
AcDbEntity
  8
0
  6
Continuous
 62
     7
370
    15
100
AcDbLine
 10
345.357773858
 20
900.6997930114
 30
0.0
 11
345.357773858
 21
867.1122841765
 31
0.0
  0
LINE
  5
1B3
330
1F
100
AcDbEntity
  8
0
  6
Continuous
 62
     7
370
    15
100
AcDbLine
 10
453.6577668365
 20
965.8122860123
 30
0.0
 11
453.6577668365
 21
943.1622863044
 31
0.0
  0
LINE
  5
1B4
330
1F
100
AcDbEntity
  8
0
  6
Continuous
 62
     7
370
    15
100
AcDbLine
 10
453.6577668365
 20
965.8122860123
 30
0.0
 11
441.1577675816
 21
965.8122860123
 31
0.0
  0
LINE
  5
1B5
330
1F
100
AcDbEntity
  8
0
  6
Continuous
 62
     7
370
    15
100
AcDbLine
 10
453.6577668365
 20
943.1622863044
 30
0.0
 11
441.1577675816
 21
943.1622863044
 31
0.0
  0
LINE
  5
1B6
330
1F
100
AcDbEntity
  8
0
  6
Continuous
 62
     7
370
    15
100
AcDbLine
 10
453.6577668365
 20
890.8122847783
 30
0.0
 11
453.6577668365
 21
855.9622854222
 31
0.0
  0
LINE
  5
1B7
330
1F
100
AcDbEntity
  8
0
  6
Continuous
 62
     7
370
    15
100
AcDbLine
 10
453.6577668365
 20
855.9622854222
 30
0.0
 11
441.1577675816
 21
855.9622854222
 31
0.0
  0
LINE
  5
1B8
330
1F
100
AcDbEntity
  8
0
  6
Continuous
 62
     7
370
    15
100
AcDbLine
 10
530.6577664193
 20
819.5122830798
 30
0.0
 11
494.657767969
 21
819.5122830798
 31
0.0
  0
LINE
  5
1B9
330
1F
100
AcDbEntity
  8
0
  6
Continuous
 62
     7
370
    15
100
AcDbLine
 10
466.1577670228
 20
838.4622834851
 30
0.0
 11
489.1577661362
 21
838.4622834851
 31
0.0
  0
LINE
  5
1BA
330
1F
100
AcDbEntity
  8
0
  6
Continuous
 62
     7
370
    15
100
AcDbLine
 10
530.6577664193
 20
815.8122875024
 30
0.0
 11
466.1577670228
 21
815.8122875024
 31
0.0
  0
ARC
  5
1BB
330
1F
100
AcDbEntity
  8
0
  6
Continuous
 62
     7
370
    15
100
AcDbCircle
 10
530.6577670429
 20
890.8122847302
 30
0.0
 40
71.29999999999995
100
AcDbArc
 50
270.0
 51
90.0
  0
LINE
  5
1BC
330
1F
100
AcDbEntity
  8
0
  6
Continuous
 62
     7
370
    15
100
AcDbLine
 10
466.1577670228
 20
890.8122847783
 30
0.0
 11
466.1577670228
 21
925.6622843672
 31
0.0
  0
LINE
  5
1BD
330
1F
100
AcDbEntity
  8
0
  6
Continuous
 62
     7
370
    15
100
AcDbLine
 10
494.657767969
 20
962.1122829844
 30
0.0
 11
530.6577664193
 21
962.1122829844
 31
0.0
  0
LINE
  5
1BE
330
1F
100
AcDbEntity
  8
0
  6
Continuous
 62
     7
370
    15
100
AcDbLine
 10
494.657767969
 20
962.1122829844
 30
0.0
 11
494.657767969
 21
819.5122830798
 31
0.0
  0
LINE
  5
1BF
330
1F
100
AcDbEntity
  8
0
  6
Continuous
 62
     7
370
    15
100
AcDbLine
 10
466.1577670228
 20
890.8122847783
 30
0.0
 11
453.6577668365
 21
890.8122847783
 31
0.0
  0
LINE
  5
1C0
330
1F
100
AcDbEntity
  8
0
  6
Continuous
 62
     7
370
    15
100
AcDbLine
 10
466.1577670228
 20
925.6622843672
 30
0.0
 11
489.1577661362
 21
925.6622843672
 31
0.0
  0
LINE
  5
1C1
330
1F
100
AcDbEntity
  8
0
  6
Continuous
 62
     7
370
    15
100
AcDbLine
 10
489.1577661362
 20
855.9622854222
 30
0.0
 11
453.6577668365
 21
855.9622854222
 31
0.0
  0
LINE
  5
1C2
330
1F
100
AcDbEntity
  8
0
  6
Continuous
 62
     7
370
    15
100
AcDbLine
 10
489.1577661362
 20
838.4622834851
 30
0.0
 11
489.1577661362
 21
855.9622854222
 31
0.0
  0
LINE
  5
1C3
330
1F
100
AcDbEntity
  8
0
  6
Continuous
 62
     7
370
    15
100
AcDbLine
 10
466.1577670228
 20
815.8122875024
 30
0.0
 11
466.1577670228
 21
838.4622834851
 31
0.0
  0
ARC
  5
1C4
330
1F
100
AcDbEntity
  8
0
  6
Continuous
 62
     7
370
    15
100
AcDbCircle
 10
530.6577670429
 20
890.8122847302
 30
0.0
 40
75.00000000000011
100
AcDbArc
 50
270.0
 51
90.0
  0
LINE
  5
1C5
330
1F
100
AcDbEntity
  8
0
  6
Continuous
 62
     7
370
    15
100
AcDbLine
 10
453.6577668365
 20
965.8122860123
 30
0.0
 11
530.6577664193
 21
965.8122860123
 31
0.0
  0
LINE
  5
1C6
330
1F
100
AcDbEntity
  8
0
  6
Continuous
 62
     7
370
    15
100
AcDbLine
 10
489.1577661362
 20
943.1622863044
 30
0.0
 11
453.6577668365
 21
943.1622863044
 31
0.0
  0
LINE
  5
1C7
330
1F
100
AcDbEntity
  8
0
  6
Continuous
 62
     7
370
    15
100
AcDbLine
 10
489.1577661362
 20
925.6622843672
 30
0.0
 11
489.1577661362
 21
943.1622863044
 31
0.0
  0
LINE
  5
1C8
330
1F
100
AcDbEntity
  8
0
  6
Continuous
 62
     7
370
    15
100
AcDbLine
 10
561.9577672657
 20
850.699791335
 30
0.0
 11
561.9577672657
 21
826.7498143245
 31
0.0
  0
ARC
  5
1C9
330
1F
100
AcDbEntity
  8
0
  6
Continuous
 62
     7
370
    15
100
AcDbCircle
 10
565.6577670429
 20
860.3122847302
 30
0.0
 40
10.30000000000007
100
AcDbArc
 50
180.0
 51
248.9474960558
  0
LINE
  5
1CA
330
1F
100
AcDbEntity
  8
0
  6
Continuous
 62
     7
370
    15
100
AcDbLine
 10
555.3577673015
 20
860.312284552
 30
0.0
 11
555.3577673015
 21
863.8122841944
 31
0.0
  0
LINE
  5
1CB
330
1F
100
AcDbEntity
  8
0
  6
Continuous
 62
     7
370
    15
100
AcDbLine
 10
529.9577657458
 20
863.8122841944
 30
0.0
 11
555.3577673015
 21
863.8122841944
 31
0.0
  0
LINE
  5
1CC
330
1F
100
AcDbEntity
  8
0
  6
Continuous
 62
     7
370
    15
100
AcDbLine
 10
529.9577657458
 20
819.5122830798
 30
0.0
 11
529.9577657458
 21
863.8122841944
 31
0.0
  0
LINE
  5
1CD
330
1F
100
AcDbEntity
  8
0
  6
Continuous
 62
     7
370
    15
100
AcDbLine
 10
526.6577657637
 20
819.5122830798
 30
0.0
 11
526.6577657637
 21
863.8122841944
 31
0.0
  0
LINE
  5
1CE
330
1F
100
AcDbEntity
  8
0
  6
Continuous
 62
     7
370
    15
100
AcDbLine
 10
526.6577657637
 20
863.8122841944
 30
0.0
 11
494.657767969
 21
863.8122841944
 31
0.0
  0
LINE
  5
1CF
330
1F
100
AcDbEntity
  8
0
  6
Continuous
 62
     7
370
    15
100
AcDbLine
 10
494.657767969
 20
867.1122841765
 30
0.0
 11
526.6577657637
 21
867.1122841765
 31
0.0
  0
LINE
  5
1D0
330
1F
100
AcDbEntity
  8
0
  6
Continuous
 62
     7
370
    15
100
AcDbLine
 10
526.6577657637
 20
914.512285613
 30
0.0
 11
526.6577657637
 21
867.1122841765
 31
0.0
  0
LINE
  5
1D1
330
1F
100
AcDbEntity
  8
0
  6
Continuous
 62
     7
370
    15
100
AcDbLine
 10
494.657767969
 20
914.512285613
 30
0.0
 11
526.6577657637
 21
914.512285613
 31
0.0
  0
LINE
  5
1D2
330
1F
100
AcDbEntity
  8
0
  6
Continuous
 62
     7
370
    15
100
AcDbLine
 10
526.6577657637
 20
917.8122855951
 30
0.0
 11
494.657767969
 21
917.8122855951
 31
0.0
  0
LINE
  5
1D3
330
1F
100
AcDbEntity
  8
0
  6
Continuous
 62
     7
370
    15
100
AcDbLine
 10
526.6577657637
 20
962.1122829844
 30
0.0
 11
526.6577657637
 21
917.8122855951
 31
0.0
  0
LINE
  5
1D4
330
1F
100
AcDbEntity
  8
0
  6
Continuous
 62
     7
370
    15
100
AcDbLine
 10
529.9577657458
 20
962.1122829844
 30
0.0
 11
529.9577657458
 21
917.8122855951
 31
0.0
  0
LINE
  5
1D5
330
1F
100
AcDbEntity
  8
0
  6
Continuous
 62
     7
370
    15
100
AcDbLine
 10
529.9577657458
 20
917.8122855951
 30
0.0
 11
561.9577672657
 21
917.8122855951
 31
0.0
  0
LINE
  5
1D6
330
1F
100
AcDbEntity
  8
0
  6
Continuous
 62
     7
370
    15
100
AcDbLine
 10
561.9577672657
 20
917.8122855951
 30
0.0
 11
561.9577672657
 21
954.8747517396
 31
0.0
  0
LINE
  5
1D7
330
1F
100
AcDbEntity
  8
0
  6
Continuous
 62
     7
370
    15
100
AcDbLine
 10
565.2577635225
 20
917.8122855951
 30
0.0
 11
565.2577635225
 21
953.1543232728
 31
0.0
  0
LINE
  5
1D8
330
1F
100
AcDbEntity
  8
0
  6
Continuous
 62
     7
370
    15
100
AcDbLine
 10
565.2577635225
 20
917.8122855951
 30
0.0
 11
596.6478418883
 21
917.8122855951
 31
0.0
  0
LINE
  5
1D9
330
1F
100
AcDbEntity
  8
0
  6
Continuous
 62
     7
370
    15
100
AcDbLine
 10
565.2577635225
 20
914.512285613
 30
0.0
 11
597.9035776433
 21
914.512285613
 31
0.0
  0
LINE
  5
1DA
330
1F
100
AcDbEntity
  8
0
  6
Continuous
 62
     7
370
    15
100
AcDbLine
 10
565.2577635225
 20
914.512285613
 30
0.0
 11
565.2577635225
 21
881.6045146663
 31
0.0
  0
ARC
  5
1DB
330
1F
100
AcDbEntity
  8
0
  6
Continuous
 62
     7
370
    15
100
AcDbCircle
 10
565.6577670429
 20
871.3122847302
 30
0.0
 40
10.29999999999995
100
AcDbArc
 50
0.0
 51
92.2256384893
  0
LINE
  5
1DC
330
1F
100
AcDbEntity
  8
0
  6
Continuous
 62
     7
370
    15
100
AcDbLine
 10
575.9577658352
 20
871.3122844924
 30
0.0
 11
575.9577658352
 21
867.1122841765
 31
0.0
  0
LINE
  5
1DD
330
1F
100
AcDbEntity
  8
0
  6
Continuous
 62
     7
370
    15
100
AcDbLine
 10
575.9577658352
 20
867.1122841765
 30
0.0
 11
597.9035776433
 21
867.1122841765
 31
0.0
  0
LINE
  5
1DE
330
1F
100
AcDbEntity
  8
0
  6
Continuous
 62
     7
370
    15
100
AcDbLine
 10
575.9577658352
 20
863.8122841944
 30
0.0
 11
596.6478418883
 21
863.8122841944
 31
0.0
  0
LINE
  5
1DF
330
1F
100
AcDbEntity
  8
0
  6
Continuous
 62
     7
370
    15
100
AcDbLine
 10
575.9577658352
 20
863.8122841944
 30
0.0
 11
575.9577658352
 21
860.312284552
 31
0.0
  0
ARC
  5
1E0
330
1F
100
AcDbEntity
  8
0
  6
Continuous
 62
     7
370
    15
100
AcDbCircle
 10
565.6577670429
 20
860.3122847302
 30
0.0
 40
10.29999999999995
100
AcDbArc
 50
267.7743615107
 51
0.0
  0
LINE
  5
1E1
330
1F
100
AcDbEntity
  8
0
  6
Continuous
 62
     7
370
    15
100
AcDbLine
 10
565.2577635225
 20
850.0200562407
 30
0.0
 11
565.2577635225
 21
828.4702427913
 31
0.0
  0
ARC
  5
1E2
330
1F
100
AcDbEntity
  8
0
  6
Continuous
 62
     7
370
    15
100
AcDbCircle
 10
565.6577670429
 20
871.3122847302
 30
0.0
 40
7.0
100
AcDbArc
 50
0.0
 51
180.0
  0
LINE
  5
1E3
330
1F
100
AcDbEntity
  8
0
  6
Continuous
 62
     7
370
    15
100
AcDbLine
 10
558.6577635583
 20
860.312284552
 30
0.0
 11
558.6577635583
 21
871.3122844924
 31
0.0
  0
ARC
  5
1E4
330
1F
100
AcDbEntity
  8
0
  6
Continuous
 62
     7
370
    15
100
AcDbCircle
 10
565.6577670429
 20
860.3122847302
 30
0.0
 40
7.0
100
AcDbArc
 50
180.0
 51
0.0
  0
LINE
  5
1E5
330
1F
100
AcDbEntity
  8
0
  6
Continuous
 62
     7
370
    15
100
AcDbLine
 10
572.6577695784
 20
871.3122844924
 30
0.0
 11
572.6577695784
 21
860.312284552
 31
0.0
  0
ARC
  5
1E6
330
1F
100
AcDbEntity
  8
0
  6
Continuous
 62
     7
370
    15
100
AcDbCircle
 10
565.6577670429
 20
871.3122847302
 30
0.0
 40
10.30000000000007
100
AcDbArc
 50
111.0525039442
 51
180.0
  0
LINE
  5
1E7
330
1F
100
AcDbEntity
  8
0
  6
Continuous
 62
     7
370
    15
100
AcDbLine
 10
529.9577657458
 20
867.1122841765
 30
0.0
 11
529.9577657458
 21
914.512285613
 31
0.0
  0
LINE
  5
1E8
330
1F
100
AcDbEntity
  8
0
  6
Continuous
 62
     7
370
    15
100
AcDbLine
 10
529.9577657458
 20
867.1122841765
 30
0.0
 11
555.3577673015
 21
867.1122841765
 31
0.0
  0
LINE
  5
1E9
330
1F
100
AcDbEntity
  8
0
  6
Continuous
 62
     7
370
    15
100
AcDbLine
 10
555.3577673015
 20
867.1122841765
 30
0.0
 11
555.3577673015
 21
871.3122844924
 31
0.0
  0
LINE
  5
1EA
330
1F
100
AcDbEntity
  8
0
  6
Continuous
 62
     7
370
    15
100
AcDbLine
 10
529.9577657458
 20
914.512285613
 30
0.0
 11
561.9577672657
 21
914.512285613
 31
0.0
  0
LINE
  5
1EB
330
1F
100
AcDbEntity
  8
0
  6
Continuous
 62
     7
370
    15
100
AcDbLine
 10
561.9577672657
 20
880.9247767781
 30
0.0
 11
561.9577672657
 21
914.512285613
 31
0.0
  0
LINE
  5
1EC
330
1F
100
AcDbEntity
  8
0
  6
Continuous
 62
     7
370
    15
100
AcDbLine
 10
762.0907661621
 20
512.612685322
 30
0.0
 11
761.5909067099
 21
512.9626875215
 31
0.0
  0
LINE
  5
1ED
330
1F
100
AcDbEntity
  8
0
  6
Continuous
 62
     7
370
    15
100
AcDbLine
 10
761.5909067099
 20
512.9626875215
 30
0.0
 11
762.1621725266
 21
513.362686842
 31
0.0
  0
LINE
  5
1EE
330
1F
100
AcDbEntity
  8
0
  6
Continuous
 62
     7
370
    15
100
AcDbLine
 10
761.5909067099
 20
529.4626874321
 30
0.0
 11
762.4189046328
 21
530.0424580865
 31
0.0
  0
LINE
  5
1EF
330
1F
100
AcDbEntity
  8
0
  6
Continuous
 62
     7
370
    15
100
AcDbLine
 10
761.7337194387
 20
529.3626857393
 30
0.0
 11
761.5909067099
 21
529.4626874321
 31
0.0
  0
LINE
  5
1F0
330
1F
100
AcDbEntity
  8
0
  6
Continuous
 62
     7
370
    15
100
AcDbLine
 10
762.4189046328
 20
530.0424580865
 30
0.0
 11
762.4189046328
 21
530.1126872592
 31
0.0
  0
LINE
  5
1F1
330
1F
100
AcDbEntity
  8
0
  6
Continuous
 62
     7
370
    15
100
AcDbLine
 10
761.5909067099
 20
616.9626859419
 30
0.0
 11
762.0907661621
 21
617.3126881413
 31
0.0
  0
LINE
  5
1F2
330
1F
100
AcDbEntity
  8
0
  6
Continuous
 62
     7
370
    15
100
AcDbLine
 10
762.1621725266
 20
616.5626866214
 30
0.0
 11
761.5909067099
 21
616.9626859419
 31
0.0
  0
LINE
  5
1F3
330
1F
100
AcDbEntity
  8
0
  6
Continuous
 62
     7
370
    15
100
AcDbLine
 10
762.4189046328
 20
599.8126862042
 30
0.0
 11
762.4189046328
 21
599.8829153769
 31
0.0
  0
LINE
  5
1F4
330
1F
100
AcDbEntity
  8
0
  6
Continuous
 62
     7
370
    15
100
AcDbLine
 10
761.5909067099
 20
600.4626860313
 30
0.0
 11
761.7337194387
 21
600.5626877241
 31
0.0
  0
LINE
  5
1F5
330
1F
100
AcDbEntity
  8
0
  6
Continuous
 62
     7
370
    15
100
AcDbLine
 10
762.4189046328
 20
599.8829153769
 30
0.0
 11
761.5909067099
 21
600.4626860313
 31
0.0
  0
LINE
  5
1F6
330
1F
100
AcDbEntity
  8
0
  6
Continuous
 62
     7
370
    15
100
AcDbLine
 10
858.3621767466
 20
513.362686842
 30
0.0
 11
858.3621767466
 21
529.3626857393
 31
0.0
  0
LINE
  5
1F7
330
1F
100
AcDbEntity
  8
0
  6
Continuous
 62
     7
370
    15
100
AcDbLine
 10
858.3621767466
 20
600.5626877241
 30
0.0
 11
858.3621767466
 21
616.5626866214
 31
0.0
  0
LINE
  5
1F8
330
1F
100
AcDbEntity
  8
0
  6
Continuous
 62
     7
370
    15
100
AcDbLine
 10
769.9189123814
 20
564.9626866153
 30
0.0
 11
769.9189123814
 21
599.8126862042
 31
0.0
  0
LINE
  5
1F9
330
1F
100
AcDbEntity
  8
0
  6
Continuous
 62
     7
370
    15
100
AcDbLine
 10
769.9189123814
 20
489.9626893394
 30
0.0
 11
769.9189123814
 21
512.612685322
 31
0.0
  0
LINE
  5
1FA
330
1F
100
AcDbEntity
  8
0
  6
Continuous
 62
     7
370
    15
100
AcDbLine
 10
769.9189123814
 20
617.3126881413
 30
0.0
 11
769.9189123814
 21
639.9626878493
 31
0.0
  0
LINE
  5
1FB
330
1F
100
AcDbEntity
  8
0
  6
Continuous
 62
     7
370
    15
100
AcDbLine
 10
769.9189123814
 20
530.1126872592
 30
0.0
 11
769.9189123814
 21
564.9626866153
 31
0.0
  0
LINE
  5
1FC
330
1F
100
AcDbEntity
  8
0
  6
Continuous
 62
     7
370
    15
100
AcDbLine
 10
761.5909067099
 20
512.9626875215
 30
0.0
 11
754.9189117853
 21
512.9626875215
 31
0.0
  0
LINE
  5
1FD
330
1F
100
AcDbEntity
  8
0
  6
Continuous
 62
     7
370
    15
100
AcDbLine
 10
762.4189046328
 20
530.0424580865
 30
0.0
 11
754.9189117853
 21
530.0424580865
 31
0.0
  0
LINE
  5
1FE
330
1F
100
AcDbEntity
  8
0
  6
Continuous
 62
     7
370
    15
100
AcDbLine
 10
761.5909067099
 20
529.4626874321
 30
0.0
 11
754.9189117853
 21
529.4626874321
 31
0.0
  0
LINE
  5
1FF
330
1F
100
AcDbEntity
  8
0
  6
Continuous
 62
     7
370
    15
100
AcDbLine
 10
761.3693562452
 20
616.9626859419
 30
0.0
 11
761.5909067099
 21
616.9626859419
 31
0.0
  0
LINE
  5
200
330
1F
100
AcDbEntity
  8
0
  6
Continuous
 62
     7
370
    15
100
AcDbLine
 10
754.9189117853
 20
616.9626859419
 30
0.0
 11
761.3693562452
 21
616.9626859419
 31
0.0
  0
LINE
  5
201
330
1F
100
AcDbEntity
  8
0
  6
Continuous
 62
     7
370
    15
100
AcDbLine
 10
762.1533957426
 20
599.8829153769
 30
0.0
 11
762.4189046328
 21
599.8829153769
 31
0.0
  0
LINE
  5
202
330
1F
100
AcDbEntity
  8
0
  6
Continuous
 62
     7
370
    15
100
AcDbLine
 10
754.9189117853
 20
599.8829153769
 30
0.0
 11
762.1533957426
 21
599.8829153769
 31
0.0
  0
LINE
  5
203
330
1F
100
AcDbEntity
  8
0
  6
Continuous
 62
     7
370
    15
100
AcDbLine
 10
761.3693562452
 20
600.4626860313
 30
0.0
 11
761.5909067099
 21
600.4626860313
 31
0.0
  0
LINE
  5
204
330
1F
100
AcDbEntity
  8
0
  6
Continuous
 62
     7
370
    15
100
AcDbLine
 10
754.9189117853
 20
600.4626860313
 30
0.0
 11
761.3693562452
 21
600.4626860313
 31
0.0
  0
CIRCLE
  5
205
330
1F
100
AcDbEntity
  8
0
  6
Continuous
 62
     7
370
    15
100
AcDbCircle
 10
806.6121796085
 20
608.5626865672
 30
0.0
 40
5.700000000000045
  0
CIRCLE
  5
206
330
1F
100
AcDbEntity
  8
0
  6
Continuous
 62
     7
370
    15
100
AcDbCircle
 10
806.6121796085
 20
608.5626865672
 30
0.0
 40
6.500000000000114
  0
LINE
  5
207
330
1F
100
AcDbEntity
  8
0
  6
Continuous
 62
     7
370
    15
100
AcDbLine
 10
803.6121812765
 20
610.2947366827
 30
0.0
 11
803.6121812765
 21
606.8306339376
 31
0.0
  0
LINE
  5
208
330
1F
100
AcDbEntity
  8
0
  6
Continuous
 62
     7
370
    15
100
AcDbLine
 10
806.612172455
 20
605.0985862904
 30
0.0
 11
803.6121812765
 21
606.8306339376
 31
0.0
  0
LINE
  5
209
330
1F
100
AcDbEntity
  8
0
  6
Continuous
 62
     7
370
    15
100
AcDbLine
 10
809.6121785347
 20
606.8306339376
 30
0.0
 11
809.6121785347
 21
610.2947366827
 31
0.0
  0
LINE
  5
20A
330
1F
100
AcDbEntity
  8
0
  6
Continuous
 62
     7
370
    15
100
AcDbLine
 10
806.612172455
 20
612.0267880552
 30
0.0
 11
803.6121812765
 21
610.2947366827
 31
0.0
  0
LINE
  5
20B
330
1F
100
AcDbEntity
  8
0
  6
Continuous
 62
     7
370
    15
100
AcDbLine
 10
809.6121785347
 20
606.8306339376
 30
0.0
 11
806.612172455
 21
605.0985862904
 31
0.0
  0
LINE
  5
20C
330
1F
100
AcDbEntity
  8
0
  6
Continuous
 62
     7
370
    15
100
AcDbLine
 10
806.612172455
 20
612.0267880552
 30
0.0
 11
809.6121785347
 21
610.2947366827
 31
0.0
  0
ARC
  5
20D
330
1F
100
AcDbEntity
  8
0
  6
Continuous
 62
     7
370
    15
100
AcDbCircle
 10
806.6121796085
 20
608.5626865672
 30
0.0
 40
3.000000000000114
100
AcDbArc
 50
300.0
 51
0.0
  0
ARC
  5
20E
330
1F
100
AcDbEntity
  8
0
  6
Continuous
 62
     7
370
    15
100
AcDbCircle
 10
806.6121796085
 20
608.5626865672
 30
0.0
 40
2.999999999999894
100
AcDbArc
 50
120.0
 51
180.0
  0
ARC
  5
20F
330
1F
100
AcDbEntity
  8
0
  6
Continuous
 62
     7
370
    15
100
AcDbCircle
 10
806.6121796085
 20
608.5626865672
 30
0.0
 40
3.000000000000008
100
AcDbArc
 50
60.0
 51
120.0
  0
ARC
  5
210
330
1F
100
AcDbEntity
  8
0
  6
Continuous
 62
     7
370
    15
100
AcDbCircle
 10
806.6121796085
 20
608.5626865672
 30
0.0
 40
3.000000000000114
100
AcDbArc
 50
0.0
 51
60.0
  0
ARC
  5
211
330
1F
100
AcDbEntity
  8
0
  6
Continuous
 62
     7
370
    15
100
AcDbCircle
 10
806.6121796085
 20
608.5626865672
 30
0.0
 40
3.000000000000106
100
AcDbArc
 50
240.0
 51
300.0
  0
ARC
  5
212
330
1F
100
AcDbEntity
  8
0
  6
Continuous
 62
     7
370
    15
100
AcDbCircle
 10
806.6121796085
 20
608.5626865672
 30
0.0
 40
2.999999999999992
100
AcDbArc
 50
180.0
 51
240.0
  0
CIRCLE
  5
213
330
1F
100
AcDbEntity
  8
0
  6
Continuous
 62
     7
370
    15
100
AcDbCircle
 10
806.6121796085
 20
608.5626865672
 30
0.0
 40
2.000000000000114
  0
CIRCLE
  5
214
330
1F
100
AcDbEntity
  8
0
  6
Continuous
 62
     7
370
    15
100
AcDbCircle
 10
806.6121796085
 20
521.3626865672
 30
0.0
 40
5.700000000000045
  0
CIRCLE
  5
215
330
1F
100
AcDbEntity
  8
0
  6
Continuous
 62
     7
370
    15
100
AcDbCircle
 10
806.6121796085
 20
521.3626865672
 30
0.0
 40
6.5
  0
LINE
  5
216
330
1F
100
AcDbEntity
  8
0
  6
Continuous
 62
     7
370
    15
100
AcDbLine
 10
806.612172455
 20
517.8985854082
 30
0.0
 11
803.6121812765
 21
519.6306367807
 31
0.0
  0
LINE
  5
217
330
1F
100
AcDbEntity
  8
0
  6
Continuous
 62
     7
370
    15
100
AcDbLine
 10
809.6121785347
 20
519.6306367807
 30
0.0
 11
809.6121785347
 21
523.0947358005
 31
0.0
  0
LINE
  5
218
330
1F
100
AcDbEntity
  8
0
  6
Continuous
 62
     7
370
    15
100
AcDbLine
 10
806.612172455
 20
524.826787173
 30
0.0
 11
809.6121785347
 21
523.0947358005
 31
0.0
  0
LINE
  5
219
330
1F
100
AcDbEntity
  8
0
  6
Continuous
 62
     7
370
    15
100
AcDbLine
 10
806.612172455
 20
524.826787173
 30
0.0
 11
803.6121812765
 21
523.0947358005
 31
0.0
  0
LINE
  5
21A
330
1F
100
AcDbEntity
  8
0
  6
Continuous
 62
     7
370
    15
100
AcDbLine
 10
803.6121812765
 20
523.0947358005
 30
0.0
 11
803.6121812765
 21
519.6306367807
 31
0.0
  0
LINE
  5
21B
330
1F
100
AcDbEntity
  8
0
  6
Continuous
 62
     7
370
    15
100
AcDbLine
 10
809.6121785347
 20
519.6306367807
 30
0.0
 11
806.612172455
 21
517.8985854082
 31
0.0
  0
ARC
  5
21C
330
1F
100
AcDbEntity
  8
0
  6
Continuous
 62
     7
370
    15
100
AcDbCircle
 10
806.6121796085
 20
521.3626865672
 30
0.0
 40
3.000000000000114
100
AcDbArc
 50
300.0
 51
0.0
  0
ARC
  5
21D
330
1F
100
AcDbEntity
  8
0
  6
Continuous
 62
     7
370
    15
100
AcDbCircle
 10
806.6121796085
 20
521.3626865672
 30
0.0
 40
3.000000000000049
100
AcDbArc
 50
240.0
 51
300.0
  0
ARC
  5
21E
330
1F
100
AcDbEntity
  8
0
  6
Continuous
 62
     7
370
    15
100
AcDbCircle
 10
806.6121796085
 20
521.3626865672
 30
0.0
 40
2.999999999999992
100
AcDbArc
 50
180.0
 51
240.0
  0
ARC
  5
21F
330
1F
100
AcDbEntity
  8
0
  6
Continuous
 62
     7
370
    15
100
AcDbCircle
 10
806.6121796085
 20
521.3626865672
 30
0.0
 40
2.999999999999894
100
AcDbArc
 50
120.0
 51
180.0
  0
ARC
  5
220
330
1F
100
AcDbEntity
  8
0
  6
Continuous
 62
     7
370
    15
100
AcDbCircle
 10
806.6121796085
 20
521.3626865672
 30
0.0
 40
2.999999999999951
100
AcDbArc
 50
60.0
 51
120.0
  0
ARC
  5
221
330
1F
100
AcDbEntity
  8
0
  6
Continuous
 62
     7
370
    15
100
AcDbCircle
 10
806.6121796085
 20
521.3626865672
 30
0.0
 40
3.000000000000114
100
AcDbArc
 50
0.0
 51
60.0
  0
CIRCLE
  5
222
330
1F
100
AcDbEntity
  8
0
  6
Continuous
 62
     7
370
    15
100
AcDbCircle
 10
806.6121796085
 20
521.3626865672
 30
0.0
 40
2.000000000000114
  0
LINE
  5
223
330
1F
100
AcDbEntity
  8
0
  6
Continuous
 62
     7
370
    15
100
AcDbLine
 10
833.3621856873
 20
529.3626857393
 30
0.0
 11
833.3621856873
 21
513.362686842
 31
0.0
  0
LINE
  5
224
330
1F
100
AcDbEntity
  8
0
  6
Continuous
 62
     7
370
    15
100
AcDbLine
 10
833.3621856873
 20
513.362686842
 30
0.0
 11
858.3621767466
 21
513.362686842
 31
0.0
  0
LINE
  5
225
330
1F
100
AcDbEntity
  8
0
  6
Continuous
 62
     7
370
    15
100
AcDbLine
 10
833.3621856873
 20
529.3626857393
 30
0.0
 11
858.3621767466
 21
529.3626857393
 31
0.0
  0
LINE
  5
226
330
1F
100
AcDbEntity
  8
0
  6
Continuous
 62
     7
370
    15
100
AcDbLine
 10
793.3621791307
 20
529.3626857393
 30
0.0
 11
793.3621791307
 21
513.362686842
 31
0.0
  0
ARC
  5
227
330
1F
100
AcDbEntity
  8
0
  6
Continuous
 62
     7
370
    15
100
AcDbCircle
 10
807.6121796085
 20
521.3626865672
 30
0.0
 40
7.250000000000114
100
AcDbArc
 50
270.0
 51
90.0
  0
LINE
  5
228
330
1F
100
AcDbEntity
  8
0
  6
Continuous
 62
     7
370
    15
100
AcDbLine
 10
807.6121744816
 20
528.6126879447
 30
0.0
 11
805.6121853296
 21
528.6126879447
 31
0.0
  0
ARC
  5
229
330
1F
100
AcDbEntity
  8
0
  6
Continuous
 62
     7
370
    15
100
AcDbCircle
 10
805.6121796085
 20
521.3626865672
 30
0.0
 40
7.250000000000114
100
AcDbArc
 50
90.0
 51
270.0
  0
LINE
  5
22A
330
1F
100
AcDbEntity
  8
0
  6
Continuous
 62
     7
370
    15
100
AcDbLine
 10
805.6121853296
 20
514.1126883619
 30
0.0
 11
807.6121744816
 21
514.1126883619
 31
0.0
  0
LINE
  5
22B
330
1F
100
AcDbEntity
  8
0
  6
Continuous
 62
     7
370
    15
100
AcDbLine
 10
793.3621791307
 20
513.362686842
 30
0.0
 11
833.3621856873
 21
513.362686842
 31
0.0
  0
LINE
  5
22C
330
1F
100
AcDbEntity
  8
0
  6
Continuous
 62
     7
370
    15
100
AcDbLine
 10
793.3621791307
 20
529.3626857393
 30
0.0
 11
833.3621856873
 21
529.3626857393
 31
0.0
  0
LINE
  5
22D
330
1F
100
AcDbEntity
  8
0
  6
Continuous
 62
     7
370
    15
100
AcDbLine
 10
772.5033697788
 20
529.3626857393
 30
0.0
 11
772.5033697788
 21
513.362686842
 31
0.0
  0
LINE
  5
22E
330
1F
100
AcDbEntity
  8
0
  6
Continuous
 62
     7
370
    15
100
AcDbLine
 10
790.1621845667
 20
529.3626857393
 30
0.0
 11
790.1621845667
 21
513.362686842
 31
0.0
  0
LINE
  5
22F
330
1F
100
AcDbEntity
  8
0
  6
Continuous
 62
     7
370
    15
100
AcDbLine
 10
772.5033697788
 20
513.362686842
 30
0.0
 11
790.1621845667
 21
513.362686842
 31
0.0
  0
LINE
  5
230
330
1F
100
AcDbEntity
  8
0
  6
Continuous
 62
     7
370
    15
100
AcDbLine
 10
772.5033697788
 20
529.3626857393
 30
0.0
 11
790.1621845667
 21
529.3626857393
 31
0.0
  0
LINE
  5
231
330
1F
100
AcDbEntity
  8
0
  6
Continuous
 62
     7
370
    15
100
AcDbLine
 10
765.9396764938
 20
529.3626857393
 30
0.0
 11
765.9396764938
 21
513.362686842
 31
0.0
  0
LINE
  5
232
330
1F
100
AcDbEntity
  8
0
  6
Continuous
 62
     7
370
    15
100
AcDbLine
 10
765.9396764938
 20
513.362686842
 30
0.0
 11
772.5033697788
 21
513.362686842
 31
0.0
  0
LINE
  5
233
330
1F
100
AcDbEntity
  8
0
  6
Continuous
 62
     7
370
    15
100
AcDbLine
 10
765.9396764938
 20
529.3626857393
 30
0.0
 11
772.5033697788
 21
529.3626857393
 31
0.0
  0
LINE
  5
234
330
1F
100
AcDbEntity
  8
0
  6
Continuous
 62
     7
370
    15
100
AcDbLine
 10
754.9189117853
 20
513.362686842
 30
0.0
 11
765.9396764938
 21
513.362686842
 31
0.0
  0
LINE
  5
235
330
1F
100
AcDbEntity
  8
0
  6
Continuous
 62
     7
370
    15
100
AcDbLine
 10
754.9189117853
 20
529.3626857393
 30
0.0
 11
765.9396764938
 21
529.3626857393
 31
0.0
  0
LINE
  5
236
330
1F
100
AcDbEntity
  8
0
  6
Continuous
 62
     7
370
    15
100
AcDbLine
 10
790.1621845667
 20
513.362686842
 30
0.0
 11
793.3621791307
 21
513.362686842
 31
0.0
  0
LINE
  5
237
330
1F
100
AcDbEntity
  8
0
  6
Continuous
 62
     7
370
    15
100
AcDbLine
 10
790.1621845667
 20
529.3626857393
 30
0.0
 11
793.3621791307
 21
529.3626857393
 31
0.0
  0
LINE
  5
238
330
1F
100
AcDbEntity
  8
0
  6
Continuous
 62
     7
370
    15
100
AcDbLine
 10
833.3621856873
 20
616.5626866214
 30
0.0
 11
833.3621856873
 21
600.5626877241
 31
0.0
  0
LINE
  5
239
330
1F
100
AcDbEntity
  8
0
  6
Continuous
 62
     7
370
    15
100
AcDbLine
 10
833.3621856873
 20
600.5626877241
 30
0.0
 11
858.3621767466
 21
600.5626877241
 31
0.0
  0
LINE
  5
23A
330
1F
100
AcDbEntity
  8
0
  6
Continuous
 62
     7
370
    15
100
AcDbLine
 10
833.3621856873
 20
616.5626866214
 30
0.0
 11
858.3621767466
 21
616.5626866214
 31
0.0
  0
LINE
  5
23B
330
1F
100
AcDbEntity
  8
0
  6
Continuous
 62
     7
370
    15
100
AcDbLine
 10
793.3621791307
 20
616.5626866214
 30
0.0
 11
793.3621791307
 21
600.5626877241
 31
0.0
  0
ARC
  5
23C
330
1F
100
AcDbEntity
  8
0
  6
Continuous
 62
     7
370
    15
100
AcDbCircle
 10
807.6121796085
 20
608.5626865672
 30
0.0
 40
7.250000000000114
100
AcDbArc
 50
270.0
 51
90.0
  0
LINE
  5
23D
330
1F
100
AcDbEntity
  8
0
  6
Continuous
 62
     7
370
    15
100
AcDbLine
 10
807.6121744816
 20
615.8126851015
 30
0.0
 11
805.6121853296
 21
615.8126851015
 31
0.0
  0
ARC
  5
23E
330
1F
100
AcDbEntity
  8
0
  6
Continuous
 62
     7
370
    15
100
AcDbCircle
 10
805.6121796085
 20
608.5626865672
 30
0.0
 40
7.250000000000114
100
AcDbArc
 50
90.0
 51
270.0
  0
LINE
  5
23F
330
1F
100
AcDbEntity
  8
0
  6
Continuous
 62
     7
370
    15
100
AcDbLine
 10
805.6121853296
 20
601.3126855187
 30
0.0
 11
807.6121744816
 21
601.3126855187
 31
0.0
  0
LINE
  5
240
330
1F
100
AcDbEntity
  8
0
  6
Continuous
 62
     7
370
    15
100
AcDbLine
 10
793.3621791307
 20
600.5626877241
 30
0.0
 11
833.3621856873
 21
600.5626877241
 31
0.0
  0
LINE
  5
241
330
1F
100
AcDbEntity
  8
0
  6
Continuous
 62
     7
370
    15
100
AcDbLine
 10
793.3621791307
 20
616.5626866214
 30
0.0
 11
833.3621856873
 21
616.5626866214
 31
0.0
  0
LINE
  5
242
330
1F
100
AcDbEntity
  8
0
  6
Continuous
 62
     7
370
    15
100
AcDbLine
 10
772.5033697788
 20
616.5626866214
 30
0.0
 11
772.5033697788
 21
600.5626877241
 31
0.0
  0
LINE
  5
243
330
1F
100
AcDbEntity
  8
0
  6
Continuous
 62
     7
370
    15
100
AcDbLine
 10
790.1621845667
 20
616.5626866214
 30
0.0
 11
790.1621845667
 21
600.5626877241
 31
0.0
  0
LINE
  5
244
330
1F
100
AcDbEntity
  8
0
  6
Continuous
 62
     7
370
    15
100
AcDbLine
 10
772.5033697788
 20
600.5626877241
 30
0.0
 11
790.1621845667
 21
600.5626877241
 31
0.0
  0
LINE
  5
245
330
1F
100
AcDbEntity
  8
0
  6
Continuous
 62
     7
370
    15
100
AcDbLine
 10
772.5033697788
 20
616.5626866214
 30
0.0
 11
790.1621845667
 21
616.5626866214
 31
0.0
  0
LINE
  5
246
330
1F
100
AcDbEntity
  8
0
  6
Continuous
 62
     7
370
    15
100
AcDbLine
 10
765.9396764938
 20
616.5626866214
 30
0.0
 11
765.9396764938
 21
600.5626877241
 31
0.0
  0
LINE
  5
247
330
1F
100
AcDbEntity
  8
0
  6
Continuous
 62
     7
370
    15
100
AcDbLine
 10
765.9396764938
 20
600.5626877241
 30
0.0
 11
772.5033697788
 21
600.5626877241
 31
0.0
  0
LINE
  5
248
330
1F
100
AcDbEntity
  8
0
  6
Continuous
 62
     7
370
    15
100
AcDbLine
 10
765.9396764938
 20
616.5626866214
 30
0.0
 11
772.5033697788
 21
616.5626866214
 31
0.0
  0
LINE
  5
249
330
1F
100
AcDbEntity
  8
0
  6
Continuous
 62
     7
370
    15
100
AcDbLine
 10
754.9189117853
 20
600.5626877241
 30
0.0
 11
765.9396764938
 21
600.5626877241
 31
0.0
  0
LINE
  5
24A
330
1F
100
AcDbEntity
  8
0
  6
Continuous
 62
     7
370
    15
100
AcDbLine
 10
754.9189117853
 20
616.5626866214
 30
0.0
 11
765.9396764938
 21
616.5626866214
 31
0.0
  0
LINE
  5
24B
330
1F
100
AcDbEntity
  8
0
  6
Continuous
 62
     7
370
    15
100
AcDbLine
 10
790.1621845667
 20
600.5626877241
 30
0.0
 11
793.3621791307
 21
600.5626877241
 31
0.0
  0
LINE
  5
24C
330
1F
100
AcDbEntity
  8
0
  6
Continuous
 62
     7
370
    15
100
AcDbLine
 10
790.1621845667
 20
616.5626866214
 30
0.0
 11
793.3621791307
 21
616.5626866214
 31
0.0
  0
LINE
  5
24D
330
1F
100
AcDbEntity
  8
0
  6
Continuous
 62
     7
370
    15
100
AcDbLine
 10
754.9189117853
 20
564.9626866153
 30
0.0
 11
769.9189123814
 21
564.9626866153
 31
0.0
  0
LINE
  5
24E
330
1F
100
AcDbEntity
  8
0
  6
Continuous
 62
     7
370
    15
100
AcDbLine
 10
754.9189117853
 20
599.8126862042
 30
0.0
 11
769.9189123814
 21
599.8126862042
 31
0.0
  0
LINE
  5
24F
330
1F
100
AcDbEntity
  8
0
  6
Continuous
 62
     7
370
    15
100
AcDbLine
 10
754.9189117853
 20
512.612685322
 30
0.0
 11
769.9189123814
 21
512.612685322
 31
0.0
  0
LINE
  5
250
330
1F
100
AcDbEntity
  8
0
  6
Continuous
 62
     7
370
    15
100
AcDbLine
 10
754.9189117853
 20
489.9626893394
 30
0.0
 11
769.9189123814
 21
489.9626893394
 31
0.0
  0
LINE
  5
251
330
1F
100
AcDbEntity
  8
0
  6
Continuous
 62
     7
370
    15
100
AcDbLine
 10
754.9189117853
 20
639.9626878493
 30
0.0
 11
754.9189117853
 21
489.9626893394
 31
0.0
  0
LINE
  5
252
330
1F
100
AcDbEntity
  8
0
  6
Continuous
 62
     7
370
    15
100
AcDbLine
 10
754.9189117853
 20
489.9626893394
 30
0.0
 11
744.9189064209
 21
489.9626893394
 31
0.0
  0
LINE
  5
253
330
1F
100
AcDbEntity
  8
0
  6
Continuous
 62
     7
370
    15
100
AcDbLine
 10
744.9189064209
 20
489.9626893394
 30
0.0
 11
744.9189064209
 21
639.9626878493
 31
0.0
  0
LINE
  5
254
330
1F
100
AcDbEntity
  8
0
  6
Continuous
 62
     7
370
    15
100
AcDbLine
 10
754.9189117853
 20
639.9626878493
 30
0.0
 11
744.9189064209
 21
639.9626878493
 31
0.0
  0
LINE
  5
255
330
1F
100
AcDbEntity
  8
0
  6
Continuous
 62
     7
370
    15
100
AcDbLine
 10
757.4189094011
 20
639.9626878493
 30
0.0
 11
757.4189094011
 21
617.3126881413
 31
0.0
  0
LINE
  5
256
330
1F
100
AcDbEntity
  8
0
  6
Continuous
 62
     7
370
    15
100
AcDbLine
 10
769.9189123814
 20
617.3126881413
 30
0.0
 11
757.4189094011
 21
617.3126881413
 31
0.0
  0
LINE
  5
257
330
1F
100
AcDbEntity
  8
0
  6
Continuous
 62
     7
370
    15
100
AcDbLine
 10
769.9189123814
 20
639.9626878493
 30
0.0
 11
757.4189094011
 21
639.9626878493
 31
0.0
  0
LINE
  5
258
330
1F
100
AcDbEntity
  8
0
  6
Continuous
 62
     7
370
    15
100
AcDbLine
 10
757.4189094011
 20
617.3126881413
 30
0.0
 11
754.9189117853
 21
617.3126881413
 31
0.0
  0
LINE
  5
259
330
1F
100
AcDbEntity
  8
0
  6
Continuous
 62
     7
370
    15
100
AcDbLine
 10
757.4189094011
 20
639.9626878493
 30
0.0
 11
754.9189117853
 21
639.9626878493
 31
0.0
  0
LINE
  5
25A
330
1F
100
AcDbEntity
  8
0
  6
Continuous
 62
     7
370
    15
100
AcDbLine
 10
757.4189094011
 20
564.9626866153
 30
0.0
 11
757.4189094011
 21
530.1126872592
 31
0.0
  0
LINE
  5
25B
330
1F
100
AcDbEntity
  8
0
  6
Continuous
 62
     7
370
    15
100
AcDbLine
 10
757.4189094011
 20
564.9626866153
 30
0.0
 11
754.9189117853
 21
564.9626866153
 31
0.0
  0
LINE
  5
25C
330
1F
100
AcDbEntity
  8
0
  6
Continuous
 62
     7
370
    15
100
AcDbLine
 10
757.4189094011
 20
530.1126872592
 30
0.0
 11
754.9189117853
 21
530.1126872592
 31
0.0
  0
LINE
  5
25D
330
1F
100
AcDbEntity
  8
0
  6
Continuous
 62
     7
370
    15
100
AcDbLine
 10
769.9189123814
 20
564.9626866153
 30
0.0
 11
757.4189094011
 21
564.9626866153
 31
0.0
  0
LINE
  5
25E
330
1F
100
AcDbEntity
  8
0
  6
Continuous
 62
     7
370
    15
100
AcDbLine
 10
769.9189123814
 20
530.1126872592
 30
0.0
 11
757.4189094011
 21
530.1126872592
 31
0.0
  0
SPLINE
  5
25F
330
1F
100
AcDbEntity
  8
0
  6
Continuous
 62
     7
370
    15
100
AcDbSpline
210
0.0
220
0.0
230
1.0
 70
     8
 71
     3
 72
    21
 73
    17
 74
     0
 42
0.000000001
 43
0.00000001
 40
0.0
 40
0.0
 40
0.0
 40
0.0
 40
0.0389999860143042
 40
0.1120376891041558
 40
0.1895478662881972
 40
0.2695331907221604
 40
0.3495411408919136
 40
0.4290533822056209
 40
0.5082387002599059
 40
0.5873827870473645
 40
0.6667368527576766
 40
0.7465988820466002
 40
0.8273473067687237
 40
0.9092732918696397
 40
0.982580563188993
 40
1.0
 40
1.0
 40
1.0
 40
1.0
 10
1196.279517107279
 20
428.55779925473
 30
0.0
 10
1196.197119340314
 20
428.7153277694722
 30
0.0
 10
1195.960410142655
 20
429.1678697461092
 30
0.0
 10
1195.287657742488
 20
429.8068659789663
 30
0.0
 10
1194.299191033101
 20
430.4752992575004
 30
0.0
 10
1193.065256589075
 20
431.0191073235542
 30
0.0
 10
1191.658868633278
 20
431.4179996951063
 30
0.0
 10
1190.141856047474
 20
431.6549370951014
 30
0.0
 10
1188.574647528013
 20
431.7250210119751
 30
0.0
 10
1187.013661087107
 20
431.6270595087803
 30
0.0
 10
1185.513683296082
 20
431.3636392298507
 30
0.0
 10
1184.128871997126
 20
430.9385894946647
 30
0.0
 10
1182.898628732202
 20
430.359630876853
 30
0.0
 10
1181.938516233281
 20
429.6448889122425
 30
0.0
 10
1181.349596121109
 20
429.0459270234467
 30
0.0
 10
1181.179539856692
 20
428.6718262509362
 30
0.0
 10
1181.146889224774
 20
428.5999992784605
 30
0.0
  0
LINE
  5
260
330
1F
100
AcDbEntity
  8
0
  6
Continuous
 62
     7
370
    15
100
AcDbLine
 10
1164.5376393604
 20
378.845101784
 30
0.0
 11
1164.6574877496
 21
378.2530214867
 31
0.0
  0
LINE
  5
261
330
1F
100
AcDbEntity
  8
0
  6
Continuous
 62
     7
370
    15
100
AcDbLine
 10
1164.2857547629
 20
377.4501460453
 30
0.0
 11
1164.5360574991
 21
377.382119125
 31
0.0
  0
LINE
  5
262
330
1F
100
AcDbEntity
  8
0
  6
Continuous
 62
     7
370
    15
100
AcDbLine
 10
1164.8819547078
 20
384.2432210964
 30
0.0
 11
1164.789507345
 21
384.1400123848
 31
0.0
  0
LINE
  5
263
330
1F
100
AcDbEntity
  8
0
  6
Continuous
 62
     7
370
    15
100
AcDbLine
 10
1163.4321177626
 20
379.1455588658
 30
0.0
 11
1163.5519645045
 21
378.5534790162
 31
0.0
  0
LINE
  5
264
330
1F
100
AcDbEntity
  8
0
  6
Continuous
 62
     7
370
    15
100
AcDbLine
 10
1163.1802315178
 20
377.7506035748
 30
0.0
 11
1163.4305342539
 21
377.6825766545
 31
0.0
  0
LINE
  5
265
330
1F
100
AcDbEntity
  8
0
  6
Continuous
 62
     7
370
    15
100
AcDbLine
 10
1165.3426332755
 20
385.4530994593
 30
0.0
 11
1165.2783517532
 21
385.4705697997
 31
0.0
  0
LINE
  5
266
330
1F
100
AcDbEntity
  8
0
  6
Continuous
 62
     7
370
    15
100
AcDbLine
 10
1164.087037886
 20
384.8904416738
 30
0.0
 11
1163.6839840998
 21
384.4404699144
 31
0.0
  0
LINE
  5
267
330
1F
100
AcDbEntity
  8
0
  6
Continuous
 62
     7
370
    15
100
AcDbLine
 10
1162.3265945175
 20
379.4460163954
 30
0.0
 11
1162.4464412593
 21
378.8539365458
 31
0.0
  0
LINE
  5
268
330
1F
100
AcDbEntity
  8
0
  6
Continuous
 62
     7
370
    15
100
AcDbLine
 10
1162.07470992
 20
378.0510606567
 30
0.0
 11
1162.3250110088
 21
377.983034184
 31
0.0
  0
LINE
  5
269
330
1F
100
AcDbEntity
  8
0
  6
Continuous
 62
     7
370
    15
100
AcDbLine
 10
1164.4231312442
 20
385.7030004088
 30
0.0
 11
1164.1728301554
 21
385.7710268815
 31
0.0
  0
LINE
  5
26A
330
1F
100
AcDbEntity
  8
0
  6
Continuous
 62
     7
370
    15
100
AcDbLine
 10
1164.5376393604
 20
304.1001124066
 30
0.0
 11
1164.6574877496
 21
303.5080321093
 31
0.0
  0
LINE
  5
26B
330
1F
100
AcDbEntity
  8
0
  6
Continuous
 62
     7
370
    15
100
AcDbLine
 10
1164.2857547629
 20
302.7051566679
 30
0.0
 11
1164.5360574991
 21
302.6371297476
 31
0.0
  0
LINE
  5
26C
330
1F
100
AcDbEntity
  8
0
  6
Continuous
 62
     7
370
    15
100
AcDbLine
 10
1164.8819547078
 20
309.498231719
 30
0.0
 11
1164.789507345
 21
309.3950230074
 31
0.0
  0
LINE
  5
26D
330
1F
100
AcDbEntity
  8
0
  6
Continuous
 62
     7
370
    15
100
AcDbLine
 10
1163.4321177626
 20
304.4005694885
 30
0.0
 11
1163.5519645045
 21
303.8084896389
 31
0.0
  0
LINE
  5
26E
330
1F
100
AcDbEntity
  8
0
  6
Continuous
 62
     7
370
    15
100
AcDbLine
 10
1163.1802315178
 20
303.0056141975
 30
0.0
 11
1163.4305342539
 21
302.9375872771
 31
0.0
  0
LINE
  5
26F
330
1F
100
AcDbEntity
  8
0
  6
Continuous
 62
     7
370
    15
100
AcDbLine
 10
1165.3426332755
 20
310.7081100819
 30
0.0
 11
1165.2783517532
 21
310.7255804223
 31
0.0
  0
LINE
  5
270
330
1F
100
AcDbEntity
  8
0
  6
Continuous
 62
     7
370
    15
100
AcDbLine
 10
1164.087037886
 20
310.1454522965
 30
0.0
 11
1163.6839840998
 21
309.695480537
 31
0.0
  0
LINE
  5
271
330
1F
100
AcDbEntity
  8
0
  6
Continuous
 62
     7
370
    15
100
AcDbLine
 10
1162.3265945175
 20
304.701027018
 30
0.0
 11
1162.4464412593
 21
304.1089471684
 31
0.0
  0
LINE
  5
272
330
1F
100
AcDbEntity
  8
0
  6
Continuous
 62
     7
370
    15
100
AcDbLine
 10
1162.07470992
 20
303.3060712793
 30
0.0
 11
1162.3250110088
 21
303.2380448066
 31
0.0
  0
LINE
  5
273
330
1F
100
AcDbEntity
  8
0
  6
Continuous
 62
     7
370
    15
100
AcDbLine
 10
1164.4231312442
 20
310.9580110315
 30
0.0
 11
1164.1728301554
 21
311.0260375041
 31
0.0
  0
LINE
  5
274
330
1F
100
AcDbEntity
  8
0
  6
Continuous
 62
     7
370
    15
100
AcDbLine
 10
1128.2632969904
 20
301.1254764208
 30
0.0
 11
1128.2632969904
 21
287.4108005547
 31
0.0
  0
LINE
  5
275
330
1F
100
AcDbEntity
  8
0
  6
Continuous
 62
     7
370
    15
100
AcDbLine
 10
1169.0178441578
 20
314.2952267742
 30
0.0
 11
1169.0178441578
 21
319.5164679418
 31
0.0
  0
LINE
  5
276
330
1F
100
AcDbEntity
  8
0
  6
Continuous
 62
     7
370
    15
100
AcDbLine
 10
1204.9320996041
 20
311.5270511671
 30
0.0
 11
1204.9320996041
 21
325.2417270332
 31
0.0
  0
LINE
  5
277
330
1F
100
AcDbEntity
  8
0
  6
Continuous
 62
     7
370
    15
100
AcDbLine
 10
1128.2632969904
 20
375.8704657982
 30
0.0
 11
1128.2632969904
 21
362.1557899321
 31
0.0
  0
LINE
  5
278
330
1F
100
AcDbEntity
  8
0
  6
Continuous
 62
     7
370
    15
100
AcDbLine
 10
1169.0178441578
 20
389.0402161516
 30
0.0
 11
1169.0178441578
 21
394.2614573192
 31
0.0
  0
LINE
  5
279
330
1F
100
AcDbEntity
  8
0
  6
Continuous
 62
     7
370
    15
100
AcDbLine
 10
1204.9320996041
 20
386.2720405445
 30
0.0
 11
1204.9320996041
 21
399.9867164106
 31
0.0
  0
LINE
  5
27A
330
1F
100
AcDbEntity
  8
0
  6
Continuous
 62
     7
370
    15
100
AcDbLine
 10
1310.3584712311
 20
295.1917239077
 30
0.0
 11
1315.0254276239
 21
299.7468164193
 31
0.0
  0
LINE
  5
27B
330
1F
100
AcDbEntity
  8
0
  6
Continuous
 62
     7
370
    15
100
AcDbLine
 10
1201.2056704255
 20
428.9265919582
 30
0.0
 11
1201.2056704255
 21
430.5210254853
 31
0.0
  0
LINE
  5
27C
330
1F
100
AcDbEntity
  8
0
  6
Continuous
 62
     7
370
    15
100
AcDbLine
 10
1176.2056709418
 20
430.5210247778
 30
0.0
 11
1176.2056709418
 21
411.1061856672
 31
0.0
  0
LINE
  5
27D
330
1F
100
AcDbEntity
  8
0
  6
Continuous
 62
     7
370
    15
100
AcDbLine
 10
1176.2056709418
 20
356.9586215509
 30
0.0
 11
1176.2056709418
 21
336.3611962898
 31
0.0
  0
LINE
  5
27E
330
1F
100
AcDbEntity
  8
0
  6
Continuous
 62
     7
370
    15
100
AcDbLine
 10
1074.0533090263
 20
444.1078712714
 30
0.0
 11
1069.3863526335
 21
439.5527787599
 31
0.0
  0
LINE
  5
27F
330
1F
100
AcDbEntity
  8
0
  6
Continuous
 62
     7
370
    15
100
AcDbLine
 10
1187.6334008764
 20
430.2633950611
 30
0.0
 11
1184.2788179418
 21
428.6281843527
 31
0.0
  0
LINE
  5
280
330
1F
100
AcDbEntity
  8
0
  6
Continuous
 62
     7
370
    15
100
AcDbLine
 10
1185.2557835442
 20
426.5200030987
 30
0.0
 11
1184.2788179418
 21
428.6281843527
 31
0.0
  0
LINE
  5
281
330
1F
100
AcDbEntity
  8
0
  6
Continuous
 62
     7
370
    15
100
AcDbLine
 10
1191.2215920621
 20
426.3393733651
 30
0.0
 11
1193.1325242492
 21
427.2708642325
 31
0.0
  0
LINE
  5
282
330
1F
100
AcDbEntity
  8
0
  6
Continuous
 62
     7
370
    15
100
AcDbLine
 10
1192.060250553
 20
429.5847316072
 30
0.0
 11
1193.1325242492
 21
427.2708642325
 31
0.0
  0
LINE
  5
283
330
1F
100
AcDbEntity
  8
0
  6
Continuous
 62
     7
370
    15
100
AcDbLine
 10
1192.060250553
 20
429.5847316072
 30
0.0
 11
1187.6334008764
 21
430.2633950611
 31
0.0
  0
LINE
  5
284
330
1F
100
AcDbEntity
  8
0
  6
Continuous
 62
     7
370
    15
100
AcDbLine
 10
1185.8579798731
 20
426.3961972707
 30
0.0
 11
1185.9561128862
 21
426.4457078548
 31
0.0
  0
ARC
  5
285
330
1F
100
AcDbEntity
  8
0
  6
Continuous
 62
     7
370
    15
100
AcDbCircle
 10
1188.7076939283
 20
420.1262330069
 30
0.0
 40
6.892529331427696
100
AcDbArc
 50
80.4870580755
 51
113.5289316771
  0
ARC
  5
286
330
1F
100
AcDbEntity
  8
0
  6
Continuous
 62
     7
370
    15
100
AcDbCircle
 10
1189.0710647697
 20
421.3700236773
 30
0.0
 40
5.607870883950928
100
AcDbArc
 50
64.9275840669
 51
82.0485371462
  0
LINE
  5
287
330
1F
100
AcDbEntity
  8
0
  6
Continuous
 62
     7
370
    15
100
AcDbLine
 10
1192.060250553
 20
426.7481763675
 30
0.0
 11
1192.060250553
 21
429.5847316072
 31
0.0
  0
LINE
  5
288
330
1F
100
AcDbEntity
  8
0
  6
Continuous
 62
     7
370
    15
100
AcDbLine
 10
1185.9561128862
 20
426.4457078548
 30
0.0
 11
1185.8554890077
 21
426.3966572934
 31
0.0
  0
LINE
  5
289
330
1F
100
AcDbEntity
  8
0
  6
Continuous
 62
     7
370
    15
100
AcDbLine
 10
1187.6334008764
 20
427.2633098152
 30
0.0
 11
1187.6334008764
 21
430.2633950611
 31
0.0
  0
LINE
  5
28A
330
1F
100
AcDbEntity
  8
0
  6
Continuous
 62
     7
370
    15
100
AcDbLine
 10
1187.6334008764
 20
427.2633098152
 30
0.0
 11
1185.9561128862
 21
426.4457078548
 31
0.0
  0
LINE
  5
28B
330
1F
100
AcDbEntity
  8
0
  6
Continuous
 62
     7
370
    15
100
AcDbLine
 10
1191.8050359341
 20
426.6237753153
 30
0.0
 11
1189.846824891
 21
426.9239783121
 31
0.0
  0
LINE
  5
28C
330
1F
100
AcDbEntity
  8
0
  6
Continuous
 62
     7
370
    15
100
AcDbLine
 10
1189.846824891
 20
426.9239783121
 30
0.0
 11
1187.6334008764
 21
427.2633098152
 31
0.0
  0
ARC
  5
28D
330
1F
100
AcDbEntity
  8
0
  6
Continuous
 62
     7
370
    15
100
AcDbCircle
 10
1171.2525529612
 20
379.1763125498
 30
0.0
 40
6.426883517630147
100
AcDbArc
 50
172.4116393591
 51
187.5883606409
  0
ARC
  5
28E
330
1F
100
AcDbEntity
  8
0
  6
Continuous
 62
     7
370
    15
100
AcDbCircle
 10
1170.6557453755
 20
379.4886387944
 30
0.0
 40
6.074538084893366
100
AcDbArc
 50
161.8954334734
 51
198.1045665266
  0
ARC
  5
28F
330
1F
100
AcDbEntity
  8
0
  6
Continuous
 62
     7
370
    15
100
AcDbCircle
 10
1170.9553387643
 20
379.7082699365
 30
0.0
 40
6.475486460378477
100
AcDbArc
 50
159.7024943934
 51
187.6602018907
  0
LWPOLYLINE
  5
290
330
1F
100
AcDbEntity
  8
0
  6
Continuous
 62
     7
370
    15
100
AcDbPolyline
 90
       10
 70
   128
 43
0.0
 10
1164.8819506326
 20
377.3796523299
 10
1164.5335191784
 20
377.3828092976
 10
1164.1256075688
 20
377.6798340548
 10
1163.8473798056
 20
378.2933815471
 10
1163.7235584368
 20
379.1689396827
 10
1163.7651382157
 20
380.2286955175
 10
1163.968440316
 20
381.3785089161
 10
1164.3153835493
 20
382.5161953861
 10
1164.775153398
 20
383.5406750845
 10
1164.8819506326
 20
383.7319238853
  0
LWPOLYLINE
  5
291
330
1F
100
AcDbEntity
  8
0
  6
Continuous
 62
     7
370
    15
100
AcDbPolyline
 90
       10
 70
   128
 43
0.0
 10
1164.2857547629
 20
377.4501460453
 10
1164.2832164422
 20
377.450836218
 10
1163.8753048326
 20
377.7478609752
 10
1163.5970770694
 20
378.3614084675
 10
1163.4732557006
 20
379.2369666031
 10
1163.5148354796
 20
380.2967224379
 10
1163.7181375799
 20
381.4465358365
 10
1164.0650808132
 20
382.5842223064
 10
1164.5248506619
 20
383.6087020049
 10
1164.8819541322
 20
384.1943727508
  0
ARC
  5
292
330
1F
100
AcDbEntity
  8
0
  6
Continuous
 62
     7
370
    15
100
AcDbCircle
 10
1169.8476820802
 20
380.0836226657
 30
0.0
 40
6.483782014043623
100
AcDbArc
 50
141.2722235734
 51
188.3186617814
  0
LWPOLYLINE
  5
293
330
1F
100
AcDbEntity
  8
0
  6
Continuous
 62
     7
370
    15
100
AcDbPolyline
 90
       13
 70
   128
 43
0.0
 10
1163.8991708392
 20
377.7173191901
 10
1163.4279959333
 20
377.6832668271
 10
1163.0200843236
 20
377.9802915844
 10
1162.7418565605
 20
378.5938390767
 10
1162.6180351917
 20
379.4693972122
 10
1162.6596149706
 20
380.5291530471
 10
1162.8629170709
 20
381.6789664456
 10
1163.2098603042
 20
382.8166529156
 10
1163.6696301529
 20
383.8411326141
 10
1164.2013631313
 20
384.661369703
 10
1164.757825612
 20
385.2044941433
 10
1165.2895585904
 20
385.4222324303
 10
1165.3128207347
 20
385.4239992033
  0
LWPOLYLINE
  5
294
330
1F
100
AcDbEntity
  8
0
  6
Continuous
 62
     7
370
    15
100
AcDbPolyline
 90
       13
 70
   128
 43
0.0
 10
1163.1802315178
 20
377.7506035748
 10
1163.1776931971
 20
377.7512937475
 10
1162.7697815875
 20
378.0483185047
 10
1162.4915538243
 20
378.661865997
 10
1162.3677324555
 20
379.5374241326
 10
1162.4093122344
 20
380.5971799674
 10
1162.6126143347
 20
381.746993366
 10
1162.959557568
 20
382.884679836
 10
1163.4193274167
 20
383.9091595344
 10
1163.9510603951
 20
384.7293966233
 10
1164.5075228758
 20
385.2725210636
 10
1165.0392558542
 20
385.4902593506
 10
1165.2783517532
 20
385.4705697997
  0
ARC
  5
295
330
1F
100
AcDbEntity
  8
0
  6
Continuous
 62
     7
370
    15
100
AcDbCircle
 10
1168.742158835
 20
380.3840801952
 30
0.0
 40
6.483782014046008
100
AcDbArc
 50
141.2722235734
 51
188.3186617814
  0
LWPOLYLINE
  5
296
330
1F
100
AcDbEntity
  8
0
  6
Continuous
 62
     7
370
    15
100
AcDbPolyline
 90
       14
 70
   128
 43
0.0
 10
1162.7936475941
 20
378.0177767196
 10
1162.3224726881
 20
377.9837243567
 10
1161.9145610785
 20
378.2807491139
 10
1161.6363333153
 20
378.8942966062
 10
1161.5125119465
 20
379.7698547418
 10
1161.5540917255
 20
380.8296105766
 10
1161.7573938258
 20
381.9794239752
 10
1162.104337059
 20
383.1171104452
 10
1162.5641069078
 20
384.1415901436
 10
1163.0958398862
 20
384.9618272325
 10
1163.6523023668
 20
385.5049516728
 10
1164.1840353453
 20
385.7226899598
 10
1164.643805194
 20
385.5957091958
 10
1164.8097140059
 20
385.4358244994
  0
ARC
  5
297
330
1F
100
AcDbEntity
  8
0
  6
Continuous
 62
     7
370
    15
100
AcDbCircle
 10
1162.3877243489
 20
378.9590370381
 30
0.0
 40
0.9604161295980909
100
AcDbArc
 50
191.3664860557
 51
250.9789551802
  0
ARC
  5
298
330
1F
100
AcDbEntity
  8
0
  6
Continuous
 62
     7
370
    15
100
AcDbCircle
 10
1164.0251484923
 20
384.7035287012
 30
0.0
 40
1.077665179176152
100
AcDbArc
 50
82.1234846346
 51
134.7126310728
  0
LINE
  5
299
330
1F
100
AcDbEntity
  8
0
  6
Continuous
 62
     7
370
    15
100
AcDbLine
 10
1161.6881259963
 20
378.3182338014
 30
0.0
 11
1161.5589359054
 21
378.2795764333
 31
0.0
  0
LINE
  5
29A
330
1F
100
AcDbEntity
  8
0
  6
Continuous
 62
     7
370
    15
100
AcDbLine
 10
1163.6123399712
 20
385.8350134457
 30
0.0
 11
1163.7041924081
 21
385.7362815812
 31
0.0
  0
ARC
  5
29B
330
1F
100
AcDbEntity
  8
0
  6
Continuous
 62
     7
370
    15
100
AcDbCircle
 10
1171.2524466615
 20
304.4313231724
 30
0.0
 40
6.426778148879289
100
AcDbArc
 50
172.4115142133
 51
187.5884857867
  0
ARC
  5
29C
330
1F
100
AcDbEntity
  8
0
  6
Continuous
 62
     7
370
    15
100
AcDbCircle
 10
1170.6557517829
 20
304.743649417
 30
0.0
 40
6.07454417508051
100
AcDbArc
 50
161.8954522538
 51
198.1045477462
  0
ARC
  5
29D
330
1F
100
AcDbEntity
  8
0
  6
Continuous
 62
     7
370
    15
100
AcDbCircle
 10
1170.9560039178
 20
304.9632092132
 30
0.0
 40
6.476136169772
100
AcDbArc
 50
159.7039172713
 51
187.6587918854
  0
LWPOLYLINE
  5
29E
330
1F
100
AcDbEntity
  8
0
  6
Continuous
 62
     7
370
    15
100
AcDbPolyline
 90
       10
 70
   128
 43
0.0
 10
1164.8819506326
 20
302.6346629525
 10
1164.5335191784
 20
302.6378199202
 10
1164.1256075688
 20
302.9348446775
 10
1163.8473798056
 20
303.5483953629
 10
1163.7235584368
 20
304.4239503053
 10
1163.7651382157
 20
305.4837093334
 10
1163.968440316
 20
306.6335195387
 10
1164.3153835493
 20
307.7712060087
 10
1164.775153398
 20
308.7956889004
 10
1164.8819506326
 20
308.9869377011
  0
LWPOLYLINE
  5
29F
330
1F
100
AcDbEntity
  8
0
  6
Continuous
 62
     7
370
    15
100
AcDbPolyline
 90
       10
 70
   128
 43
0.0
 10
1164.2857547629
 20
302.7051566679
 10
1164.2832164422
 20
302.7058468406
 10
1163.8753048326
 20
303.0028715978
 10
1163.5970770694
 20
303.6164222833
 10
1163.4732557006
 20
304.4919772257
 10
1163.5148354796
 20
305.5517362537
 10
1163.7181375799
 20
306.7015464591
 10
1164.0650808132
 20
307.8392329291
 10
1164.5248506619
 20
308.8637158207
 10
1164.8819541322
 20
309.4493865666
  0
ARC
  5
2A0
330
1F
100
AcDbEntity
  8
0
  6
Continuous
 62
     7
370
    15
100
AcDbCircle
 10
1169.8476820802
 20
305.3386332883
 30
0.0
 40
6.483782014042973
100
AcDbArc
 50
141.2722235734
 51
188.3186617814
  0
LWPOLYLINE
  5
2A1
330
1F
100
AcDbEntity
  8
0
  6
Continuous
 62
     7
370
    15
100
AcDbPolyline
 90
       13
 70
   128
 43
0.0
 10
1163.8991708392
 20
302.9723298127
 10
1163.4279959333
 20
302.9382774498
 10
1163.0200843236
 20
303.235302207
 10
1162.7418565605
 20
303.8488528925
 10
1162.6180351917
 20
304.7244078349
 10
1162.6596149706
 20
305.7841668629
 10
1162.8629170709
 20
306.9339770683
 10
1163.2098603042
 20
308.0716635382
 10
1163.6696301529
 20
309.0961464299
 10
1164.2013631313
 20
309.9163835188
 10
1164.757825612
 20
310.4595079591
 10
1165.2895585904
 20
310.6772462461
 10
1165.3128207347
 20
310.6790130191
  0
LWPOLYLINE
  5
2A2
330
1F
100
AcDbEntity
  8
0
  6
Continuous
 62
     7
370
    15
100
AcDbPolyline
 90
       13
 70
   128
 43
0.0
 10
1163.1802315178
 20
303.0056141975
 10
1163.1776931971
 20
303.0063043701
 10
1162.7697815875
 20
303.3033291274
 10
1162.4915538243
 20
303.9168798128
 10
1162.3677324555
 20
304.7924347552
 10
1162.4093122344
 20
305.8521937833
 10
1162.6126143347
 20
307.0020039886
 10
1162.959557568
 20
308.1396904586
 10
1163.4193274167
 20
309.1641733503
 10
1163.9510603951
 20
309.9844104392
 10
1164.5075228758
 20
310.5275348794
 10
1165.0392558542
 20
310.7452731665
 10
1165.2783517532
 20
310.7255804223
  0
ARC
  5
2A3
330
1F
100
AcDbEntity
  8
0
  6
Continuous
 62
     7
370
    15
100
AcDbCircle
 10
1168.742158835
 20
305.6390908178
 30
0.0
 40
6.483782014046025
100
AcDbArc
 50
141.2722235734
 51
188.3186617814
  0
LWPOLYLINE
  5
2A4
330
1F
100
AcDbEntity
  8
0
  6
Continuous
 62
     7
370
    15
100
AcDbPolyline
 90
       14
 70
   128
 43
0.0
 10
1162.7936475941
 20
303.2727873422
 10
1162.3224726881
 20
303.2387349793
 10
1161.9145610785
 20
303.5357597365
 10
1161.6363333153
 20
304.149310422
 10
1161.5125119465
 20
305.0248653644
 10
1161.5540917255
 20
306.0846243924
 10
1161.7573938258
 20
307.2344345978
 10
1162.104337059
 20
308.3721210678
 10
1162.5641069078
 20
309.3966039594
 10
1163.0958398862
 20
310.2168410484
 10
1163.6523023668
 20
310.7599654886
 10
1164.1840353453
 20
310.9777037756
 10
1164.643805194
 20
310.8507198185
 10
1164.8097140059
 20
310.690835122
  0
ARC
  5
2A5
330
1F
100
AcDbEntity
  8
0
  6
Continuous
 62
     7
370
    15
100
AcDbCircle
 10
1162.3877243489
 20
304.2140476607
 30
0.0
 40
0.9604161295839361
100
AcDbArc
 50
191.3664860552
 51
250.9789551806
  0
ARC
  5
2A6
330
1F
100
AcDbEntity
  8
0
  6
Continuous
 62
     7
370
    15
100
AcDbCircle
 10
1164.025134248
 20
309.9585820988
 30
0.0
 40
1.077624760012383
100
AcDbArc
 50
82.1224227665
 51
134.713692941
  0
LINE
  5
2A7
330
1F
100
AcDbEntity
  8
0
  6
Continuous
 62
     7
370
    15
100
AcDbLine
 10
1161.6881259963
 20
303.573244424
 30
0.0
 11
1161.5589359054
 21
303.5345870559
 31
0.0
  0
LINE
  5
2A8
330
1F
100
AcDbEntity
  8
0
  6
Continuous
 62
     7
370
    15
100
AcDbLine
 10
1163.6123399712
 20
311.0900240683
 30
0.0
 11
1163.7041924081
 21
310.9912922038
 31
0.0
  0
LINE
  5
2A9
330
1F
100
AcDbEntity
  8
0
  6
Continuous
 62
     7
370
    15
100
AcDbLine
 10
1175.3737494337
 20
295.1163297837
 30
0.0
 11
1203.7762781939
 21
322.8380685734
 31
0.0
  0
LWPOLYLINE
  5
2AA
330
1F
100
AcDbEntity
  8
0
  6
Continuous
 62
     7
370
    15
100
AcDbPolyline
 90
       27
 70
   128
 43
0.0
 10
1131.1528443383
 20
307.1346242492
 10
1129.9077068294
 20
305.7181720839
 10
1129.0031466948
 20
304.2347486573
 10
1128.4523549864
 20
302.7059861569
 10
1128.2633672257
 20
301.1541803331
 10
1128.4389179755
 20
299.6019395297
 10
1128.9764800444
 20
298.0719310546
 10
1129.868189859
 20
296.5864415474
 10
1131.1010649833
 20
295.1671529868
 10
1132.6570993643
 20
293.8347349883
 10
1134.5136279611
 20
292.6086415748
 10
1136.6435755485
 20
291.5067485164
 10
1139.0158614827
 20
290.5451044822
 10
1141.595917159
 20
289.737755695
 10
1144.3461029093
 20
289.0964590757
 10
1147.2263303268
 20
288.6305825287
 10
1150.1945774415
 20
288.3468955081
 10
1153.2075796701
 20
288.2495547847
 10
1156.221402909
 20
288.3399834023
 10
1159.1920753679
 20
288.6168378009
 10
1162.0763050443
 20
289.0761078631
 10
1164.8320096087
 20
289.7110770334
 10
1167.4190358812
 20
290.512508597
 10
1169.799621434
 20
291.4686851012
 10
1171.9390728731
 20
292.5656839277
 10
1173.8061911885
 20
293.7875046658
 10
1175.3737494337
 20
295.1163297837
  0
LINE
  5
2AB
330
1F
100
AcDbEntity
  8
0
  6
Continuous
 62
     7
370
    15
100
AcDbLine
 10
1149.8206629554
 20
325.3549875079
 30
0.0
 11
1131.1528443383
 21
307.1346242492
 31
0.0
  0
LINE
  5
2AC
330
1F
100
AcDbEntity
  8
0
  6
Continuous
 62
     7
370
    15
100
AcDbLine
 10
1167.9512349505
 20
320.4274865308
 30
0.0
 11
1149.8206629554
 21
325.3549875079
 31
0.0
  0
LWPOLYLINE
  5
2AD
330
1F
100
AcDbEntity
  8
0
  6
Continuous
 62
     7
370
    15
100
AcDbPolyline
 90
        9
 70
   128
 43
0.0
 10
1168.7866788144
 20
319.0357348028
 10
1168.934788972
 20
319.2227057369
 10
1169.0092276034
 20
319.4209606259
 10
1169.007143199
 20
319.6228918453
 10
1168.9286102333
 20
319.8207300186
 10
1168.7766413833
 20
320.0068704474
 10
1168.557086819
 20
320.1741694887
 10
1168.2783824072
 20
320.3161952188
 10
1167.9512349505
 20
320.4274865308
  0
LINE
  5
2AE
330
1F
100
AcDbEntity
  8
0
  6
Continuous
 62
     7
370
    15
100
AcDbLine
 10
1160.8771603226
 20
311.3158022773
 30
0.0
 11
1168.7866788144
 21
319.0357348028
 31
0.0
  0
LWPOLYLINE
  5
2AF
330
1F
100
AcDbEntity
  8
0
  6
Continuous
 62
     7
370
    15
100
AcDbPolyline
 90
       48
 70
   128
 43
0.0
 10
1164.8819520129
 20
310.2584690281
 10
1167.0691545495
 20
309.4116449766
 10
1169.02636317
 20
308.4267793189
 10
1170.7209831322
 20
307.3202888352
 10
1172.1247622357
 20
306.1105861135
 10
1173.2143357428
 20
304.8178446754
 10
1173.9715407021
 20
303.4635924766
 10
1174.3837635739
 20
302.0703831338
 10
1174.4441432627
 20
300.661437027
 10
1174.1516716607
 20
299.26022348
 10
1173.5112174946
 20
297.8900811406
 10
1172.533453531
 20
296.5738385933
 10
1171.2346629834
 20
295.333415736
 10
1169.6364920979
 20
294.1894918503
 10
1167.7655566876
 20
293.1611092337
 10
1165.6530241229
 20
292.2654049894
 10
1163.3341005161
 20
291.5173078389
 10
1160.84740625
 20
290.9292739571
 10
1158.2343577205
 20
290.5110905414
 10
1155.5384998354
 20
290.2697361503
 10
1152.8047448018
 20
290.2092318021
 10
1150.0786141976
 20
290.3305692789
 10
1147.4055560691
 20
290.6317578819
 10
1144.8300702284
 20
291.1077497625
 10
1142.3950763976
 20
291.7506290021
 10
1140.141136584
 20
292.5496841112
 10
1138.1057985148
 20
293.4916038259
 10
1136.3229726536
 20
294.5606984864
 10
1134.8223600046
 20
295.73915968
 10
1133.6289554122
 20
297.0073514307
 10
1132.762639649
 20
298.3441466801
 10
1132.2378331854
 20
299.7272643593
 10
1132.0633027114
 20
301.1336864329
 10
1132.2419484031
 20
302.539976045
 10
1132.7707799391
 20
303.9226918867
 10
1133.6410043542
 20
305.2588155567
 10
1134.838110956
 20
306.5260755884
 10
1136.3421674417
 20
307.7033702754
 10
1138.1281095215
 20
308.7710794519
 10
1140.1661961763
 20
309.7114267111
 10
1142.4224652226
 20
310.5087374093
 10
1144.8593282939
 20
311.1497281999
 10
1147.4361966283
 20
311.6237274516
 10
1150.1101451596
 20
311.9228418687
 10
1152.8366173112
 20
312.0420773382
 10
1155.5701951479
 20
311.9794506918
 10
1158.265339513
 20
311.7360054938
 10
1160.8771603226
 20
311.3158022773
  0
LINE
  5
2B0
330
1F
100
AcDbEntity
  8
0
  6
Continuous
 62
     7
370
    15
100
AcDbLine
 10
1172.1598598235
 20
317.3619301657
 30
0.0
 11
1164.8819520129
 21
310.2584690281
 31
0.0
  0
LWPOLYLINE
  5
2B1
330
1F
100
AcDbEntity
  8
0
  6
Continuous
 62
     7
370
    15
100
AcDbPolyline
 90
        9
 70
   128
 43
0.0
 10
1169.4446576582
 20
321.8851128765
 10
1170.5078927257
 20
321.5234210353
 10
1171.4136853353
 20
321.0618408623
 10
1172.1272359307
 20
320.518117281
 10
1172.6211194579
 20
319.9131455034
 10
1172.876359695
 20
319.2701757474
 10
1172.8831389958
 20
318.6139087762
 10
1172.6412107902
 20
317.9695767692
 10
1172.1598598235
 20
317.3619301657
  0
LINE
  5
2B2
330
1F
100
AcDbEntity
  8
0
  6
Continuous
 62
     7
370
    15
100
AcDbLine
 10
1151.314085663
 20
326.8126138536
 30
0.0
 11
1169.4446576582
 21
321.8851128765
 31
0.0
  0
LINE
  5
2B3
330
1F
100
AcDbEntity
  8
0
  6
Continuous
 62
     7
370
    15
100
AcDbLine
 10
1159.5553730985
 20
334.856363039
 30
0.0
 11
1151.314085663
 21
326.8126138536
 31
0.0
  0
ARC
  5
2B4
330
1F
100
AcDbEntity
  8
0
  6
Continuous
 62
     7
370
    15
100
AcDbCircle
 10
1166.3924614223
 20
326.8505375762
 30
0.0
 40
10.52801111739406
100
AcDbArc
 50
98.7527802056
 51
130.4977960455
  0
LINE
  5
2B5
330
1F
100
AcDbEntity
  8
0
  6
Continuous
 62
     7
370
    15
100
AcDbLine
 10
1176.2056763341
 20
339.5312313161
 30
0.0
 11
1164.7903998103
 21
337.2559408207
 31
0.0
  0
LINE
  5
2B6
330
1F
100
AcDbEntity
  8
0
  6
Continuous
 62
     7
370
    15
100
AcDbLine
 10
1204.6677434985
 20
326.4181332743
 30
0.0
 11
1200.9969074099
 21
334.4765696351
 31
0.0
  0
LINE
  5
2B7
330
1F
100
AcDbEntity
  8
0
  6
Continuous
 62
     7
370
    15
100
AcDbLine
 10
1200.9276356677
 20
334.6286327523
 30
0.0
 11
1200.8413158152
 21
334.8181306738
 31
0.0
  0
ARC
  5
2B8
330
1F
100
AcDbEntity
  8
0
  6
Continuous
 62
     7
370
    15
100
AcDbCircle
 10
1201.833276546
 20
325.2229152438
 30
0.0
 40
3.076158163231822
100
AcDbArc
 50
309.1706726339
 51
22.8638367663
  0
LINE
  5
2B9
330
1F
100
AcDbEntity
  8
0
  6
Continuous
 62
     7
370
    15
100
AcDbLine
 10
1175.3737494337
 20
295.1163297837
 30
0.0
 11
1175.3737494337
 21
281.4016539176
 31
0.0
  0
LWPOLYLINE
  5
2BA
330
1F
100
AcDbEntity
  8
0
  6
Continuous
 62
     7
370
    15
100
AcDbPolyline
 90
       23
 70
   128
 43
0.0
 10
1128.2632969904
 20
287.4108005547
 10
1128.4389179755
 20
285.8872636636
 10
1128.9764800444
 20
284.3572551885
 10
1129.868189859
 20
282.8717656814
 10
1131.1010649833
 20
281.4524771207
 10
1132.6570993643
 20
280.1200591223
 10
1134.5136279611
 20
278.8939657088
 10
1136.6435755485
 20
277.7920726504
 10
1139.0158614827
 20
276.8304286161
 10
1141.595917159
 20
276.023079829
 10
1144.3461029093
 20
275.3817832096
 10
1147.2263303268
 20
274.9159066626
 10
1150.1945774415
 20
274.6322196421
 10
1153.2075796701
 20
274.5348789187
 10
1156.221402909
 20
274.6253075362
 10
1159.1920753679
 20
274.9021619349
 10
1162.0763050443
 20
275.361431997
 10
1164.8320096087
 20
275.9964011673
 10
1167.4190358812
 20
276.797832731
 10
1169.799621434
 20
277.7540092352
 10
1171.9390728731
 20
278.8510080616
 10
1173.8061911885
 20
280.0728287998
 10
1175.3737494337
 20
281.4016539176
  0
LINE
  5
2BB
330
1F
100
AcDbEntity
  8
0
  6
Continuous
 62
     7
370
    15
100
AcDbLine
 10
1164.8819520129
 20
310.2584690281
 30
0.0
 11
1164.8819520129
 21
296.543793162
 31
0.0
  0
LINE
  5
2BC
330
1F
100
AcDbEntity
  8
0
  6
Continuous
 62
     7
370
    15
100
AcDbLine
 10
1160.8771603226
 20
311.3158022773
 30
0.0
 11
1160.8771603226
 21
297.6011264113
 31
0.0
  0
ARC
  5
2BD
330
1F
100
AcDbEntity
  8
0
  6
Continuous
 62
     7
370
    15
100
AcDbCircle
 10
1158.1089462777
 20
275.6545595619
 30
0.0
 40
21.95981983276385
100
AcDbArc
 50
57.9537422024
 51
72.0355282234
  0
LWPOLYLINE
  5
2BE
330
1F
100
AcDbEntity
  8
0
  6
Continuous
 62
     7
370
    15
100
AcDbPolyline
 90
       11
 70
   128
 43
0.0
 10
1136.7656929734
 20
294.2681443504
 10
1138.1281095215
 20
295.0564035859
 10
1140.1661961763
 20
295.9967508451
 10
1142.4224652226
 20
296.7940615433
 10
1144.8593282939
 20
297.4350523339
 10
1147.4361966283
 20
297.9090515856
 10
1150.1101451596
 20
298.2081660027
 10
1152.8366173112
 20
298.3274014721
 10
1155.5701951479
 20
298.2647748257
 10
1158.265339513
 20
298.0213296277
 10
1160.8771603226
 20
297.6011264113
  0
LINE
  5
2BF
330
1F
100
AcDbEntity
  8
0
  6
Continuous
 62
     7
370
    15
100
AcDbLine
 10
1203.7762781939
 20
322.8380685734
 30
0.0
 11
1203.7762781939
 21
309.1233927073
 31
0.0
  0
LINE
  5
2C0
330
1F
100
AcDbEntity
  8
0
  6
Continuous
 62
     7
370
    15
100
AcDbLine
 10
1175.3737494337
 20
281.4016539176
 30
0.0
 11
1203.7762781939
 21
309.1233927073
 31
0.0
  0
LWPOLYLINE
  5
2C1
330
1F
100
AcDbEntity
  8
0
  6
Continuous
 62
     7
370
    15
100
AcDbPolyline
 90
       11
 70
   128
 43
0.0
 10
1161.3778910173
 20
304.9471944495
 10
1161.4579350473
 20
306.0949003809
 10
1161.6921212082
 20
307.3137283568
 10
1162.0630915591
 20
308.5132961564
 10
1162.5433209679
 20
309.6046179519
 10
1163.0972034021
 20
310.5067739214
 10
1163.6836528382
 20
311.1528431846
 10
1164.2591840183
 20
311.4949224296
 10
1164.7811044749
 20
311.5076278043
 10
1165.2107065562
 20
311.1900225613
 10
1165.4333833453
 20
310.7966821612
  0
LWPOLYLINE
  5
2C2
330
1F
100
AcDbEntity
  8
0
  6
Continuous
 62
     7
370
    15
100
AcDbPolyline
 90
        7
 70
   128
 43
0.0
 10
1163.3835746543
 20
302.950347965
 10
1163.0972034021
 20
302.7438149754
 10
1162.5433209679
 20
302.5647584733
 10
1162.0630915591
 20
302.7186462118
 10
1161.6921212082
 20
303.194053948
 10
1161.4579350473
 20
303.9557361793
 10
1161.3778910173
 20
304.9471944495
  0
LINE
  5
2C3
330
1F
100
AcDbEntity
  8
0
  6
Continuous
 62
     7
370
    15
100
AcDbLine
 10
1160.8771603226
 20
297.6011264113
 30
0.0
 11
1164.8819557802
 21
301.5099295505
 31
0.0
  0
LINE
  5
2C4
330
1F
100
AcDbEntity
  8
0
  6
Continuous
 62
     7
370
    15
100
AcDbLine
 10
1151.314085663
 20
326.8126138536
 30
0.0
 11
1151.314085663
 21
324.9491055788
 31
0.0
  0
ARC
  5
2C5
330
1F
100
AcDbEntity
  8
0
  6
Continuous
 62
     7
370
    15
100
AcDbCircle
 10
1201.5549210317
 20
311.6712757914
 30
0.0
 40
3.380256773099616
100
AcDbArc
 50
311.0833578581
 51
357.5546320623
  0
LWPOLYLINE
  5
2C6
330
1F
100
AcDbEntity
  8
0
  6
Continuous
 62
     7
370
    15
100
AcDbPolyline
 90
       27
 70
   128
 43
0.0
 10
1131.1528443383
 20
381.8796136266
 10
1129.9077068294
 20
380.4631614613
 10
1129.0031466948
 20
378.9797380347
 10
1128.4523549864
 20
377.4509755343
 10
1128.2633672257
 20
375.8991697105
 10
1128.4389179755
 20
374.346928907
 10
1128.9764800444
 20
372.8169204319
 10
1129.868189859
 20
371.3314309248
 10
1131.1010649833
 20
369.9121423641
 10
1132.6570993643
 20
368.5797243657
 10
1134.5136279611
 20
367.3536309522
 10
1136.6435755485
 20
366.2517378938
 10
1139.0158614827
 20
365.2900938595
 10
1141.595917159
 20
364.4827450724
 10
1144.3461029093
 20
363.841448453
 10
1147.2263303268
 20
363.3755719061
 10
1150.1945774415
 20
363.0918848855
 10
1153.2075796701
 20
362.9945441621
 10
1156.221402909
 20
363.0849727797
 10
1159.1920753679
 20
363.3618271783
 10
1162.0763050443
 20
363.8210972404
 10
1164.8320096087
 20
364.4560664107
 10
1167.4190358812
 20
365.2574979744
 10
1169.799621434
 20
366.2136744786
 10
1171.9390728731
 20
367.310673305
 10
1173.8061911885
 20
368.5324940432
 10
1175.3737494337
 20
369.861319161
  0
LINE
  5
2C7
330
1F
100
AcDbEntity
  8
0
  6
Continuous
 62
     7
370
    15
100
AcDbLine
 10
1175.3737494337
 20
369.861319161
 30
0.0
 11
1175.3737494337
 21
356.146643295
 31
0.0
  0
LWPOLYLINE
  5
2C8
330
1F
100
AcDbEntity
  8
0
  6
Continuous
 62
     7
370
    15
100
AcDbPolyline
 90
       23
 70
   128
 43
0.0
 10
1128.2632969904
 20
362.1557899321
 10
1128.4389179755
 20
360.632253041
 10
1128.9764800444
 20
359.1022445659
 10
1129.868189859
 20
357.6167550587
 10
1131.1010649833
 20
356.1974664981
 10
1132.6570993643
 20
354.8650484997
 10
1134.5136279611
 20
353.6389550861
 10
1136.6435755485
 20
352.5370620278
 10
1139.0158614827
 20
351.5754179935
 10
1141.595917159
 20
350.7680692064
 10
1144.3461029093
 20
350.126772587
 10
1147.2263303268
 20
349.66089604
 10
1150.1945774415
 20
349.3772090195
 10
1153.2075796701
 20
349.2798682961
 10
1156.221402909
 20
349.3702969136
 10
1159.1920753679
 20
349.6471513123
 10
1162.0763050443
 20
350.1064213744
 10
1164.8320096087
 20
350.7413905447
 10
1167.4190358812
 20
351.5428221084
 10
1169.799621434
 20
352.4989986125
 10
1171.9390728731
 20
353.595997439
 10
1173.8061911885
 20
354.8178181772
 10
1175.3737494337
 20
356.146643295
  0
LINE
  5
2C9
330
1F
100
AcDbEntity
  8
0
  6
Continuous
 62
     7
370
    15
100
AcDbLine
 10
1175.3737494337
 20
369.861319161
 30
0.0
 11
1203.7762781939
 21
397.5830579508
 31
0.0
  0
LINE
  5
2CA
330
1F
100
AcDbEntity
  8
0
  6
Continuous
 62
     7
370
    15
100
AcDbLine
 10
1149.8206629554
 20
400.0999768853
 30
0.0
 11
1131.1528443383
 21
381.8796136266
 31
0.0
  0
LINE
  5
2CB
330
1F
100
AcDbEntity
  8
0
  6
Continuous
 62
     7
370
    15
100
AcDbLine
 10
1167.9512349505
 20
395.1724759082
 30
0.0
 11
1149.8206629554
 21
400.0999768853
 31
0.0
  0
LWPOLYLINE
  5
2CC
330
1F
100
AcDbEntity
  8
0
  6
Continuous
 62
     7
370
    15
100
AcDbPolyline
 90
        9
 70
   128
 43
0.0
 10
1168.7866788144
 20
393.7807241802
 10
1168.934788972
 20
393.9676951142
 10
1169.0092276034
 20
394.1659500033
 10
1169.007143199
 20
394.3678812227
 10
1168.9286102333
 20
394.565719396
 10
1168.7766413833
 20
394.7518598247
 10
1168.557086819
 20
394.9191588661
 10
1168.2783824072
 20
395.0611845962
 10
1167.9512349505
 20
395.1724759082
  0
LINE
  5
2CD
330
1F
100
AcDbEntity
  8
0
  6
Continuous
 62
     7
370
    15
100
AcDbLine
 10
1160.8771603226
 20
386.0607916547
 30
0.0
 11
1168.7866788144
 21
393.7807241802
 31
0.0
  0
LWPOLYLINE
  5
2CE
330
1F
100
AcDbEntity
  8
0
  6
Continuous
 62
     7
370
    15
100
AcDbPolyline
 90
       48
 70
   128
 43
0.0
 10
1164.8819520129
 20
385.0034584054
 10
1167.0691545495
 20
384.1566343539
 10
1169.02636317
 20
383.1717686963
 10
1170.7209831322
 20
382.0652782126
 10
1172.1247622357
 20
380.8555754909
 10
1173.2143357428
 20
379.5628340528
 10
1173.9715407021
 20
378.208581854
 10
1174.3837635739
 20
376.8153725112
 10
1174.4441432627
 20
375.4064264044
 10
1174.1516716607
 20
374.0052128573
 10
1173.5112174946
 20
372.635070518
 10
1172.533453531
 20
371.3188279707
 10
1171.2346629834
 20
370.0784051134
 10
1169.6364920979
 20
368.9344812277
 10
1167.7655566876
 20
367.9060986111
 10
1165.6530241229
 20
367.0103943668
 10
1163.3341005161
 20
366.2622972162
 10
1160.84740625
 20
365.6742633345
 10
1158.2343577205
 20
365.2560799187
 10
1155.5384998354
 20
365.0147255277
 10
1152.8047448018
 20
364.9542211795
 10
1150.0786141976
 20
365.0755586562
 10
1147.4055560691
 20
365.3767472593
 10
1144.8300702284
 20
365.8527391399
 10
1142.3950763976
 20
366.4956183795
 10
1140.141136584
 20
367.2946734886
 10
1138.1057985148
 20
368.2365932033
 10
1136.3229726536
 20
369.3056878638
 10
1134.8223600046
 20
370.4841490573
 10
1133.6289554122
 20
371.752340808
 10
1132.762639649
 20
373.0891360575
 10
1132.2378331854
 20
374.4722537367
 10
1132.0633027114
 20
375.8786758103
 10
1132.2419484031
 20
377.2849654224
 10
1132.7707799391
 20
378.6676812641
 10
1133.6410043542
 20
380.0038049341
 10
1134.838110956
 20
381.2710649658
 10
1136.3421674417
 20
382.4483596528
 10
1138.1281095215
 20
383.5160688293
 10
1140.1661961763
 20
384.4564160885
 10
1142.4224652226
 20
385.2537267867
 10
1144.8593282939
 20
385.8947175773
 10
1147.4361966283
 20
386.368716829
 10
1150.1101451596
 20
386.6678312461
 10
1152.8366173112
 20
386.7870667156
 10
1155.5701951479
 20
386.7244400691
 10
1158.265339513
 20
386.4809948712
 10
1160.8771603226
 20
386.0607916547
  0
LINE
  5
2CF
330
1F
100
AcDbEntity
  8
0
  6
Continuous
 62
     7
370
    15
100
AcDbLine
 10
1172.1598598235
 20
392.1069195431
 30
0.0
 11
1164.8819520129
 21
385.0034584054
 31
0.0
  0
LWPOLYLINE
  5
2D0
330
1F
100
AcDbEntity
  8
0
  6
Continuous
 62
     7
370
    15
100
AcDbPolyline
 90
        9
 70
   128
 43
0.0
 10
1169.4446576582
 20
396.6301022538
 10
1170.5078927257
 20
396.2684104127
 10
1171.4136853353
 20
395.8068302397
 10
1172.1272359307
 20
395.2631066583
 10
1172.6211194579
 20
394.6581348808
 10
1172.876359695
 20
394.0151651248
 10
1172.8831389958
 20
393.3588981536
 10
1172.6412107902
 20
392.7145661466
 10
1172.1598598235
 20
392.1069195431
  0
LINE
  5
2D1
330
1F
100
AcDbEntity
  8
0
  6
Continuous
 62
     7
370
    15
100
AcDbLine
 10
1151.314085663
 20
401.557603231
 30
0.0
 11
1169.4446576582
 21
396.6301022538
 31
0.0
  0
LINE
  5
2D2
330
1F
100
AcDbEntity
  8
0
  6
Continuous
 62
     7
370
    15
100
AcDbLine
 10
1159.5553730985
 20
409.6013524163
 30
0.0
 11
1151.314085663
 21
401.557603231
 31
0.0
  0
ARC
  5
2D3
330
1F
100
AcDbEntity
  8
0
  6
Continuous
 62
     7
370
    15
100
AcDbCircle
 10
1166.3924614223
 20
401.5955269536
 30
0.0
 40
10.52801111739481
100
AcDbArc
 50
98.7527802056
 51
130.4977960455
  0
LINE
  5
2D4
330
1F
100
AcDbEntity
  8
0
  6
Continuous
 62
     7
370
    15
100
AcDbLine
 10
1176.2056763341
 20
414.2762206935
 30
0.0
 11
1164.7903998103
 21
412.000930198
 31
0.0
  0
LINE
  5
2D5
330
1F
100
AcDbEntity
  8
0
  6
Continuous
 62
     7
370
    15
100
AcDbLine
 10
1204.6677434985
 20
401.1631226517
 30
0.0
 11
1200.9969074099
 21
409.2215590125
 31
0.0
  0
LINE
  5
2D6
330
1F
100
AcDbEntity
  8
0
  6
Continuous
 62
     7
370
    15
100
AcDbLine
 10
1200.9276356677
 20
409.3736221296
 30
0.0
 11
1200.8413158152
 21
409.5631200512
 31
0.0
  0
ARC
  5
2D7
330
1F
100
AcDbEntity
  8
0
  6
Continuous
 62
     7
370
    15
100
AcDbCircle
 10
1201.833276546
 20
399.9679046212
 30
0.0
 40
3.07615816323191
100
AcDbArc
 50
309.1706726339
 51
22.8638367663
  0
LINE
  5
2D8
330
1F
100
AcDbEntity
  8
0
  6
Continuous
 62
     7
370
    15
100
AcDbLine
 10
1164.8819520129
 20
385.0034584054
 30
0.0
 11
1164.8819520129
 21
371.2887825394
 31
0.0
  0
LINE
  5
2D9
330
1F
100
AcDbEntity
  8
0
  6
Continuous
 62
     7
370
    15
100
AcDbLine
 10
1160.8771603226
 20
386.0607916547
 30
0.0
 11
1160.8771603226
 21
372.3461157886
 31
0.0
  0
ARC
  5
2DA
330
1F
100
AcDbEntity
  8
0
  6
Continuous
 62
     7
370
    15
100
AcDbCircle
 10
1158.1089462777
 20
350.3995489393
 30
0.0
 40
21.95981983276385
100
AcDbArc
 50
57.9537422024
 51
72.0355282234
  0
LWPOLYLINE
  5
2DB
330
1F
100
AcDbEntity
  8
0
  6
Continuous
 62
     7
370
    15
100
AcDbPolyline
 90
       11
 70
   128
 43
0.0
 10
1136.7656929734
 20
369.0131337278
 10
1138.1281095215
 20
369.8013929632
 10
1140.1661961763
 20
370.7417402224
 10
1142.4224652226
 20
371.5390509207
 10
1144.8593282939
 20
372.1800417113
 10
1147.4361966283
 20
372.654040963
 10
1150.1101451596
 20
372.9531553801
 10
1152.8366173112
 20
373.0723908495
 10
1155.5701951479
 20
373.0097642031
 10
1158.265339513
 20
372.7663190051
 10
1160.8771603226
 20
372.3461157886
  0
LINE
  5
2DC
330
1F
100
AcDbEntity
  8
0
  6
Continuous
 62
     7
370
    15
100
AcDbLine
 10
1203.7762781939
 20
397.5830579508
 30
0.0
 11
1203.7762781939
 21
383.8683820847
 31
0.0
  0
LINE
  5
2DD
330
1F
100
AcDbEntity
  8
0
  6
Continuous
 62
     7
370
    15
100
AcDbLine
 10
1175.3737494337
 20
356.146643295
 30
0.0
 11
1203.7762781939
 21
383.8683820847
 31
0.0
  0
LWPOLYLINE
  5
2DE
330
1F
100
AcDbEntity
  8
0
  6
Continuous
 62
     7
370
    15
100
AcDbPolyline
 90
       11
 70
   128
 43
0.0
 10
1161.3778910173
 20
379.6921806337
 10
1161.4579350473
 20
380.8398897583
 10
1161.6921212082
 20
382.0587177342
 10
1162.0630915591
 20
383.2582823406
 10
1162.5433209679
 20
384.3496073293
 10
1163.0972034021
 20
385.2517632988
 10
1163.6836528382
 20
385.8978325619
 10
1164.2591840183
 20
386.2399086138
 10
1164.7811044749
 20
386.2526171817
 10
1165.2107065562
 20
385.9350119387
 10
1165.4333833453
 20
385.5416715386
  0
LWPOLYLINE
  5
2DF
330
1F
100
AcDbEntity
  8
0
  6
Continuous
 62
     7
370
    15
100
AcDbPolyline
 90
        7
 70
   128
 43
0.0
 10
1163.3835746543
 20
377.6953341492
 10
1163.0972034021
 20
377.4888043528
 10
1162.5433209679
 20
377.3097446575
 10
1162.0630915591
 20
377.463632396
 10
1161.6921212082
 20
377.9390433254
 10
1161.4579350473
 20
378.7007255567
 10
1161.3778910173
 20
379.6921806337
  0
LINE
  5
2E0
330
1F
100
AcDbEntity
  8
0
  6
Continuous
 62
     7
370
    15
100
AcDbLine
 10
1160.8771603226
 20
372.3461157886
 30
0.0
 11
1164.8819557802
 21
376.2549189279
 31
0.0
  0
LINE
  5
2E1
330
1F
100
AcDbEntity
  8
0
  6
Continuous
 62
     7
370
    15
100
AcDbLine
 10
1151.314085663
 20
401.557603231
 30
0.0
 11
1151.314085663
 21
399.6940949561
 31
0.0
  0
ARC
  5
2E2
330
1F
100
AcDbEntity
  8
0
  6
Continuous
 62
     7
370
    15
100
AcDbCircle
 10
1201.5549210317
 20
386.4162651688
 30
0.0
 40
3.380256773100001
100
AcDbArc
 50
311.0833578581
 51
357.5546320623
  0
LWPOLYLINE
  5
2E3
330
1F
100
AcDbEntity
  8
0
  6
Continuous
 62
     7
370
    15
100
AcDbPolyline
 90
       47
 70
   128
 43
0.0
 10
1257.9726069324
 20
284.576532226
 10
1262.4992214278
 20
283.4961649091
 10
1267.0047233943
 20
282.7205720407
 10
1271.4681189127
 20
282.2533709671
 10
1275.8685919784
 20
282.0967384478
 10
1280.1856297005
 20
282.2514085601
 10
1284.399088196
 20
282.7166611776
 10
1288.4893441469
 20
283.4903190983
 10
1292.4373211577
 20
284.5687791995
 10
1296.2245951863
 20
285.9470157159
 10
1299.8335329221
 20
287.618596916
 10
1303.2472786069
 20
289.5757397748
 10
1306.4499517181
 20
291.8093073391
 10
1309.4265942531
 20
294.3088901111
 10
1312.1633288753
 20
297.0628365121
 10
1314.64741163
 20
300.0583024186
 10
1316.8672451232
 20
303.2813242177
 10
1318.8124839521
 20
306.7168731764
 10
1320.474061063
 20
310.3489328979
 10
1321.8442141092
 20
314.1605703911
 10
1322.9165908817
 20
318.1340064063
 10
1323.686157057
 20
322.2507227319
 10
1324.149327986
 20
326.4915251668
 10
1324.303968694
 20
330.836634626
 10
1324.149327986
 20
335.2658001469
 10
1323.686157057
 20
339.7583626493
 10
1322.9165908817
 20
344.2933821682
 10
1321.8442141092
 20
348.8497162404
 10
1320.474061063
 20
353.4061102119
 10
1318.8124839521
 20
357.9413320443
 10
1316.8672451232
 20
362.4342294675
 10
1314.64741163
 20
366.863857623
 10
1312.1633288753
 20
371.20956446
 10
1309.4265942531
 20
375.4510825194
 10
1306.4499517181
 20
379.56864061
 10
1303.2472786069
 20
383.5430440275
 10
1299.8335329221
 20
387.3557527451
 10
1296.2245951863
 20
390.9889946449
 10
1292.4373211577
 20
394.4258374067
 10
1288.4893441469
 20
397.6502422347
 10
1284.399088196
 20
400.6471943896
 10
1280.1856297005
 20
403.4026960919
 10
1275.8685919784
 20
405.903922904
 10
1271.4681189127
 20
408.1391989617
 10
1267.0047233943
 20
410.098108414
 10
1262.4992214278
 20
411.7715197184
 10
1257.9726069324
 20
413.151626054
  0
LINE
  5
2E4
330
1F
100
AcDbEntity
  8
0
  6
Continuous
 62
     7
370
    15
100
AcDbLine
 10
1257.9726069324
 20
413.151626054
 30
0.0
 11
1262.6395633253
 21
417.7067185656
 31
0.0
  0
LWPOLYLINE
  5
2E5
330
1F
100
AcDbEntity
  8
0
  6
Continuous
 62
     7
370
    15
100
AcDbPolyline
 90
       34
 70
   128
 43
0.0
 10
1262.6395633253
 20
417.7067185656
 10
1267.1661778207
 20
416.32661223
 10
1271.6716797872
 20
414.6532009256
 10
1276.1350753056
 20
412.6942914733
 10
1280.5355483713
 20
410.4590154156
 10
1284.8525860933
 20
407.9577886035
 10
1289.0660445888
 20
405.2022869011
 10
1293.1563005397
 20
402.2053347463
 10
1297.1042775505
 20
398.9809299183
 10
1300.8915515791
 20
395.5440871565
 10
1304.5004893149
 20
391.9108452567
 10
1307.9142349998
 20
388.0981365391
 10
1311.116908111
 20
384.1237331216
 10
1314.0935506459
 20
380.006175031
 10
1316.8302852681
 20
375.7646569716
 10
1319.3143680229
 20
371.4189501346
 10
1321.5342015161
 20
366.9893219791
 10
1323.4794403449
 20
362.4964245558
 10
1325.1410174559
 20
357.9612027235
 10
1326.5111705021
 20
353.404808752
 10
1327.5835472745
 20
348.8484746798
 10
1328.3531134498
 20
344.3134551609
 10
1328.8162843789
 20
339.8208926585
 10
1328.9709250869
 20
335.3917271376
 10
1328.8162843789
 20
331.0466176784
 10
1328.3531134498
 20
326.8058152435
 10
1327.5835472745
 20
322.6890989179
 10
1326.5111705021
 20
318.7156629027
 10
1325.1410174559
 20
314.9040254095
 10
1323.4794403449
 20
311.271965688
 10
1321.5342015161
 20
307.8364167293
 10
1319.3143680229
 20
304.6133949302
 10
1316.8302852681
 20
301.6179290237
 10
1315.0254276239
 20
299.7468164193
  0
LWPOLYLINE
  5
2E6
330
1F
100
AcDbEntity
  8
0
  6
Continuous
 62
     7
370
    15
100
AcDbPolyline
 90
       15
 70
   128
 43
0.0
 10
1282.7363118091
 20
358.8485958885
 10
1282.8915323867
 20
357.4712467705
 10
1283.3494120047
 20
356.0785915761
 10
1284.0869733258
 20
354.7404691686
 10
1285.0672562456
 20
353.5239717757
 10
1286.241097038
 20
352.490102746
 10
1287.5496257489
 20
351.6907053082
 10
1288.9272380282
 20
351.1658635075
 10
1290.3048503075
 20
350.9418943105
 10
1291.6133790184
 20
351.0300316178
 10
1292.7872198109
 20
351.4258510974
 10
1293.7675027306
 20
352.109508705
 10
1294.5050706412
 20
353.0467225956
 10
1294.9629436697
 20
354.1904958429
 10
1295.1181642474
 20
355.4834737068
  0
LINE
  5
2E7
330
1F
100
AcDbEntity
  8
0
  6
Continuous
 62
     7
370
    15
100
AcDbLine
 10
1295.1181642474
 20
355.4834737068
 30
0.0
 11
1295.1181642474
 21
364.9123139634
 31
0.0
  0
LWPOLYLINE
  5
2E8
330
1F
100
AcDbEntity
  8
0
  6
Continuous
 62
     7
370
    15
100
AcDbPolyline
 90
       15
 70
   128
 43
0.0
 10
1295.1181642474
 20
364.9123139634
 10
1294.9629436697
 20
366.2896614848
 10
1294.5050706412
 20
367.6823148883
 10
1293.7675027306
 20
369.0204390867
 10
1292.7872198109
 20
370.236937278
 10
1291.6133790184
 20
371.270807106
 10
1290.3048503075
 20
372.0702021488
 10
1288.9272380282
 20
372.5950455461
 10
1287.5496257489
 20
372.8190131465
 10
1286.241097038
 20
372.7308782342
 10
1285.0672562456
 20
372.3350579562
 10
1284.0869733258
 20
371.6513995503
 10
1283.3494120047
 20
370.7141838689
 10
1282.8915323867
 20
369.5704124125
 10
1282.7363118091
 20
368.2774361452
  0
LINE
  5
2E9
330
1F
100
AcDbEntity
  8
0
  6
Continuous
 62
     7
370
    15
100
AcDbLine
 10
1282.7363118091
 20
368.2774361452
 30
0.0
 11
1282.7363118091
 21
358.8485958885
 31
0.0
  0
LINE
  5
2EA
330
1F
100
AcDbEntity
  8
0
  6
Continuous
 62
     7
370
    15
100
AcDbLine
 10
1200.9276377943
 20
334.495397852
 30
0.0
 11
1221.2692562798
 21
328.9669818158
 31
0.0
  0
LINE
  5
2EB
330
1F
100
AcDbEntity
  8
0
  6
Continuous
 62
     7
370
    15
100
AcDbLine
 10
1200.9276377943
 20
364.3676777295
 30
0.0
 11
1200.9276377943
 21
334.495397852
 31
0.0
  0
LINE
  5
2EC
330
1F
100
AcDbEntity
  8
0
  6
Continuous
 62
     7
370
    15
100
AcDbLine
 10
1200.9276377943
 20
381.0880206497
 30
0.0
 11
1200.9276377943
 21
364.3676777295
 31
0.0
  0
LINE
  5
2ED
330
1F
100
AcDbEntity
  8
0
  6
Continuous
 62
     7
370
    15
100
AcDbLine
 10
1221.2692562798
 20
388.7115417705
 30
0.0
 11
1204.9320960915
 21
393.1516318466
 31
0.0
  0
LINE
  5
2EE
330
1F
100
AcDbEntity
  8
0
  6
Continuous
 62
     7
370
    15
100
AcDbLine
 10
1221.2692562798
 20
403.7119711932
 30
0.0
 11
1221.2692562798
 21
388.7115417705
 31
0.0
  0
LINE
  5
2EF
330
1F
100
AcDbEntity
  8
0
  6
Continuous
 62
     7
370
    15
100
AcDbLine
 10
1200.9276377943
 20
409.2403872294
 30
0.0
 11
1221.2692562798
 21
403.7119711932
 31
0.0
  0
LINE
  5
2F0
330
1F
100
AcDbEntity
  8
0
  6
Continuous
 62
     7
370
    15
100
AcDbLine
 10
1200.9276377943
 20
428.65522634
 30
0.0
 11
1200.9276377943
 21
409.2403872294
 31
0.0
  0
LINE
  5
2F1
330
1F
100
AcDbEntity
  8
0
  6
Continuous
 62
     7
370
    15
100
AcDbLine
 10
1257.9726069324
 20
413.151626054
 30
0.0
 11
1200.9276377943
 21
428.65522634
 31
0.0
  0
LINE
  5
2F2
330
1F
100
AcDbEntity
  8
0
  6
Continuous
 62
     7
370
    15
100
AcDbLine
 10
1200.9276377943
 20
300.0801325119
 30
0.0
 11
1257.9726069324
 21
284.576532226
 31
0.0
  0
LINE
  5
2F3
330
1F
100
AcDbEntity
  8
0
  6
Continuous
 62
     7
370
    15
100
AcDbLine
 10
1200.9276377943
 20
306.3430328689
 30
0.0
 11
1200.9276377943
 21
300.0801325119
 31
0.0
  0
LINE
  5
2F4
330
1F
100
AcDbEntity
  8
0
  6
Continuous
 62
     7
370
    15
100
AcDbLine
 10
1221.2692562798
 20
313.9665523931
 30
0.0
 11
1204.9320960915
 21
318.4066424693
 31
0.0
  0
LINE
  5
2F5
330
1F
100
AcDbEntity
  8
0
  6
Continuous
 62
     7
370
    15
100
AcDbLine
 10
1221.2692562798
 20
328.9669818158
 30
0.0
 11
1221.2692562798
 21
313.9665523931
 31
0.0
  0
LINE
  5
2F6
330
1F
100
AcDbEntity
  8
0
  6
Continuous
 62
     7
370
    15
100
AcDbLine
 10
1200.9276377943
 20
428.65522634
 30
0.0
 11
1205.5945941872
 21
433.2103188515
 31
0.0
  0
LINE
  5
2F7
330
1F
100
AcDbEntity
  8
0
  6
Continuous
 62
     7
370
    15
100
AcDbLine
 10
1262.6395633253
 20
417.7067185656
 30
0.0
 11
1205.5945941872
 21
433.2103188515
 31
0.0
  0
LINE
  5
2F8
330
1F
100
AcDbEntity
  8
0
  6
Continuous
 62
     7
370
    15
100
AcDbLine
 10
1282.7363118091
 20
368.2774361452
 30
0.0
 11
1286.3298645458
 21
371.7848537816
 31
0.0
  0
LINE
  5
2F9
330
1F
100
AcDbEntity
  8
0
  6
Continuous
 62
     7
370
    15
100
AcDbLine
 10
1286.4165484777
 20
372.7618353376
 30
0.0
 11
1286.3298645458
 21
371.7848537816
 31
0.0
  0
LINE
  5
2FA
330
1F
100
AcDbEntity
  8
0
  6
Continuous
 62
     7
370
    15
100
AcDbLine
 10
1282.7363118091
 20
358.8485958885
 30
0.0
 11
1286.3298645458
 21
362.356013525
 31
0.0
  0
LINE
  5
2FB
330
1F
100
AcDbEntity
  8
0
  6
Continuous
 62
     7
370
    15
100
AcDbLine
 10
1286.3298645458
 20
371.7848537816
 30
0.0
 11
1286.3298645458
 21
362.356013525
 31
0.0
  0
ARC
  5
2FC
330
1F
100
AcDbEntity
  8
0
  6
Continuous
 62
     7
370
    15
100
AcDbCircle
 10
1294.479292812
 20
362.6422250844
 30
0.0
 40
8.154452656290157
100
AcDbArc
 50
182.0114266352
 51
273.8828256891
  0
LINE
  5
2FD
330
1F
100
AcDbEntity
  8
0
  6
Continuous
 62
     7
370
    15
100
AcDbLine
 10
1221.2692565291
 20
394.5350129611
 30
0.0
 11
1204.9320996355
 21
398.9751021418
 31
0.0
  0
LWPOLYLINE
  5
2FE
330
1F
100
AcDbEntity
  8
0
  6
Continuous
 62
     7
370
    15
100
AcDbPolyline
 90
       12
 70
   128
 43
0.0
 10
1180.6601440418
 20
361.306323823
 10
1181.6708719263
 20
360.9118260919
 10
1183.5010313338
 20
360.3801078995
 10
1185.4782635347
 20
360.0137922676
 10
1187.546699814
 20
359.8232383459
 10
1189.647879673
 20
359.8138171411
 10
1191.7224395039
 20
359.9858083546
 10
1193.7117516558
 20
360.3343454137
 10
1195.5595993457
 20
360.8495763791
 10
1197.2137735793
 20
361.5169501808
 10
1198.6275174101
 20
362.3175964094
 10
1199.7609004347
 20
363.2289062986
  0
LINE
  5
2FF
330
1F
100
AcDbEntity
  8
0
  6
Continuous
 62
     7
370
    15
100
AcDbLine
 10
1199.7609004347
 20
363.2289062986
 30
0.0
 11
1200.9276377943
 21
364.3676777295
 31
0.0
  0
LINE
  5
300
330
1F
100
AcDbEntity
  8
0
  6
Continuous
 62
     7
370
    15
100
AcDbLine
 10
1221.2692565291
 20
319.7900235837
 30
0.0
 11
1204.9320996355
 21
324.2301127645
 31
0.0
  0
ARC
  5
301
330
1F
100
AcDbEntity
  8
0
  6
Continuous
 62
     7
370
    15
100
AcDbCircle
 10
1189.98752446
 20
311.2571789684
 30
0.0
 40
15.72253949524995
100
AcDbArc
 50
269.5148278435
 51
308.4342110782
  0
LINE
  5
302
330
1F
100
AcDbEntity
  8
0
  6
Continuous
 62
     7
370
    15
100
AcDbLine
 10
1199.7609004347
 20
298.9413610809
 30
0.0
 11
1200.9276377943
 21
300.0801325119
 31
0.0
  0
LWPOLYLINE
  5
303
330
1F
100
AcDbEntity
  8
0
  6
Continuous
 62
     7
370
    15
100
AcDbPolyline
 90
       29
 70
   128
 43
0.0
 10
1194.5393683251
 20
436.214892356
 10
1196.3087578228
 20
435.6311540927
 10
1197.8633108638
 20
434.9030245962
 10
1199.1590754972
 20
434.0510572873
 10
1200.1594610413
 20
433.0993499664
 10
1200.8361786126
 20
432.074777216
 10
1201.1701150199
 20
431.0063016584
 10
1201.1518276215
 20
429.924110541
 10
1200.7818407704
 20
428.8587888925
 10
1200.0706032901
 20
427.8404372822
 10
1199.0382195322
 20
426.8978337603
 10
1197.7138562819
 20
426.0576144745
 10
1196.1349461189
 20
425.3435269612
 10
1194.3460915141
 20
424.7757387368
 10
1192.3978574354
 20
424.3703063551
 10
1190.3452853741
 20
424.1386767881
 10
1188.2463778738
 20
424.0873964093
 10
1186.1604574849
 20
424.2179235269
 10
1184.146457613
 20
424.526563558
 10
1182.2612880196
 20
425.0045921782
 10
1180.5582239162
 20
425.6385022226
 10
1179.0853958904
 20
426.4103880589
 10
1177.8844088573
 20
427.2984250585
 10
1176.989214577
 20
428.2775318053
 10
1176.4251034181
 20
429.320034607
 10
1176.2080128395
 20
430.3964715476
 10
1176.3440848835
 20
431.4764329954
 10
1176.8294630779
 20
432.5293891114
 10
1177.6504478869
 20
433.5256021417
  0
LWPOLYLINE
  5
304
330
1F
100
AcDbEntity
  8
0
  6
Continuous
 62
     7
370
    15
100
AcDbPolyline
 90
       20
 70
   128
 43
0.0
 10
1200.9276409117
 20
409.755890486
 10
1200.7818407704
 20
409.4439497819
 10
1200.0706032901
 20
408.4255981716
 10
1199.0382195322
 20
407.4829946497
 10
1197.7138562819
 20
406.642775364
 10
1196.1349461189
 20
405.9286878506
 10
1194.3460915141
 20
405.3608996262
 10
1192.3978574354
 20
404.9554672446
 10
1190.3452853741
 20
404.7238376776
 10
1188.2463778738
 20
404.6725572987
 10
1186.1604574849
 20
404.8030844163
 10
1184.146457613
 20
405.1117244474
 10
1182.2612880196
 20
405.5897530676
 10
1180.5582239162
 20
406.2236631121
 10
1179.0853958904
 20
406.9955489484
 10
1177.8844088573
 20
407.8835859479
 10
1176.989214577
 20
408.8626926947
 10
1176.4251034181
 20
409.9051954964
 10
1176.2080128395
 20
410.981632437
 10
1176.2056709418
 20
411.1061856672
  0
LINE
  5
305
330
1F
100
AcDbEntity
  8
0
  6
Continuous
 62
     7
370
    15
100
AcDbLine
 10
1177.6504478869
 20
433.5256021417
 30
0.0
 11
1178.8171852466
 21
434.6643735727
 31
0.0
  0
LINE
  5
306
330
1F
100
AcDbEntity
  8
0
  6
Continuous
 62
     7
370
    15
100
AcDbLine
 10
1178.8171852466
 20
434.6643735727
 30
0.0
 11
1121.7722169321
 21
450.1679736348
 31
0.0
  0
LINE
  5
307
330
1F
100
AcDbEntity
  8
0
  6
Continuous
 62
     7
370
    15
100
AcDbLine
 10
1121.7722169321
 20
450.1679736348
 30
0.0
 11
1126.439173325
 21
454.7230661464
 31
0.0
  0
LINE
  5
308
330
1F
100
AcDbEntity
  8
0
  6
Continuous
 62
     7
370
    15
100
AcDbLine
 10
1194.5393683251
 20
436.214892356
 30
0.0
 11
1126.439173325
 21
454.7230661464
 31
0.0
  0
LWPOLYLINE
  5
309
330
1F
100
AcDbEntity
  8
0
  6
Continuous
 62
     7
370
    15
100
AcDbPolyline
 90
       32
 70
   128
 43
0.0
 10
1184.738766159
 20
426.6492041905
 10
1186.3332367419
 20
426.3171814198
 10
1188.0248401584
 20
426.1572698042
 10
1189.7443208402
 20
426.1760126576
 10
1191.4212738733
 20
426.3726380122
 10
1192.9870460627
 20
426.7390945479
 10
1194.3775465367
 20
427.2603897909
 10
1195.5358396907
 20
427.9151783763
 10
1196.4144972191
 20
428.6766414034
 10
1196.9775593373
 20
429.5136195258
 10
1197.2019736146
 20
430.3918446262
 10
1197.0785450834
 20
431.2753563827
 10
1196.6123291882
 20
432.1279834824
 10
1195.8224095621
 20
432.9148184731
 10
1194.7411360445
 20
433.6036570786
 10
1193.4127733533
 20
434.1662939693
 10
1191.8916960368
 20
434.5796901912
 10
1190.2401791363
 20
434.8269207225
 10
1188.5258423117
 20
434.8978691052
 10
1186.8188734525
 20
434.789634903
 10
1185.1891461707
 20
434.5066402481
 10
1183.7033843712
 20
434.0604719427
 10
1182.4224145393
 20
433.4693960029
 10
1181.3986854748
 20
432.7576172856
 10
1180.6741118477
 20
431.9542775557
 10
1180.27834077
 20
431.0922518089
 10
1180.2275888954
 20
430.2068416039
 10
1180.5239364838
 20
429.334300813
 10
1181.1552413086
 20
428.5103404326
 10
1182.0956575707
 20
427.7686945846
 10
1183.3066924649
 20
427.1397313032
 10
1184.738766159
 20
426.6492041905
  0
LWPOLYLINE
  5
30A
330
1F
100
AcDbEntity
  8
0
  6
Continuous
 62
     7
370
    15
100
AcDbPolyline
 90
       15
 70
   128
 43
0.0
 10
1097.0085120555
 20
375.8959067791
 10
1096.8532914778
 20
377.273255897
 10
1096.3954118599
 20
378.6659110915
 10
1095.6578439493
 20
380.0040352898
 10
1094.6775610296
 20
381.2205318845
 10
1093.5037268265
 20
382.2543999216
 10
1092.1951915262
 20
383.0537983519
 10
1090.8175792469
 20
383.5786409509
 10
1089.4399735571
 20
383.8026075587
 10
1088.1314382567
 20
383.7144728407
 10
1086.9576040537
 20
383.3186507718
 10
1085.9773211339
 20
382.6349939625
 10
1085.239746634
 20
381.6977818629
 10
1084.7818736054
 20
380.5540086156
 10
1084.6266530278
 20
379.2610307517
  0
LINE
  5
30B
330
1F
100
AcDbEntity
  8
0
  6
Continuous
 62
     7
370
    15
100
AcDbLine
 10
1084.6266530278
 20
379.2610307517
 30
0.0
 11
1084.6266530278
 21
369.832190495
 31
0.0
  0
LWPOLYLINE
  5
30C
330
1F
100
AcDbEntity
  8
0
  6
Continuous
 62
     7
370
    15
100
AcDbPolyline
 90
       15
 70
   128
 43
0.0
 10
1084.6266530278
 20
369.832190495
 10
1084.7818736054
 20
368.4548413771
 10
1085.239746634
 20
367.0621895701
 10
1085.9773211339
 20
365.7240635809
 10
1086.9576040537
 20
364.5075653896
 10
1088.1314382567
 20
363.4736973525
 10
1089.4399735571
 20
362.6743005188
 10
1090.8175792469
 20
362.1494589123
 10
1092.1951915262
 20
361.9254913119
 10
1093.5037268265
 20
362.0136244334
 10
1094.6775610296
 20
362.4094465023
 10
1095.6578439493
 20
363.0931049082
 10
1096.3954118599
 20
364.0303187987
 10
1096.8532914778
 20
365.1740886585
 10
1097.0085120555
 20
366.4670665224
  0
LINE
  5
30D
330
1F
100
AcDbEntity
  8
0
  6
Continuous
 62
     7
370
    15
100
AcDbLine
 10
1097.0085120555
 20
366.4670665224
 30
0.0
 11
1097.0085120555
 21
375.8959067791
 31
0.0
  0
LINE
  5
30E
330
1F
100
AcDbEntity
  8
0
  6
Continuous
 62
     7
370
    15
100
AcDbLine
 10
1158.4755692321
 20
346.0329604494
 30
0.0
 11
1176.2056732407
 21
341.2142980901
 31
0.0
  0
LINE
  5
30F
330
1F
100
AcDbEntity
  8
0
  6
Continuous
 62
     7
370
    15
100
AcDbLine
 10
1158.4755692321
 20
333.8024410511
 30
0.0
 11
1158.4755692321
 21
346.0329604494
 31
0.0
  0
LINE
  5
310
330
1F
100
AcDbEntity
  8
0
  6
Continuous
 62
     7
370
    15
100
AcDbLine
 10
1121.7722169321
 20
321.5928798067
 30
0.0
 11
1140.6966107889
 21
316.4496350572
 31
0.0
  0
LWPOLYLINE
  5
311
330
1F
100
AcDbEntity
  8
0
  6
Continuous
 62
     7
370
    15
100
AcDbPolyline
 90
       47
 70
   128
 43
0.0
 10
1121.7722169321
 20
450.1679736348
 10
1117.2456024367
 20
451.2483409516
 10
1112.7401004702
 20
452.0239274337
 10
1108.2767049518
 20
452.4911285073
 10
1103.8762318861
 20
452.6477610266
 10
1099.5591941641
 20
452.4930909143
 10
1095.3457290792
 20
452.027846474
 10
1091.2554797177
 20
451.2541803761
 10
1087.3075092963
 20
450.1757248705
 10
1083.5202286783
 20
448.7974837585
 10
1079.9112975319
 20
447.1259039607
 10
1076.4975386682
 20
445.1687646836
 10
1073.2948721464
 20
442.9351953285
 10
1070.3182296115
 20
440.4356125565
 10
1067.5814949893
 20
437.6816661555
 10
1065.097418824
 20
434.6861984581
 10
1062.8775853308
 20
431.463176659
 10
1060.9323399125
 20
428.0276294911
 10
1059.2707628015
 20
424.3955697697
 10
1057.9006097553
 20
420.5839322765
 10
1056.8282329829
 20
416.6104962613
 10
1056.0586668076
 20
412.4937799357
 10
1055.5954958785
 20
408.2529773012
 10
1055.4408551705
 20
403.907867842
 10
1055.5954958785
 20
399.4787023211
 10
1056.0586668076
 20
394.9861400183
 10
1056.8282329829
 20
390.4511204994
 10
1057.9006097553
 20
385.8947864272
 10
1059.2707628015
 20
381.3383924557
 10
1060.9323399125
 20
376.8031706233
 10
1062.8775853308
 20
372.3102714092
 10
1065.097418824
 20
367.8806432537
 10
1067.5814949893
 20
363.5349382076
 10
1070.3182296115
 20
359.2934201482
 10
1073.2948721464
 20
355.1758620576
 10
1076.4975386682
 20
351.201460431
 10
1079.9112975319
 20
347.3887481316
 10
1083.5202286783
 20
343.7555048295
 10
1087.3075092963
 20
340.3186666632
 10
1091.2554797177
 20
337.0942572397
 10
1095.3457290792
 20
334.0973132621
 10
1099.5591941641
 20
331.3418033825
 10
1103.8762318861
 20
328.8405765703
 10
1108.2767049518
 20
326.6053005127
 10
1112.7401004702
 20
324.6463910604
 10
1117.2456024367
 20
322.9729861424
 10
1121.7722169321
 20
321.5928798067
  0
LINE
  5
312
330
1F
100
AcDbEntity
  8
0
  6
Continuous
 62
     7
370
    15
100
AcDbLine
 10
1158.4755692321
 20
408.5474304285
 30
0.0
 11
1158.4755692321
 21
420.7779498268
 31
0.0
  0
LINE
  5
313
330
1F
100
AcDbEntity
  8
0
  6
Continuous
 62
     7
370
    15
100
AcDbLine
 10
1158.4755692321
 20
420.7779498268
 30
0.0
 11
1176.2056732407
 21
415.9592874675
 31
0.0
  0
LWPOLYLINE
  5
314
330
1F
100
AcDbEntity
  8
0
  6
Continuous
 62
     7
370
    15
100
AcDbPolyline
 90
       12
 70
   128
 43
0.0
 10
1199.7609004347
 20
363.2289062986
 10
1199.0382195322
 20
362.6102851499
 10
1197.7138562819
 20
361.7700658641
 10
1196.1349461189
 20
361.0559783508
 10
1194.3460915141
 20
360.4881901264
 10
1192.3978574354
 20
360.0827577447
 10
1190.3452853741
 20
359.8511281777
 10
1188.2463778738
 20
359.7998477989
 10
1186.1604574849
 20
359.9303749164
 10
1184.146457613
 20
360.2390149476
 10
1182.2612880196
 20
360.7170435678
 10
1180.6601440418
 20
361.306323823
  0
LWPOLYLINE
  5
315
330
1F
100
AcDbEntity
  8
0
  6
Continuous
 62
     7
370
    15
100
AcDbPolyline
 90
       20
 70
   128
 43
0.0
 10
1200.9276409117
 20
335.0109011087
 10
1200.7818407704
 20
334.6989604046
 10
1200.0706032901
 20
333.6806087943
 10
1199.0382195322
 20
332.7380052723
 10
1197.7138562819
 20
331.8977859866
 10
1196.1349461189
 20
331.1836984733
 10
1194.3460915141
 20
330.6159102489
 10
1192.3978574354
 20
330.2104778672
 10
1190.3452853741
 20
329.9788483002
 10
1188.2463778738
 20
329.9275679214
 10
1186.1604574849
 20
330.0580950389
 10
1184.146457613
 20
330.3667350701
 10
1182.2612880196
 20
330.8447636903
 10
1180.5582239162
 20
331.4786737347
 10
1179.0853958904
 20
332.250559571
 10
1177.8844088573
 20
333.1385965706
 10
1176.989214577
 20
334.1177033174
 10
1176.4251034181
 20
335.1602061191
 10
1176.2080128395
 20
336.2366430596
 10
1176.2056709418
 20
336.3611962898
  0
LINE
  5
316
330
1F
100
AcDbEntity
  8
0
  6
Continuous
 62
     7
370
    15
100
AcDbLine
 10
1163.142525625
 20
411.5789592278
 30
0.0
 11
1163.142525625
 21
419.5095737906
 31
0.0
  0
LWPOLYLINE
  5
317
330
1F
100
AcDbEntity
  8
0
  6
Continuous
 62
     7
370
    15
100
AcDbPolyline
 90
       15
 70
   128
 43
0.0
 10
1074.0533090263
 20
444.1078712714
 10
1074.9851860044
 20
444.990705068
 10
1077.9618285393
 20
447.4902878401
 10
1081.1644950611
 20
449.7238571952
 10
1084.5782539248
 20
451.6809964723
 10
1088.1871850711
 20
453.3525762701
 10
1091.9744656892
 20
454.730817382
 10
1095.9224361105
 20
455.8092728877
 10
1100.012685472
 20
456.5829389856
 10
1104.2261505569
 20
457.0481834259
 10
1108.543188279
 20
457.2028535382
 10
1112.9436613447
 20
457.0462210188
 10
1117.4070568631
 20
456.5790199453
 10
1121.9125588296
 20
455.8034334632
 10
1126.439173325
 20
454.7230661464
  0
LINE
  5
318
330
1F
100
AcDbEntity
  8
0
  6
Continuous
 62
     7
370
    15
100
AcDbLine
 10
1163.142525625
 20
336.8339698504
 30
0.0
 11
1163.142525625
 21
344.7645844132
 31
0.0
  0
LINE
  5
319
330
1F
100
AcDbEntity
  8
0
  6
Continuous
 62
     7
370
    15
100
AcDbLine
 10
1084.6266530278
 20
379.2610307517
 30
0.0
 11
1088.2202057645
 21
382.7684483881
 31
0.0
  0
LINE
  5
31A
330
1F
100
AcDbEntity
  8
0
  6
Continuous
 62
     7
370
    15
100
AcDbLine
 10
1088.3068896963
 20
383.7454283475
 30
0.0
 11
1088.2202057645
 21
382.7684483881
 31
0.0
  0
LINE
  5
31B
330
1F
100
AcDbEntity
  8
0
  6
Continuous
 62
     7
370
    15
100
AcDbLine
 10
1084.6266530278
 20
369.832190495
 30
0.0
 11
1088.2202057645
 21
373.3396081315
 31
0.0
  0
LINE
  5
31C
330
1F
100
AcDbEntity
  8
0
  6
Continuous
 62
     7
370
    15
100
AcDbLine
 10
1088.2202057645
 20
382.7684483881
 30
0.0
 11
1088.2202057645
 21
373.3396081315
 31
0.0
  0
ARC
  5
31D
330
1F
100
AcDbEntity
  8
0
  6
Continuous
 62
     7
370
    15
100
AcDbCircle
 10
1096.3696327316
 20
373.6258167584
 30
0.0
 40
8.154451254990999
100
AcDbArc
 50
182.0114063636
 51
273.8828819127
  0
LWPOLYLINE
  5
31E
330
1F
100
AcDbEntity
  8
0
  6
Continuous
 62
     8
370
    15
100
AcDbPolyline
 90
       16
 70
   128
 43
0.0
 10
1195.7036582347
 20
428.0360990606
 10
1195.6805862868
 20
428.2545032005
 10
1195.373943891
 20
429.0462241244
 10
1194.7329307616
 20
429.7829573353
 10
1193.789688373
 20
430.4277564496
 10
1192.5915049865
 20
430.9482795432
 10
1191.1984762628
 20
431.3184402316
 10
1189.68044423
 20
431.5196647973
 10
1188.1135335278
 20
431.5418682752
 10
1186.5763185416
 20
431.3839407738
 10
1185.1458777587
 20
431.0537958549
 10
1183.8939364057
 20
430.5679870708
 10
1182.8832767417
 20
429.95087862
 10
1182.1645761551
 20
429.2334133724
 10
1181.7738753026
 20
428.4515708205
 10
1181.7076887489
 20
428.0360932476
  0
LINE
  5
31F
330
1F
100
AcDbEntity
  8
0
  6
Continuous
 62
     8
370
    15
100
AcDbLine
 10
1168.7866788144
 20
319.0357348028
 30
0.0
 11
1168.7866788144
 21
314.0696013391
 31
0.0
  0
LINE
  5
320
330
1F
100
AcDbEntity
  8
0
  6
Continuous
 62
     8
370
    15
100
AcDbLine
 10
1169.4446576582
 20
321.8851128765
 30
0.0
 11
1169.4446576582
 21
314.711809694
 31
0.0
  0
LINE
  5
321
330
1F
100
AcDbEntity
  8
0
  6
Continuous
 62
     8
370
    15
100
AcDbLine
 10
1168.7866788144
 20
393.7807241802
 30
0.0
 11
1168.7866788144
 21
388.8145907164
 31
0.0
  0
LINE
  5
322
330
1F
100
AcDbEntity
  8
0
  6
Continuous
 62
     8
370
    15
100
AcDbLine
 10
1169.4446576582
 20
396.6301022538
 30
0.0
 11
1169.4446576582
 21
389.4567990714
 31
0.0
  0
LINE
  5
323
330
1F
100
AcDbEntity
  8
0
  6
Continuous
 62
     8
370
    15
100
AcDbLine
 10
1199.7609004347
 20
363.2289062986
 30
0.0
 11
1199.7609004347
 21
379.9492492187
 31
0.0
  0
LINE
  5
324
330
1F
100
AcDbEntity
  8
0
  6
Continuous
 62
     8
370
    15
100
AcDbLine
 10
1199.7609004347
 20
298.9413610809
 30
0.0
 11
1199.7609004347
 21
305.2042614379
 31
0.0
  0
LINE
  5
325
330
1F
100
AcDbEntity
  8
0
  6
Continuous
 62
     7
370
    15
100
AcDbLine
 10
1330.6365368765
 20
924.0205039192
 30
0.0
 11
1329.863904218
 21
923.8842775036
 31
0.0
  0
LINE
  5
326
330
1F
100
AcDbEntity
  8
0
  6
Continuous
 62
     7
370
    15
100
AcDbLine
 10
1325.1835649711
 20
919.2039270807
 30
0.0
 11
1325.0473273796
 21
918.4313018728
 31
0.0
  0
LINE
  5
327
330
1F
100
AcDbEntity
  8
0
  6
Continuous
 62
     7
370
    15
100
AcDbLine
 10
1324.1533024114
 20
919.2576755691
 30
0.0
 11
1324.3534250062
 21
919.0575529743
 31
0.0
  0
LINE
  5
328
330
1F
100
AcDbEntity
  8
0
  6
Continuous
 62
     7
370
    15
100
AcDbLine
 10
1330.0102783245
 20
924.7144062925
 30
0.0
 11
1329.8101594549
 21
924.9145288874
 31
0.0
  0
LINE
  5
329
330
1F
100
AcDbEntity
  8
0
  6
Continuous
 62
     7
370
    15
100
AcDbLine
 10
1324.3534250062
 20
919.0575529743
 30
0.0
 11
1325.1835649711
 21
919.2039270807
 31
0.0
  0
LINE
  5
32A
330
1F
100
AcDbEntity
  8
0
  6
Continuous
 62
     7
370
    15
100
AcDbLine
 10
1329.863904218
 20
923.8842775036
 30
0.0
 11
1330.0102783245
 21
924.7144062925
 31
0.0
  0
LINE
  5
32B
330
1F
100
AcDbEntity
  8
0
  6
Continuous
 62
     7
370
    15
100
AcDbLine
 10
1323.4695402783
 20
919.9414451528
 30
0.0
 11
1324.2996802431
 21
920.0878192592
 31
0.0
  0
LINE
  5
32C
330
1F
100
AcDbEntity
  8
0
  6
Continuous
 62
     7
370
    15
100
AcDbLine
 10
1328.9800194901
 20
924.7681547809
 30
0.0
 11
1329.1263973218
 21
925.5982984711
 31
0.0
  0
LINE
  5
32D
330
1F
100
AcDbEntity
  8
0
  6
Continuous
 62
     7
370
    15
100
AcDbLine
 10
1322.0168260735
 20
921.7647512365
 30
0.0
 11
1322.5319145125
 21
921.8555887152
 31
0.0
  0
LINE
  5
32E
330
1F
100
AcDbEntity
  8
0
  6
Continuous
 62
     7
370
    15
100
AcDbLine
 10
1327.2122537595
 20
926.5359242369
 30
0.0
 11
1327.3030763369
 21
927.0510126758
 31
0.0
  0
LINE
  5
32F
330
1F
100
AcDbEntity
  8
0
  6
Continuous
 62
     7
370
    15
100
AcDbLine
 10
1322.3855366808
 20
921.025445025
 30
0.0
 11
1322.5856592756
 21
920.8253224302
 31
0.0
  0
LINE
  5
330
330
1F
100
AcDbEntity
  8
0
  6
Continuous
 62
     7
370
    15
100
AcDbLine
 10
1328.2425125938
 20
926.4821757484
 30
0.0
 11
1328.042389999
 21
926.6822983433
 31
0.0
  0
LINE
  5
331
330
1F
100
AcDbEntity
  8
0
  6
Continuous
 62
     7
370
    15
100
AcDbLine
 10
1328.926274727
 20
925.7984210659
 30
0.0
 11
1328.0961347621
 21
925.6520320583
 31
0.0
  0
LINE
  5
332
330
1F
100
AcDbEntity
  8
0
  6
Continuous
 62
     7
370
    15
100
AcDbLine
 10
1323.4157955151
 20
920.9716965366
 30
0.0
 11
1323.2694214087
 21
920.1415528465
 31
0.0
  0
LINE
  5
333
330
1F
100
AcDbEntity
  8
0
  6
Continuous
 62
     7
370
    15
100
AcDbLine
 10
1329.8101594549
 20
924.9145288874
 30
0.0
 11
1328.9800194901
 21
924.7681547809
 31
0.0
  0
LINE
  5
334
330
1F
100
AcDbEntity
  8
0
  6
Continuous
 62
     7
370
    15
100
AcDbLine
 10
1324.2996802431
 20
920.0878192592
 30
0.0
 11
1324.1533024114
 21
919.2576755691
 31
0.0
  0
LINE
  5
335
330
1F
100
AcDbEntity
  8
0
  6
Continuous
 62
     7
370
    15
100
AcDbLine
 10
1323.2694214087
 20
920.1415528465
 30
0.0
 11
1323.4695402783
 21
919.9414451528
 31
0.0
  0
LINE
  5
336
330
1F
100
AcDbEntity
  8
0
  6
Continuous
 62
     7
370
    15
100
AcDbLine
 10
1329.1263973218
 20
925.5982984711
 30
0.0
 11
1328.926274727
 21
925.7984210659
 31
0.0
  0
LINE
  5
337
330
1F
100
AcDbEntity
  8
0
  6
Continuous
 62
     7
370
    15
100
AcDbLine
 10
1322.5856592756
 20
920.8253224302
 30
0.0
 11
1323.4157955151
 21
920.9716965366
 31
0.0
  0
LINE
  5
338
330
1F
100
AcDbEntity
  8
0
  6
Continuous
 62
     7
370
    15
100
AcDbLine
 10
1328.0961347621
 20
925.6520320583
 30
0.0
 11
1328.2425125938
 21
926.4821757484
 31
0.0
  0
LINE
  5
339
330
1F
100
AcDbEntity
  8
0
  6
Continuous
 62
     7
370
    15
100
AcDbLine
 10
1328.042389999
 20
926.6822983433
 30
0.0
 11
1327.2122537595
 21
926.5359242369
 31
0.0
  0
LINE
  5
33A
330
1F
100
AcDbEntity
  8
0
  6
Continuous
 62
     7
370
    15
100
AcDbLine
 10
1322.5319145125
 20
921.8555887152
 30
0.0
 11
1322.3855366808
 21
921.025445025
 31
0.0
  0
LINE
  5
33B
330
1F
100
AcDbEntity
  8
0
  6
Continuous
 62
     7
370
    15
100
AcDbLine
 10
1279.1428241756
 20
735.8552238826
 30
0.0
 11
1289.1428248834
 21
735.8552238826
 31
0.0
  0
LINE
  5
33C
330
1F
100
AcDbEntity
  8
0
  6
Continuous
 62
     7
370
    15
100
AcDbLine
 10
1139.6428217989
 20
885.3552241732
 30
0.0
 11
1139.6428217989
 21
875.3552188087
 31
0.0
  0
LINE
  5
33D
330
1F
100
AcDbEntity
  8
0
  6
Continuous
 62
     7
370
    15
100
AcDbLine
 10
1296.2616255384
 20
887.855221789
 30
0.0
 11
1293.9522249502
 21
883.8552285839
 31
0.0
  0
LINE
  5
33E
330
1F
100
AcDbEntity
  8
0
  6
Continuous
 62
     7
370
    15
100
AcDbLine
 10
1293.9522249502
 20
891.8552298952
 30
0.0
 11
1296.2616255384
 21
887.855221789
 31
0.0
  0
LINE
  5
33F
330
1F
100
AcDbEntity
  8
0
  6
Continuous
 62
     7
370
    15
100
AcDbLine
 10
1287.024022254
 20
887.855221789
 30
0.0
 11
1289.3334237736
 21
891.8552298952
 31
0.0
  0
CIRCLE
  5
340
330
1F
100
AcDbEntity
  8
0
  6
Continuous
 62
     7
370
    15
100
AcDbCircle
 10
1291.6428241556
 20
887.8552236963
 30
0.0
 40
7.000000000000114
  0
LINE
  5
341
330
1F
100
AcDbEntity
  8
0
  6
Continuous
 62
     7
370
    15
100
AcDbLine
 10
1293.9522249502
 20
891.8552298952
 30
0.0
 11
1289.3334237736
 21
891.8552298952
 31
0.0
  0
LINE
  5
342
330
1F
100
AcDbEntity
  8
0
  6
Continuous
 62
     7
370
    15
100
AcDbLine
 10
1287.024022254
 20
887.855221789
 30
0.0
 11
1289.3334237736
 21
883.8552285839
 31
0.0
  0
LINE
  5
343
330
1F
100
AcDbEntity
  8
0
  6
Continuous
 62
     7
370
    15
100
AcDbLine
 10
1289.3334237736
 20
883.8552285839
 30
0.0
 11
1293.9522249502
 21
883.8552285839
 31
0.0
  0
CIRCLE
  5
344
330
1F
100
AcDbEntity
  8
0
  6
Continuous
 62
     7
370
    15
100
AcDbCircle
 10
1291.6428241556
 20
887.8552236963
 30
0.0
 40
8.000000000000114
  0
ARC
  5
345
330
1F
100
AcDbEntity
  8
0
  6
Continuous
 62
     7
370
    15
100
AcDbCircle
 10
1291.6428241556
 20
887.8552236963
 30
0.0
 40
3.999999999999991
100
AcDbArc
 50
330.0
 51
30.0
  0
ARC
  5
346
330
1F
100
AcDbEntity
  8
0
  6
Continuous
 62
     7
370
    15
100
AcDbCircle
 10
1291.6428241556
 20
887.8552236963
 30
0.0
 40
4.000000000000188
100
AcDbArc
 50
150.0
 51
210.0
  0
ARC
  5
347
330
1F
100
AcDbEntity
  8
0
  6
Continuous
 62
     7
370
    15
100
AcDbCircle
 10
1291.6428241556
 20
887.8552236963
 30
0.0
 40
4.000000000000114
100
AcDbArc
 50
30.0
 51
90.0
  0
ARC
  5
348
330
1F
100
AcDbEntity
  8
0
  6
Continuous
 62
     7
370
    15
100
AcDbCircle
 10
1291.6428241556
 20
887.8552236963
 30
0.0
 40
4.000000000000188
100
AcDbArc
 50
90.0
 51
150.0
  0
ARC
  5
349
330
1F
100
AcDbEntity
  8
0
  6
Continuous
 62
     7
370
    15
100
AcDbCircle
 10
1291.6428241556
 20
887.8552236963
 30
0.0
 40
3.999999999999886
100
AcDbArc
 50
270.0
 51
330.0
  0
ARC
  5
34A
330
1F
100
AcDbEntity
  8
0
  6
Continuous
 62
     7
370
    15
100
AcDbCircle
 10
1291.6428241556
 20
887.8552236963
 30
0.0
 40
4.000000000000075
100
AcDbArc
 50
210.0
 51
270.0
  0
CIRCLE
  5
34B
330
1F
100
AcDbEntity
  8
0
  6
Continuous
 62
     7
370
    15
100
AcDbCircle
 10
1291.6428241556
 20
887.8552236963
 30
0.0
 40
2.5
  0
LWPOLYLINE
  5
34C
330
1F
100
AcDbEntity
  8
0
  6
Continuous
 62
     7
370
    15
100
AcDbPolyline
 90
        7
 70
   128
 43
0.0
 10
1327.5237327319
 20
921.5440948416
 10
1328.1830346089
 20
922.2033967186
 10
1328.7889232737
 20
922.8092928339
 10
1329.2923143011
 20
923.3126838613
 10
1329.6524269384
 20
923.6728002239
 10
1329.8400847119
 20
923.8604505468
 10
1329.863904218
 20
923.8842775036
  0
LWPOLYLINE
  5
34D
330
1F
100
AcDbEntity
  8
0
  6
Continuous
 62
     7
370
    15
100
AcDbPolyline
 90
        7
 70
   128
 43
0.0
 10
1325.1835649711
 20
919.2039270807
 10
1325.2073844772
 20
919.2277540375
 10
1325.3950385254
 20
919.4154043604
 10
1325.7551511627
 20
919.7755207229
 10
1326.2585421902
 20
920.2789117504
 10
1326.8644308549
 20
920.8847929645
 10
1327.5237327319
 20
921.5440948416
  0
LWPOLYLINE
  5
34E
330
1F
100
AcDbEntity
  8
0
  6
Continuous
 62
     7
370
    15
100
AcDbPolyline
 90
        7
 70
   128
 43
0.0
 10
1326.9817327958
 20
922.0861096788
 10
1327.7137821418
 20
922.8181590248
 10
1328.3959461254
 20
923.5003192831
 10
1328.9817293983
 20
924.0860988308
 10
1329.4312192005
 20
924.5355923582
 10
1329.7137824696
 20
924.8181481768
 10
1329.8101594549
 20
924.9145288874
  0
LWPOLYLINE
  5
34F
330
1F
100
AcDbEntity
  8
0
  6
Continuous
 62
     7
370
    15
100
AcDbPolyline
 90
        7
 70
   128
 43
0.0
 10
1324.1533024114
 20
919.2576755691
 10
1324.2496793967
 20
919.3540562797
 10
1324.5322426659
 20
919.6366120983
 10
1324.981732468
 20
920.0861056257
 10
1325.5675194662
 20
920.6718851734
 10
1326.2496797245
 20
921.3540603329
 10
1326.9817327958
 20
922.0861096788
  0
LWPOLYLINE
  5
350
330
1F
100
AcDbEntity
  8
0
  6
Continuous
 62
     7
370
    15
100
AcDbPolyline
 90
        7
 70
   128
 43
0.0
 10
1327.1818516653
 20
921.885987084
 10
1327.9139010113
 20
922.61803643
 10
1328.5960649949
 20
923.3001966883
 10
1329.1818519932
 20
923.8859762359
 10
1329.6313417953
 20
924.3354697634
 10
1329.9139013391
 20
924.6180404831
 10
1330.0102783245
 20
924.7144062925
  0
LWPOLYLINE
  5
351
330
1F
100
AcDbEntity
  8
0
  6
Continuous
 62
     7
370
    15
100
AcDbPolyline
 90
        7
 70
   128
 43
0.0
 10
1324.3534250062
 20
919.0575529743
 10
1324.4498019915
 20
919.1539336849
 10
1324.7323615354
 20
919.4364895035
 10
1325.1818513375
 20
919.8859830309
 10
1325.7676383358
 20
920.4717625786
 10
1326.4498023194
 20
921.153937738
 10
1327.1818516653
 20
921.885987084
  0
LWPOLYLINE
  5
352
330
1F
100
AcDbEntity
  8
0
  6
Continuous
 62
     7
370
    15
100
AcDbPolyline
 90
        7
 70
   128
 43
0.0
 10
1326.639848004
 20
922.4279870201
 10
1327.2991536063
 20
923.0872888971
 10
1327.905042271
 20
923.6931701113
 10
1328.4084332984
 20
924.1965611387
 10
1328.7685422104
 20
924.5566775013
 10
1328.9561999839
 20
924.7443427254
 10
1328.9800194901
 20
924.7681547809
  0
LWPOLYLINE
  5
353
330
1F
100
AcDbEntity
  8
0
  6
Continuous
 62
     7
370
    15
100
AcDbPolyline
 90
        7
 70
   128
 43
0.0
 10
1324.2996802431
 20
920.0878192592
 10
1324.3234997493
 20
920.1116313148
 10
1324.5111575228
 20
920.2992965389
 10
1324.8712664348
 20
920.6593980003
 10
1325.3746574622
 20
921.1627890278
 10
1325.9805461269
 20
921.7686851431
 10
1326.639848004
 20
922.4279870201
  0
LWPOLYLINE
  5
354
330
1F
100
AcDbEntity
  8
0
  6
Continuous
 62
     7
370
    15
100
AcDbPolyline
 90
        7
 70
   128
 43
0.0
 10
1326.2979669374
 20
922.7698643614
 10
1327.0300200087
 20
923.5019137073
 10
1327.7121802669
 20
924.1840739656
 10
1328.2979672652
 20
924.7698684145
 10
1328.7474570673
 20
925.2193619419
 10
1329.0300203365
 20
925.5019177605
 10
1329.1263973218
 20
925.5982984711
  0
LWPOLYLINE
  5
355
330
1F
100
AcDbEntity
  8
0
  6
Continuous
 62
     7
370
    15
100
AcDbPolyline
 90
        7
 70
   128
 43
0.0
 10
1323.4695402783
 20
919.9414451528
 10
1323.5659172636
 20
920.0378109623
 10
1323.8484768074
 20
920.320381682
 10
1324.2979666096
 20
920.7698603083
 10
1324.8837536078
 20
921.3556547571
 10
1325.5659175914
 20
922.0378150154
 10
1326.2979669374
 20
922.7698643614
  0
LWPOLYLINE
  5
356
330
1F
100
AcDbEntity
  8
0
  6
Continuous
 62
     7
370
    15
100
AcDbPolyline
 90
        7
 70
   128
 43
0.0
 10
1324.8720822733
 20
924.195756476
 10
1325.5313841504
 20
924.855058353
 10
1326.1372728151
 20
925.4609395672
 10
1326.6406638425
 20
925.9643305946
 10
1327.0007764798
 20
926.3244469572
 10
1327.1884342533
 20
926.5120972801
 10
1327.2122537595
 20
926.5359242369
  0
LWPOLYLINE
  5
357
330
1F
100
AcDbEntity
  8
0
  6
Continuous
 62
     7
370
    15
100
AcDbPolyline
 90
        7
 70
   128
 43
0.0
 10
1322.5319145125
 20
921.8555887152
 10
1322.5557340187
 20
921.8794007707
 10
1322.7433880669
 20
922.0670659948
 10
1323.1035007041
 20
922.4271674562
 10
1323.6068917316
 20
922.9305584837
 10
1324.2127803963
 20
923.536454599
 10
1324.8720822733
 20
924.195756476
  0
LWPOLYLINE
  5
358
330
1F
100
AcDbEntity
  8
0
  6
Continuous
 62
     7
370
    15
100
AcDbPolyline
 90
        7
 70
   128
 43
0.0
 10
1325.2139633399
 20
923.8538642336
 10
1325.9460164112
 20
924.5859284807
 10
1326.6281766694
 20
925.268088739
 10
1327.2139636677
 20
925.8538682867
 10
1327.6634534698
 20
926.3033618141
 10
1327.946016739
 20
926.5859176327
 10
1328.042389999
 20
926.6822983433
  0
LWPOLYLINE
  5
359
330
1F
100
AcDbEntity
  8
0
  6
Continuous
 62
     7
370
    15
100
AcDbPolyline
 90
        7
 70
   128
 43
0.0
 10
1322.3855366808
 20
921.025445025
 10
1322.4819136661
 20
921.1218257357
 10
1322.7644732099
 20
921.4043815542
 10
1323.2139630121
 20
921.8538750816
 10
1323.7997500103
 20
922.4396546293
 10
1324.4819139939
 20
923.1218148876
 10
1325.2139633399
 20
923.8538642336
  0
LWPOLYLINE
  5
35A
330
1F
100
AcDbEntity
  8
0
  6
Continuous
 62
     7
370
    15
100
AcDbPolyline
 90
        7
 70
   128
 43
0.0
 10
1325.4140859347
 20
923.6537565399
 10
1326.1461352807
 20
924.3858058859
 10
1326.8282992643
 20
925.0679661442
 10
1327.4140862626
 20
925.6537456919
 10
1327.8635760647
 20
926.1032392193
 10
1328.1461356085
 20
926.3857950378
 10
1328.2425125938
 20
926.4821757484
  0
LWPOLYLINE
  5
35B
330
1F
100
AcDbEntity
  8
0
  6
Continuous
 62
     7
370
    15
100
AcDbPolyline
 90
        7
 70
   128
 43
0.0
 10
1322.5856592756
 20
920.8253224302
 10
1322.6820325356
 20
920.9217031408
 10
1322.9645958048
 20
921.2042589594
 10
1323.4140856069
 20
921.6537524868
 10
1323.9998726052
 20
922.2395320345
 10
1324.6820328635
 20
922.9216922928
 10
1325.4140859347
 20
923.6537565399
  0
LWPOLYLINE
  5
35C
330
1F
100
AcDbEntity
  8
0
  6
Continuous
 62
     7
370
    15
100
AcDbPolyline
 90
        7
 70
   128
 43
0.0
 10
1326.0978480678
 20
922.9699869562
 10
1326.8298974138
 20
923.7020363022
 10
1327.5120613974
 20
924.3841965605
 10
1328.0978483957
 20
924.9699910093
 10
1328.5473381978
 20
925.4194845367
 10
1328.8298977416
 20
925.7020403553
 10
1328.926274727
 20
925.7984210659
  0
LWPOLYLINE
  5
35D
330
1F
100
AcDbEntity
  8
0
  6
Continuous
 62
     7
370
    15
100
AcDbPolyline
 90
        7
 70
   128
 43
0.0
 10
1323.2694214087
 20
920.1415528465
 10
1323.3657983941
 20
920.2379335571
 10
1323.6483579379
 20
920.5205042768
 10
1324.09784774
 20
920.9699829031
 10
1324.6836347383
 20
921.5557773519
 10
1325.3657987219
 20
922.2379376102
 10
1326.0978480678
 20
922.9699869562
  0
LWPOLYLINE
  5
35E
330
1F
100
AcDbEntity
  8
0
  6
Continuous
 62
     7
370
    15
100
AcDbPolyline
 90
        7
 70
   128
 43
0.0
 10
1325.7559670013
 20
923.3118642975
 10
1326.4152688783
 20
923.9711661745
 10
1327.021157543
 20
924.5770622898
 10
1327.5245485705
 20
925.0804533172
 10
1327.8846612078
 20
925.4405547787
 10
1328.072315256
 20
925.6282200027
 10
1328.0961347621
 20
925.6520320583
  0
LWPOLYLINE
  5
35F
330
1F
100
AcDbEntity
  8
0
  6
Continuous
 62
     7
370
    15
100
AcDbPolyline
 90
        7
 70
   128
 43
0.0
 10
1323.4157955151
 20
920.9716965366
 10
1323.4396150213
 20
920.9955234934
 10
1323.6272727948
 20
921.1831738163
 10
1323.9873854321
 20
921.5432901789
 10
1324.4907764595
 20
922.0466812063
 10
1325.0966651243
 20
922.6525624204
 10
1325.7559670013
 20
923.3118642975
  0
LINE
  5
360
330
1F
100
AcDbEntity
  8
0
  6
Continuous
 62
     7
370
    15
100
AcDbLine
 10
1280.6078383577
 20
893.7271137644
 30
0.0
 11
1281.7266203341
 21
909.8216046501
 31
0.0
  0
ARC
  5
361
330
1F
100
AcDbEntity
  8
0
  6
Continuous
 62
     7
370
    15
100
AcDbCircle
 10
1291.7025466658
 20
909.1281496421
 30
0.0
 40
10.00000000000016
100
AcDbArc
 50
135.0
 51
176.0235771256
  0
LINE
  5
362
330
1F
100
AcDbEntity
  8
0
  6
Continuous
 62
     7
370
    15
100
AcDbLine
 10
1297.1181424212
 20
928.6858786751
 30
0.0
 11
1311.6138299805
 21
914.1901929785
 31
0.0
  0
ARC
  5
363
330
1F
100
AcDbEntity
  8
0
  6
Continuous
 62
     7
370
    15
100
AcDbCircle
 10
1316.2100247711
 20
918.7863853425
 30
0.0
 40
6.500000000000213
100
AcDbArc
 50
225.0
 51
315.0
  0
LINE
  5
364
330
1F
100
AcDbEntity
  8
0
  6
Continuous
 62
     7
370
    15
100
AcDbLine
 10
1299.3808837485
 20
930.9486200024
 30
0.0
 11
1327.6651559275
 21
959.2328865934
 31
0.0
  0
ARC
  5
365
330
1F
100
AcDbEntity
  8
0
  6
Continuous
 62
     7
370
    15
100
AcDbCircle
 10
1345.342824156
 20
941.5552236967
 30
0.0
 40
21.20000000000005
100
AcDbArc
 50
230.413312274
 51
218.2276636992
  0
LINE
  5
366
330
1F
100
AcDbEntity
  8
0
  6
Continuous
 62
     7
370
    15
100
AcDbLine
 10
1320.8062184852
 20
914.1901929785
 30
0.0
 11
1331.8332305056
 21
925.2172012735
 31
0.0
  0
ARC
  5
367
330
1F
100
AcDbEntity
  8
0
  6
Continuous
 62
     7
370
    15
100
AcDbCircle
 10
1345.342824156
 20
941.5552236967
 30
0.0
 40
24.99999999999996
100
AcDbArc
 50
315.0
 51
135.0
  0
LINE
  5
368
330
1F
100
AcDbEntity
  8
0
  6
Continuous
 62
     7
370
    15
100
AcDbLine
 10
1328.6889886361
 20
928.436924975
 30
0.0
 11
1316.7049979669
 21
916.4529343057
 31
0.0
  0
ARC
  5
369
330
1F
100
AcDbEntity
  8
0
  6
Continuous
 62
     7
370
    15
100
AcDbCircle
 10
1315.2907859555
 20
917.867146527
 30
0.0
 40
2.000000000000177
100
AcDbArc
 50
225.0
 51
315.0
  0
LINE
  5
36A
330
1F
100
AcDbEntity
  8
0
  6
Continuous
 62
     7
370
    15
100
AcDbLine
 10
1313.8765713077
 20
916.4529343057
 30
0.0
 11
1299.3808837485
 21
930.9486200024
 31
0.0
  0
LINE
  5
36B
330
1F
100
AcDbEntity
  8
0
  6
Continuous
 62
     7
370
    15
100
AcDbLine
 10
1363.0204966169
 20
923.8775570799
 30
0.0
 11
1319.9868185323
 21
880.8438827206
 31
0.0
  0
LINE
  5
36C
330
1F
100
AcDbEntity
  8
0
  6
Continuous
 62
     7
370
    15
100
AcDbLine
 10
1313.6092109483
 20
877.9390205551
 30
0.0
 11
1297.514712612
 21
876.8202413727
 31
0.0
  0
LINE
  5
36D
330
1F
100
AcDbEntity
  8
0
  6
Continuous
 62
     7
370
    15
100
AcDbLine
 10
1284.6314787742
 20
916.1992122341
 30
0.0
 11
1297.1181424212
 21
928.6858786751
 31
0.0
  0
ARC
  5
36E
330
1F
100
AcDbEntity
  8
0
  6
Continuous
 62
     7
370
    15
100
AcDbCircle
 10
1312.9157501014
 20
887.9149462066
 30
0.0
 40
10.00000000000016
100
AcDbArc
 50
273.9764228744
 51
315.0
  0
LINE
  5
36F
330
1F
100
AcDbEntity
  8
0
  6
Continuous
 62
     7
370
    15
100
AcDbLine
 10
1289.1428248834
 20
810.8552222062
 30
0.0
 11
1279.1428241756
 21
810.8552222062
 31
0.0
  0
CIRCLE
  5
370
330
1F
100
AcDbEntity
  8
0
  6
Continuous
 62
     7
370
    15
100
AcDbCircle
 10
1291.6428241556
 20
887.8552236963
 30
0.0
 40
8.5
  0
LINE
  5
371
330
1F
100
AcDbEntity
  8
0
  6
Continuous
 62
     7
370
    15
100
AcDbLine
 10
1291.6428243619
 20
875.3552188087
 30
0.0
 11
1289.1428248834
 21
875.3552188087
 31
0.0
  0
LINE
  5
372
330
1F
100
AcDbEntity
  8
0
  6
Continuous
 62
     7
370
    15
100
AcDbLine
 10
1279.1428241756
 20
887.855221789
 30
0.0
 11
1279.1428241756
 21
810.8552222062
 31
0.0
  0
LINE
  5
373
330
1F
100
AcDbEntity
  8
0
  6
Continuous
 62
     7
370
    15
100
AcDbLine
 10
1289.1428248834
 20
875.3552188087
 30
0.0
 11
1289.1428248834
 21
810.8552222062
 31
0.0
  0
ARC
  5
374
330
1F
100
AcDbEntity
  8
0
  6
Continuous
 62
     7
370
    15
100
AcDbCircle
 10
1291.6428241556
 20
887.8552236963
 30
0.0
 40
12.5
100
AcDbArc
 50
270.0
 51
180.0
  0
LINE
  5
375
330
1F
100
AcDbEntity
  8
0
  6
Continuous
 62
     7
370
    15
100
AcDbLine
 10
1279.1428241756
 20
735.8552238826
 30
0.0
 11
1279.1428241756
 21
810.8552222062
 31
0.0
  0
LINE
  5
376
330
1F
100
AcDbEntity
  8
0
  6
Continuous
 62
     7
370
    15
100
AcDbLine
 10
1289.1428248834
 20
810.8552222062
 30
0.0
 11
1289.1428248834
 21
735.8552238826
 31
0.0
  0
LINE
  5
377
330
1F
100
AcDbEntity
  8
0
  6
Continuous
 62
     7
370
    15
100
AcDbLine
 10
1139.6428217989
 20
885.3552241732
 30
0.0
 11
1214.6428247791
 21
885.3552241732
 31
0.0
  0
LINE
  5
378
330
1F
100
AcDbEntity
  8
0
  6
Continuous
 62
     7
370
    15
100
AcDbLine
 10
1214.6428247791
 20
885.3552241732
 30
0.0
 11
1214.6428247791
 21
875.3552188087
 31
0.0
  0
LINE
  5
379
330
1F
100
AcDbEntity
  8
0
  6
Continuous
 62
     7
370
    15
100
AcDbLine
 10
1214.6428247791
 20
875.3552188087
 30
0.0
 11
1139.6428217989
 21
875.3552188087
 31
0.0
  0
LINE
  5
37A
330
1F
100
AcDbEntity
  8
0
  6
Continuous
 62
     7
370
    15
100
AcDbLine
 10
1279.1428241756
 20
885.3552241732
 30
0.0
 11
1279.1428241756
 21
875.3552188087
 31
0.0
  0
LINE
  5
37B
330
1F
100
AcDbEntity
  8
0
  6
Continuous
 62
     7
370
    15
100
AcDbLine
 10
1214.6428247791
 20
875.3552188087
 30
0.0
 11
1279.1428241756
 21
875.3552188087
 31
0.0
  0
LINE
  5
37C
330
1F
100
AcDbEntity
  8
0
  6
Continuous
 62
     7
370
    15
100
AcDbLine
 10
1214.6428247791
 20
885.3552241732
 30
0.0
 11
1279.1428241756
 21
885.3552241732
 31
0.0
  0
LINE
  5
37D
330
1F
100
AcDbEntity
  8
0
  6
Continuous
 62
     7
370
    15
100
AcDbLine
 10
1291.8312732992
 20
593.8319840617
 30
0.0
 11
1291.6848973301
 21
594.6621277518
 31
0.0
  0
LINE
  5
37E
330
1F
100
AcDbEntity
  8
0
  6
Continuous
 62
     7
370
    15
100
AcDbLine
 10
1287.0045571518
 20
599.3424632735
 30
0.0
 11
1286.1744190497
 21
599.4888373799
 31
0.0
  0
LINE
  5
37F
330
1F
100
AcDbEntity
  8
0
  6
Continuous
 62
     7
370
    15
100
AcDbLine
 10
1291.631152567
 20
593.631876368
 30
0.0
 11
1291.8312732992
 21
593.8319840617
 31
0.0
  0
LINE
  5
380
330
1F
100
AcDbEntity
  8
0
  6
Continuous
 62
     7
370
    15
100
AcDbLine
 10
1286.1744190497
 20
599.4888373799
 30
0.0
 11
1285.9742983175
 21
599.2887296862
 31
0.0
  0
LINE
  5
381
330
1F
100
AcDbEntity
  8
0
  6
Continuous
 62
     7
370
    15
100
AcDbLine
 10
1286.868321423
 20
600.1151033825
 30
0.0
 11
1287.0045571518
 21
599.3424632735
 31
0.0
  0
LINE
  5
382
330
1F
100
AcDbEntity
  8
0
  6
Continuous
 62
     7
370
    15
100
AcDbLine
 10
1291.6848973301
 20
594.6621277518
 30
0.0
 11
1292.4575290573
 21
594.525886435
 31
0.0
  0
LINE
  5
383
330
1F
100
AcDbEntity
  8
0
  6
Continuous
 62
     7
370
    15
100
AcDbLine
 10
1290.9473895026
 20
592.9481067843
 30
0.0
 11
1290.8010135335
 21
593.7782504744
 31
0.0
  0
LINE
  5
384
330
1F
100
AcDbEntity
  8
0
  6
Continuous
 62
     7
370
    15
100
AcDbLine
 10
1286.1206742865
 20
598.4585859961
 30
0.0
 11
1285.2905343217
 21
598.6049601025
 31
0.0
  0
LINE
  5
385
330
1F
100
AcDbEntity
  8
0
  6
Continuous
 62
     7
370
    15
100
AcDbLine
 10
1285.9742983175
 20
599.2887296862
 30
0.0
 11
1286.1206742865
 21
598.4585859961
 31
0.0
  0
LINE
  5
386
330
1F
100
AcDbEntity
  8
0
  6
Continuous
 62
     7
370
    15
100
AcDbLine
 10
1290.8010135335
 20
593.7782504744
 30
0.0
 11
1291.631152567
 21
593.631876368
 31
0.0
  0
LINE
  5
387
330
1F
100
AcDbEntity
  8
0
  6
Continuous
 62
     7
370
    15
100
AcDbLine
 10
1289.1240703804
 20
591.4953925795
 30
0.0
 11
1289.0332468716
 21
592.0104810185
 31
0.0
  0
LINE
  5
388
330
1F
100
AcDbEntity
  8
0
  6
Continuous
 62
     7
370
    15
100
AcDbLine
 10
1284.3529066933
 20
596.6908165402
 30
0.0
 11
1283.8378182543
 21
596.7816391177
 31
0.0
  0
LINE
  5
389
330
1F
100
AcDbEntity
  8
0
  6
Continuous
 62
     7
370
    15
100
AcDbLine
 10
1290.0635057059
 20
592.0642295069
 30
0.0
 11
1289.9171297369
 21
592.8943582959
 31
0.0
  0
LINE
  5
38A
330
1F
100
AcDbEntity
  8
0
  6
Continuous
 62
     7
370
    15
100
AcDbLine
 10
1285.2367895586
 20
597.5746938176
 30
0.0
 11
1284.4066514564
 21
597.7210828251
 31
0.0
  0
LINE
  5
38B
330
1F
100
AcDbEntity
  8
0
  6
Continuous
 62
     7
370
    15
100
AcDbLine
 10
1290.7472687704
 20
592.7479841895
 30
0.0
 11
1290.9473895026
 21
592.9481067843
 31
0.0
  0
LINE
  5
38C
330
1F
100
AcDbEntity
  8
0
  6
Continuous
 62
     7
370
    15
100
AcDbLine
 10
1285.2905343217
 20
598.6049601025
 30
0.0
 11
1285.0904135895
 21
598.4048375077
 31
0.0
  0
LINE
  5
38D
330
1F
100
AcDbEntity
  8
0
  6
Continuous
 62
     7
370
    15
100
AcDbLine
 10
1284.2065307242
 20
597.5209602303
 30
0.0
 11
1284.3529066933
 21
596.6908165402
 31
0.0
  0
LINE
  5
38E
330
1F
100
AcDbEntity
  8
0
  6
Continuous
 62
     7
370
    15
100
AcDbLine
 10
1289.0332468716
 20
592.0104810185
 30
0.0
 11
1289.8633849737
 21
591.8641069121
 31
0.0
  0
LINE
  5
38F
330
1F
100
AcDbEntity
  8
0
  6
Continuous
 62
     7
370
    15
100
AcDbLine
 10
1289.8633849737
 20
591.8641069121
 30
0.0
 11
1290.0635057059
 21
592.0642295069
 31
0.0
  0
LINE
  5
390
330
1F
100
AcDbEntity
  8
0
  6
Continuous
 62
     7
370
    15
100
AcDbLine
 10
1284.4066514564
 20
597.7210828251
 30
0.0
 11
1284.2065307242
 21
597.5209602303
 31
0.0
  0
LINE
  5
391
330
1F
100
AcDbEntity
  8
0
  6
Continuous
 62
     7
370
    15
100
AcDbLine
 10
1285.0904135895
 20
598.4048375077
 30
0.0
 11
1285.2367895586
 21
597.5746938176
 31
0.0
  0
LINE
  5
392
330
1F
100
AcDbEntity
  8
0
  6
Continuous
 62
     7
370
    15
100
AcDbLine
 10
1289.9171297369
 20
592.8943582959
 30
0.0
 11
1290.7472687704
 21
592.7479841895
 31
0.0
  0
LINE
  5
393
330
1F
100
AcDbEntity
  8
0
  6
Continuous
 62
     7
370
    15
100
AcDbLine
 10
1171.0336028529
 20
558.6213895268
 30
0.0
 11
1171.0336028529
 21
548.6213841624
 31
0.0
  0
LINE
  5
394
330
1F
100
AcDbEntity
  8
0
  6
Continuous
 62
     7
370
    15
100
AcDbLine
 10
1335.5336046708
 20
713.1213971562
 30
0.0
 11
1325.5336048943
 21
713.1213971562
 31
0.0
  0
LINE
  5
395
330
1F
100
AcDbEntity
  8
0
  6
Continuous
 62
     7
370
    15
100
AcDbLine
 10
1320.7242048276
 20
557.1213939375
 30
0.0
 11
1325.3430060041
 21
557.1213939375
 31
0.0
  0
LINE
  5
396
330
1F
100
AcDbEntity
  8
0
  6
Continuous
 62
     7
370
    15
100
AcDbLine
 10
1327.6524065924
 20
561.1213871426
 30
0.0
 11
1325.3430060041
 21
557.1213939375
 31
0.0
  0
LINE
  5
397
330
1F
100
AcDbEntity
  8
0
  6
Continuous
 62
     7
370
    15
100
AcDbLine
 10
1325.3430060041
 20
565.1213952488
 30
0.0
 11
1327.6524065924
 21
561.1213871426
 31
0.0
  0
LINE
  5
398
330
1F
100
AcDbEntity
  8
0
  6
Continuous
 62
     7
370
    15
100
AcDbLine
 10
1325.3430060041
 20
565.1213952488
 30
0.0
 11
1320.7242048276
 21
565.1213952488
 31
0.0
  0
LINE
  5
399
330
1F
100
AcDbEntity
  8
0
  6
Continuous
 62
     7
370
    15
100
AcDbLine
 10
1318.414803308
 20
561.1213871426
 30
0.0
 11
1320.7242048276
 21
557.1213939375
 31
0.0
  0
CIRCLE
  5
39A
330
1F
100
AcDbEntity
  8
0
  6
Continuous
 62
     7
370
    15
100
AcDbCircle
 10
1323.0336052095
 20
561.12138905
 30
0.0
 40
7.0
  0
LINE
  5
39B
330
1F
100
AcDbEntity
  8
0
  6
Continuous
 62
     7
370
    15
100
AcDbLine
 10
1318.414803308
 20
561.1213871426
 30
0.0
 11
1320.7242048276
 21
565.1213952488
 31
0.0
  0
CIRCLE
  5
39C
330
1F
100
AcDbEntity
  8
0
  6
Continuous
 62
     7
370
    15
100
AcDbCircle
 10
1323.0336052095
 20
561.12138905
 30
0.0
 40
8.000000000000114
  0
ARC
  5
39D
330
1F
100
AcDbEntity
  8
0
  6
Continuous
 62
     7
370
    15
100
AcDbCircle
 10
1323.0336052095
 20
561.12138905
 30
0.0
 40
4.000000000000328
100
AcDbArc
 50
90.0
 51
150.0
  0
ARC
  5
39E
330
1F
100
AcDbEntity
  8
0
  6
Continuous
 62
     7
370
    15
100
AcDbCircle
 10
1323.0336052095
 20
561.12138905
 30
0.0
 40
4.000000000000114
100
AcDbArc
 50
30.0
 51
90.0
  0
ARC
  5
39F
330
1F
100
AcDbEntity
  8
0
  6
Continuous
 62
     7
370
    15
100
AcDbCircle
 10
1323.0336052095
 20
561.12138905
 30
0.0
 40
4.000000000000328
100
AcDbArc
 50
150.0
 51
210.0
  0
ARC
  5
3A0
330
1F
100
AcDbEntity
  8
0
  6
Continuous
 62
     7
370
    15
100
AcDbCircle
 10
1323.0336052095
 20
561.12138905
 30
0.0
 40
4.000000000000328
100
AcDbArc
 50
210.0
 51
270.0
  0
ARC
  5
3A1
330
1F
100
AcDbEntity
  8
0
  6
Continuous
 62
     7
370
    15
100
AcDbCircle
 10
1323.0336052095
 20
561.12138905
 30
0.0
 40
3.999999999999886
100
AcDbArc
 50
270.0
 51
330.0
  0
ARC
  5
3A2
330
1F
100
AcDbEntity
  8
0
  6
Continuous
 62
     7
370
    15
100
AcDbCircle
 10
1323.0336052095
 20
561.12138905
 30
0.0
 40
3.999999999999738
100
AcDbArc
 50
330.0
 51
30.0
  0
CIRCLE
  5
3A3
330
1F
100
AcDbEntity
  8
0
  6
Continuous
 62
     7
370
    15
100
AcDbCircle
 10
1323.0336052095
 20
561.12138905
 30
0.0
 40
2.5
  0
LWPOLYLINE
  5
3A4
330
1F
100
AcDbEntity
  8
0
  6
Continuous
 62
     7
370
    15
100
AcDbPolyline
 90
        8
 70
   128
 43
0.0
 10
1289.3447267753
 20
597.0022955126
 10
1288.762750749
 20
597.5842752642
 10
1288.2173421723
 20
598.1296875662
 10
1287.7427699906
 20
598.6042597479
 10
1287.3688570154
 20
598.9781745858
 10
1287.1190930647
 20
599.2279329485
 10
1287.0091746491
 20
599.3378439135
 10
1287.0045571518
 20
599.3424632735
  0
LWPOLYLINE
  5
3A5
330
1F
100
AcDbEntity
  8
0
  6
Continuous
 62
     7
370
    15
100
AcDbPolyline
 90
        8
 70
   128
 43
0.0
 10
1291.6848973301
 20
594.6621277518
 10
1291.6802789015
 20
594.6667471117
 10
1291.5703604859
 20
594.7766580767
 10
1291.3205974666
 20
595.0264313406
 10
1290.94668356
 20
595.4003461785
 10
1290.4721123097
 20
595.8749183602
 10
1289.9267037329
 20
596.420315761
 10
1289.3447267753
 20
597.0022955126
  0
LWPOLYLINE
  5
3A6
330
1F
100
AcDbEntity
  8
0
  6
Continuous
 62
     7
370
    15
100
AcDbPolyline
 90
        8
 70
   128
 43
0.0
 10
1289.0028457088
 20
596.6604181714
 10
1288.3734616381
 20
597.2897985167
 10
1287.7756363643
 20
597.8876182026
 10
1287.2393510235
 20
598.423910994
 10
1286.7914928985
 20
598.8717653937
 10
1286.4545217645
 20
599.2087402529
 10
1286.2453336758
 20
599.4179227538
 10
1286.1744190497
 20
599.4888373799
  0
LWPOLYLINE
  5
3A7
330
1F
100
AcDbEntity
  8
0
  6
Continuous
 62
     7
370
    15
100
AcDbPolyline
 90
        8
 70
   128
 43
0.0
 10
1291.8312732992
 20
593.8319840617
 10
1291.7603586731
 20
593.9028986878
 10
1291.5511705843
 20
594.1120960898
 10
1291.2141994503
 20
594.4490560479
 10
1290.7663413254
 20
594.8969253487
 10
1290.2300541219
 20
595.4332032389
 10
1289.6322297794
 20
596.031037826
 10
1289.0028457088
 20
596.6604181714
  0
LWPOLYLINE
  5
3A8
330
1F
100
AcDbEntity
  8
0
  6
Continuous
 62
     7
370
    15
100
AcDbPolyline
 90
        8
 70
   128
 43
0.0
 10
1288.8027249766
 20
596.4602955765
 10
1288.1733409059
 20
597.0896759219
 10
1287.5755156321
 20
597.687510509
 10
1287.0392302913
 20
598.2237883992
 10
1286.5913721663
 20
598.6716427988
 10
1286.2544010324
 20
599.0086176581
 10
1286.0452129436
 20
599.2178150601
 10
1285.9742983175
 20
599.2887296862
  0
LWPOLYLINE
  5
3A9
330
1F
100
AcDbEntity
  8
0
  6
Continuous
 62
     7
370
    15
100
AcDbPolyline
 90
        8
 70
   128
 43
0.0
 10
1291.631152567
 20
593.631876368
 10
1291.5602379409
 20
593.702776093
 10
1291.3510498521
 20
593.911973495
 10
1291.0140787182
 20
594.2489483542
 10
1290.5662205932
 20
594.6968027539
 10
1290.0299333898
 20
595.2330806441
 10
1289.4321090472
 20
595.8309152312
 10
1288.8027249766
 20
596.4602955765
  0
LWPOLYLINE
  5
3AA
330
1F
100
AcDbEntity
  8
0
  6
Continuous
 62
     7
370
    15
100
AcDbPolyline
 90
        8
 70
   128
 43
0.0
 10
1288.46084391
 20
596.1184182352
 10
1287.8788678837
 20
596.7003979868
 10
1287.3334574443
 20
597.2457953877
 10
1286.8588871253
 20
597.7203675694
 10
1286.4849722874
 20
598.0942824072
 10
1286.2352101994
 20
598.3440556712
 10
1286.1252917838
 20
598.4539666361
 10
1286.1206742865
 20
598.4585859961
  0
LWPOLYLINE
  5
3AB
330
1F
100
AcDbEntity
  8
0
  6
Continuous
 62
     7
370
    15
100
AcDbPolyline
 90
        8
 70
   128
 43
0.0
 10
1290.8010135335
 20
593.7782504744
 10
1290.7963960362
 20
593.7828698344
 10
1290.6864776206
 20
593.8927807993
 10
1290.4367146012
 20
594.1425391621
 10
1290.0627997634
 20
594.5164539999
 10
1289.5882294444
 20
594.9910261816
 10
1289.0428199363
 20
595.5364384837
 10
1288.46084391
 20
596.1184182352
  0
LWPOLYLINE
  5
3AC
330
1F
100
AcDbEntity
  8
0
  6
Continuous
 62
     7
370
    15
100
AcDbPolyline
 90
        8
 70
   128
 43
0.0
 10
1288.1189628434
 20
595.7765259928
 10
1287.4895787728
 20
596.4059212393
 10
1286.8917534989
 20
597.0037409253
 10
1286.3554662955
 20
597.5400337166
 10
1285.9076081705
 20
597.9878881163
 10
1285.5706370366
 20
598.3248629755
 10
1285.3614489478
 20
598.5340454764
 10
1285.2905343217
 20
598.6049601025
  0
LWPOLYLINE
  5
3AD
330
1F
100
AcDbEntity
  8
0
  6
Continuous
 62
     7
370
    15
100
AcDbPolyline
 90
        8
 70
   128
 43
0.0
 10
1290.9473895026
 20
592.9481067843
 10
1290.8764748764
 20
593.0190214104
 10
1290.6672867877
 20
593.2282039112
 10
1290.3303156537
 20
593.5651787705
 10
1289.8824575287
 20
594.0130331702
 10
1289.3461703253
 20
594.5493259615
 10
1288.7483469141
 20
595.1471456475
 10
1288.1189628434
 20
595.7765259928
  0
LWPOLYLINE
  5
3AE
330
1F
100
AcDbEntity
  8
0
  6
Continuous
 62
     7
370
    15
100
AcDbPolyline
 90
        8
 70
   128
 43
0.0
 10
1286.6930763167
 20
594.3506487793
 10
1286.1111002904
 20
594.9326285309
 10
1285.5656917137
 20
595.4780259318
 10
1285.091119532
 20
595.9525981135
 10
1284.7172065568
 20
596.3265129513
 10
1284.4674426061
 20
596.5762862153
 10
1284.3575241906
 20
596.6861971802
 10
1284.3529066933
 20
596.6908165402
  0
LWPOLYLINE
  5
3AF
330
1F
100
AcDbEntity
  8
0
  6
Continuous
 62
     7
370
    15
100
AcDbPolyline
 90
        8
 70
   128
 43
0.0
 10
1289.0332468716
 20
592.0104810185
 10
1289.0286284429
 20
592.0151003785
 10
1288.9187109587
 20
592.1250113434
 10
1288.6689479393
 20
592.3747697062
 10
1288.2950331015
 20
592.748684544
 10
1287.8204627824
 20
593.2232567257
 10
1287.275052343
 20
593.7686690278
 10
1286.6930763167
 20
594.3506487793
  0
LWPOLYLINE
  5
3B0
330
1F
100
AcDbEntity
  8
0
  6
Continuous
 62
     7
370
    15
100
AcDbPolyline
 90
        8
 70
   128
 43
0.0
 10
1287.5769610447
 20
595.2345260567
 10
1286.9949831558
 20
595.8165058083
 10
1286.449574579
 20
596.3619181103
 10
1285.97500426
 20
596.836490292
 10
1285.6010894221
 20
597.2104051299
 10
1285.3513254714
 20
597.4601634926
 10
1285.2414089185
 20
597.5700893588
 10
1285.2367895586
 20
597.5746938176
  0
LWPOLYLINE
  5
3B1
330
1F
100
AcDbEntity
  8
0
  6
Continuous
 62
     7
370
    15
100
AcDbPolyline
 90
        8
 70
   128
 43
0.0
 10
1289.9171297369
 20
592.8943582959
 10
1289.9125122395
 20
592.8989776558
 10
1289.802593824
 20
593.008903522
 10
1289.5528308046
 20
593.2586618847
 10
1289.1789168981
 20
593.6325767226
 10
1288.7043456477
 20
594.1071489043
 10
1288.158937071
 20
594.6525612063
 10
1287.5769610447
 20
595.2345260567
  0
LWPOLYLINE
  5
3B2
330
1F
100
AcDbEntity
  8
0
  6
Continuous
 62
     7
370
    15
100
AcDbPolyline
 90
        8
 70
   128
 43
0.0
 10
1287.2350781155
 20
594.8926487154
 10
1286.6056940449
 20
595.5220290608
 10
1286.0078706336
 20
596.1198636479
 10
1285.4715834302
 20
596.6561415381
 10
1285.0237253052
 20
597.1039959378
 10
1284.6867541713
 20
597.440970797
 10
1284.4775660825
 20
597.650168199
 10
1284.4066514564
 20
597.7210828251
  0
LWPOLYLINE
  5
3B3
330
1F
100
AcDbEntity
  8
0
  6
Continuous
 62
     7
370
    15
100
AcDbPolyline
 90
        8
 70
   128
 43
0.0
 10
1290.0635057059
 20
592.0642295069
 10
1289.9925910798
 20
592.135144133
 10
1289.7834039223
 20
592.3443266339
 10
1289.4464318571
 20
592.6813014931
 10
1288.9985746634
 20
593.1291558928
 10
1288.46228746
 20
593.6654486842
 10
1287.8644621861
 20
594.2632683701
 10
1287.2350781155
 20
594.8926487154
  0
LWPOLYLINE
  5
3B4
330
1F
100
AcDbEntity
  8
0
  6
Continuous
 62
     7
370
    15
100
AcDbPolyline
 90
        8
 70
   128
 43
0.0
 10
1287.9188421113
 20
595.5764182991
 10
1287.2894580406
 20
596.2057986445
 10
1286.6916327668
 20
596.8036183304
 10
1286.1553455633
 20
597.3399111218
 10
1285.7074874384
 20
597.7877655215
 10
1285.3705163044
 20
598.1247403807
 10
1285.1613282156
 20
598.3339228815
 10
1285.0904135895
 20
598.4048375077
  0
LWPOLYLINE
  5
3B5
330
1F
100
AcDbEntity
  8
0
  6
Continuous
 62
     7
370
    15
100
AcDbPolyline
 90
        8
 70
   128
 43
0.0
 10
1290.7472687704
 20
592.7479841895
 10
1290.6763541442
 20
592.8188988156
 10
1290.4671660555
 20
593.0280813164
 10
1290.1301949215
 20
593.3650561757
 10
1289.6823367966
 20
593.8129105753
 10
1289.1460505244
 20
594.3492033667
 10
1288.5482261819
 20
594.9470230526
 10
1287.9188421113
 20
595.5764182991
  0
LWPOLYLINE
  5
3B6
330
1F
100
AcDbEntity
  8
0
  6
Continuous
 62
     7
370
    15
100
AcDbPolyline
 90
        8
 70
   128
 43
0.0
 10
1287.0349573833
 20
594.6925261206
 10
1286.4055733127
 20
595.321906466
 10
1285.8077499014
 20
595.919741053
 10
1285.271462698
 20
596.4560189433
 10
1284.823604573
 20
596.9038882441
 10
1284.4866334391
 20
597.2408482022
 10
1284.2774453503
 20
597.4500456042
 10
1284.2065307242
 20
597.5209602303
  0
LWPOLYLINE
  5
3B7
330
1F
100
AcDbEntity
  8
0
  6
Continuous
 62
     7
370
    15
100
AcDbPolyline
 90
        8
 70
   128
 43
0.0
 10
1289.8633849737
 20
591.8641069121
 10
1289.7924703476
 20
591.9350215382
 10
1289.5832831902
 20
592.144204039
 10
1289.2463111249
 20
592.4811788983
 10
1288.7984539312
 20
592.929033298
 10
1288.2621667278
 20
593.4653260893
 10
1287.6643414539
 20
594.0631457753
 10
1287.0349573833
 20
594.6925261206
  0
LINE
  5
3B8
330
1F
100
AcDbEntity
  8
0
  6
Continuous
 62
     7
370
    15
100
AcDbLine
 10
1279.9402072025
 20
568.8594409413
 30
0.0
 11
1251.6559368861
 21
597.1437224335
 31
0.0
  0
LINE
  5
3B9
330
1F
100
AcDbEntity
  8
0
  6
Continuous
 62
     7
370
    15
100
AcDbLine
 10
1287.0112738502
 20
632.4990519471
 30
0.0
 11
1325.5336048943
 21
593.9767339415
 31
0.0
  0
ARC
  5
3BA
330
1F
100
AcDbEntity
  8
0
  6
Continuous
 62
     7
370
    15
100
AcDbCircle
 10
1269.3336052091
 20
614.8213890504
 30
0.0
 40
21.20000000000014
100
AcDbArc
 50
320.413312274
 51
308.2276636992
  0
ARC
  5
3BB
330
1F
100
AcDbEntity
  8
0
  6
Continuous
 62
     7
370
    15
100
AcDbCircle
 10
1269.3336052091
 20
614.8213890504
 30
0.0
 40
25.00000000000004
100
AcDbArc
 50
45.0
 51
225.0
  0
ARC
  5
3BC
330
1F
100
AcDbEntity
  8
0
  6
Continuous
 62
     7
370
    15
100
AcDbCircle
 10
1292.1024435633
 20
585.6885896655
 30
0.0
 40
6.499999999999892
100
AcDbArc
 50
315.0
 51
45.0
  0
LINE
  5
3BD
330
1F
100
AcDbEntity
  8
0
  6
Continuous
 62
     7
370
    15
100
AcDbLine
 10
1282.2029485298
 20
566.596699614
 30
0.0
 11
1296.698637486
 21
581.0924002118
 31
0.0
  0
LINE
  5
3BE
330
1F
100
AcDbEntity
  8
0
  6
Continuous
 62
     7
370
    15
100
AcDbLine
 10
1317.1617162344
 20
550.0864067263
 30
0.0
 11
1310.5336052296
 21
550.5471506304
 31
0.0
  0
LINE
  5
3BF
330
1F
100
AcDbEntity
  8
0
  6
Continuous
 62
     7
370
    15
100
AcDbLine
 10
1296.698637486
 20
590.2847775406
 30
0.0
 11
1285.6716259313
 21
601.3118007368
 31
0.0
  0
LINE
  5
3C0
330
1F
100
AcDbEntity
  8
0
  6
Continuous
 62
     7
370
    15
100
AcDbLine
 10
1282.4519059551
 20
598.1675514168
 30
0.0
 11
1294.435895693
 21
586.1835607476
 31
0.0
  0
LINE
  5
3C1
330
1F
100
AcDbEntity
  8
0
  6
Continuous
 62
     7
370
    15
100
AcDbLine
 10
1294.435895693
 20
583.355141539
 30
0.0
 11
1279.9402072025
 21
568.8594409413
 31
0.0
  0
LINE
  5
3C2
330
1F
100
AcDbEntity
  8
0
  6
Continuous
 62
     7
370
    15
100
AcDbLine
 10
1290.1782660675
 20
558.6213895268
 30
0.0
 11
1282.2029485298
 21
566.596699614
 31
0.0
  0
ARC
  5
3C3
330
1F
100
AcDbEntity
  8
0
  6
Continuous
 62
     7
370
    15
100
AcDbCircle
 10
1293.0216823789
 20
584.7693508499
 30
0.0
 40
2.000000000000177
100
AcDbArc
 50
315.0
 51
45.0
  0
LINE
  5
3C4
330
1F
100
AcDbEntity
  8
0
  6
Continuous
 62
     7
370
    15
100
AcDbLine
 10
1246.0336058331
 20
558.6213895268
 30
0.0
 11
1310.5336052296
 21
558.6213895268
 31
0.0
  0
LINE
  5
3C5
330
1F
100
AcDbEntity
  8
0
  6
Continuous
 62
     7
370
    15
100
AcDbLine
 10
1310.5336052296
 20
558.6213895268
 30
0.0
 11
1310.5336052296
 21
548.6213841624
 31
0.0
  0
LINE
  5
3C6
330
1F
100
AcDbEntity
  8
0
  6
Continuous
 62
     7
370
    15
100
AcDbLine
 10
1246.0336058331
 20
548.6213841624
 30
0.0
 11
1310.5336052296
 21
548.6213841624
 31
0.0
  0
LINE
  5
3C7
330
1F
100
AcDbEntity
  8
0
  6
Continuous
 62
     7
370
    15
100
AcDbLine
 10
1246.0336058331
 20
558.6213895268
 30
0.0
 11
1246.0336058331
 21
548.6213841624
 31
0.0
  0
LINE
  5
3C8
330
1F
100
AcDbEntity
  8
0
  6
Continuous
 62
     7
370
    15
100
AcDbLine
 10
1246.0336058331
 20
548.6213841624
 30
0.0
 11
1171.0336028529
 21
548.6213841624
 31
0.0
  0
LINE
  5
3C9
330
1F
100
AcDbEntity
  8
0
  6
Continuous
 62
     7
370
    15
100
AcDbLine
 10
1171.0336028529
 20
558.6213895268
 30
0.0
 11
1246.0336058331
 21
558.6213895268
 31
0.0
  0
LINE
  5
3CA
330
1F
100
AcDbEntity
  8
0
  6
Continuous
 62
     7
370
    15
100
AcDbLine
 10
1310.5336052296
 20
548.6213841624
 30
0.0
 11
1323.0336054159
 21
548.6213841624
 31
0.0
  0
LINE
  5
3CB
330
1F
100
AcDbEntity
  8
0
  6
Continuous
 62
     7
370
    15
100
AcDbLine
 10
1325.5336048943
 20
638.121394176
 30
0.0
 11
1335.5336046708
 21
638.121394176
 31
0.0
  0
CIRCLE
  5
3CC
330
1F
100
AcDbEntity
  8
0
  6
Continuous
 62
     7
370
    15
100
AcDbCircle
 10
1323.0336052095
 20
561.12138905
 30
0.0
 40
8.500000000000227
  0
LINE
  5
3CD
330
1F
100
AcDbEntity
  8
0
  6
Continuous
 62
     7
370
    15
100
AcDbLine
 10
1335.5336046708
 20
561.1213871426
 30
0.0
 11
1335.5336046708
 21
638.121394176
 31
0.0
  0
LINE
  5
3CE
330
1F
100
AcDbEntity
  8
0
  6
Continuous
 62
     7
370
    15
100
AcDbLine
 10
1325.5336048943
 20
573.6213901228
 30
0.0
 11
1325.5336048943
 21
638.121394176
 31
0.0
  0
ARC
  5
3CF
330
1F
100
AcDbEntity
  8
0
  6
Continuous
 62
     7
370
    15
100
AcDbCircle
 10
1323.0336052095
 20
561.12138905
 30
0.0
 40
12.5
100
AcDbArc
 50
90.0
 51
360.0
  0
LINE
  5
3D0
330
1F
100
AcDbEntity
  8
0
  6
Continuous
 62
     7
370
    15
100
AcDbLine
 10
1323.0336054159
 20
573.6213901228
 30
0.0
 11
1325.5336048943
 21
573.6213901228
 31
0.0
  0
LINE
  5
3D1
330
1F
100
AcDbEntity
  8
0
  6
Continuous
 62
     7
370
    15
100
AcDbLine
 10
1335.5336046708
 20
713.1213971562
 30
0.0
 11
1335.5336046708
 21
638.121394176
 31
0.0
  0
LINE
  5
3D2
330
1F
100
AcDbEntity
  8
0
  6
Continuous
 62
     7
370
    15
100
AcDbLine
 10
1325.5336048943
 20
638.121394176
 30
0.0
 11
1325.5336048943
 21
713.1213971562
 31
0.0
  0
ENDSEC
  0
SECTION
  2
OBJECTS
  0
DICTIONARY
  5
C
330
0
100
AcDbDictionary
281
     1
  3
ACAD_GROUP
350
D
  3
ACAD_LAYOUT
350
1A
  3
ACAD_MLINESTYLE
350
17
  3
ACAD_PLOTSETTINGS
350
19
  3
ACAD_PLOTSTYLENAME
350
E
  3
ACAD_SCALELIST
350
47
  0
DICTIONARY
  5
D
102
{ACAD_REACTORS
330
C
102
}
330
C
100
AcDbDictionary
281
     1
  0
DICTIONARY
  5
1A
102
{ACAD_REACTORS
330
C
102
}
330
C
100
AcDbDictionary
281
     1
  3
Layout1
350
1E
  3
Layout2
350
26
  3
Model
350
22
  0
DICTIONARY
  5
17
102
{ACAD_REACTORS
330
C
102
}
330
C
100
AcDbDictionary
281
     1
  3
Standard
350
18
  0
DICTIONARY
  5
19
102
{ACAD_REACTORS
330
C
102
}
330
C
100
AcDbDictionary
281
     1
  0
ACDBDICTIONARYWDFLT
  5
E
102
{ACAD_REACTORS
330
C
102
}
330
C
100
AcDbDictionary
281
     1
  3
Normal
350
F
100
AcDbDictionaryWithDefault
340
F
  0
DICTIONARY
  5
47
102
{ACAD_REACTORS
330
C
102
}
330
C
100
AcDbDictionary
281
     1
  3
A0
350
48
  3
A1
350
49
  3
A2
350
4A
  3
A3
350
4B
  3
A4
350
4C
  3
A5
350
4D
  3
A6
350
4E
  3
A7
350
4F
  3
A8
350
50
  3
A9
350
51
  3
B0
350
52
  3
B1
350
53
  3
B2
350
54
  3
B3
350
55
  3
B4
350
56
  3
B5
350
57
  3
B6
350
58
  3
B7
350
59
  3
B8
350
5A
  3
B9
350
5B
  3
C0
350
5C
  3
C1
350
5D
  3
C2
350
5E
  3
C3
350
5F
  3
C4
350
60
  3
C5
350
61
  3
C6
350
62
  3
C7
350
63
  3
C8
350
64
  3
C9
350
65
  3
D0
350
66
  3
D1
350
67
  3
D2
350
68
  0
LAYOUT
  5
1E
102
{ACAD_REACTORS
330
1A
102
}
330
1A
100
AcDbPlotSettings
  1

  2
none_device
  4

  6

 40
0.0
 41
0.0
 42
0.0
 43
0.0
 44
0.0
 45
0.0
 46
0.0
 47
0.0
 48
0.0
 49
0.0
140
0.0
141
0.0
142
1.0
143
1.0
 70
   688
 72
     1
 73
     0
 74
     5
  7

 75
    16
147
1.0
148
0.0
149
0.0
100
AcDbLayout
  1
Layout1
 70
     1
 71
     1
 10
0.0
 20
0.0
 11
420.0
 21
297.0
 12
0.0
 22
0.0
 32
0.0
 14
1.0000000000E+20
 24
1.0000000000E+20
 34
1.0000000000E+20
 15
-1.0000000000E+20
 25
-1.0000000000E+20
 35
-1.0000000000E+20
146
0.0
 13
0.0
 23
0.0
 33
0.0
 16
1.0
 26
0.0
 36
0.0
 17
0.0
 27
1.0
 37
0.0
 76
     0
330
1B
  0
LAYOUT
  5
26
102
{ACAD_REACTORS
330
1A
102
}
330
1A
100
AcDbPlotSettings
  1

  2
none_device
  4

  6

 40
0.0
 41
0.0
 42
0.0
 43
0.0
 44
0.0
 45
0.0
 46
0.0
 47
0.0
 48
0.0
 49
0.0
140
0.0
141
0.0
142
1.0
143
1.0
 70
   688
 72
     1
 73
     0
 74
     5
  7

 75
    16
147
1.0
148
0.0
149
0.0
100
AcDbLayout
  1
Layout2
 70
     1
 71
     2
 10
0.0
 20
0.0
 11
0.0
 21
0.0
 12
0.0
 22
0.0
 32
0.0
 14
0.0
 24
0.0
 34
0.0
 15
0.0
 25
0.0
 35
0.0
146
0.0
 13
0.0
 23
0.0
 33
0.0
 16
1.0
 26
0.0
 36
0.0
 17
0.0
 27
1.0
 37
0.0
 76
     0
330
23
  0
LAYOUT
  5
22
102
{ACAD_REACTORS
330
1A
102
}
330
1A
100
AcDbPlotSettings
  1

  2
none_device
  4
Letter_(8.50_x_11.00_Inches)
  6

 40
6.35
 41
6.35
 42
6.35000508
 43
6.35000508
 44
215.9
 45
279.4
 46
0.0
 47
0.0
 48
0.0
 49
0.0
140
0.0
141
0.0
142
1.0
143
1.0
 70
  1712
 72
     1
 73
     0
 74
     0
  7

 75
     0
147
1.0
148
0.0
149
0.0
100
AcDbLayout
  1
Model
 70
     1
 71
     0
 10
0.0
 20
0.0
 11
1485.0
 21
1050.0
 12
0.0
 22
0.0
 32
0.0
 14
0.0
 24
0.0
 34
0.0
 15
1485.0
 25
1050.0
 35
0.0
146
0.0
 13
0.0
 23
0.0
 33
0.0
 16
1.0
 26
0.0
 36
0.0
 17
0.0
 27
1.0
 37
0.0
 76
     0
330
1F
331
29
  0
MLINESTYLE
  5
18
102
{ACAD_REACTORS
330
17
102
}
330
17
100
AcDbMlineStyle
  2
Standard
 70
     0
  3

 62
   256
 51
90.0
 52
90.0
 71
     2
 49
0.5
 62
   256
  6
BYLAYER
 49
-0.5
 62
   256
  6
BYLAYER
  0
ACDBPLACEHOLDER
  5
F
102
{ACAD_REACTORS
330
E
102
}
330
E
  0
SCALE
  5
48
102
{ACAD_REACTORS
330
47
102
}
330
47
100
AcDbScale
 70
     0
300
1:1
140
1.0
141
1.0
290
     1
  0
SCALE
  5
49
102
{ACAD_REACTORS
330
47
102
}
330
47
100
AcDbScale
 70
     0
300
1:2
140
1.0
141
2.0
290
     0
  0
SCALE
  5
4A
102
{ACAD_REACTORS
330
47
102
}
330
47
100
AcDbScale
 70
     0
300
1:4
140
1.0
141
4.0
290
     0
  0
SCALE
  5
4B
102
{ACAD_REACTORS
330
47
102
}
330
47
100
AcDbScale
 70
     0
300
1:5
140
1.0
141
5.0
290
     0
  0
SCALE
  5
4C
102
{ACAD_REACTORS
330
47
102
}
330
47
100
AcDbScale
 70
     0
300
1:8
140
1.0
141
8.0
290
     0
  0
SCALE
  5
4D
102
{ACAD_REACTORS
330
47
102
}
330
47
100
AcDbScale
 70
     0
300
1:10
140
1.0
141
10.0
290
     0
  0
SCALE
  5
4E
102
{ACAD_REACTORS
330
47
102
}
330
47
100
AcDbScale
 70
     0
300
1:16
140
1.0
141
16.0
290
     0
  0
SCALE
  5
4F
102
{ACAD_REACTORS
330
47
102
}
330
47
100
AcDbScale
 70
     0
300
1:20
140
1.0
141
20.0
290
     0
  0
SCALE
  5
50
102
{ACAD_REACTORS
330
47
102
}
330
47
100
AcDbScale
 70
     0
300
1:30
140
1.0
141
30.0
290
     0
  0
SCALE
  5
51
102
{ACAD_REACTORS
330
47
102
}
330
47
100
AcDbScale
 70
     0
300
1:40
140
1.0
141
40.0
290
     0
  0
SCALE
  5
52
102
{ACAD_REACTORS
330
47
102
}
330
47
100
AcDbScale
 70
     0
300
1:50
140
1.0
141
50.0
290
     0
  0
SCALE
  5
53
102
{ACAD_REACTORS
330
47
102
}
330
47
100
AcDbScale
 70
     0
300
1:100
140
1.0
141
100.0
290
     0
  0
SCALE
  5
54
102
{ACAD_REACTORS
330
47
102
}
330
47
100
AcDbScale
 70
     0
300
2:1
140
2.0
141
1.0
290
     0
  0
SCALE
  5
55
102
{ACAD_REACTORS
330
47
102
}
330
47
100
AcDbScale
 70
     0
300
4:1
140
4.0
141
1.0
290
     0
  0
SCALE
  5
56
102
{ACAD_REACTORS
330
47
102
}
330
47
100
AcDbScale
 70
     0
300
8:1
140
8.0
141
1.0
290
     0
  0
SCALE
  5
57
102
{ACAD_REACTORS
330
47
102
}
330
47
100
AcDbScale
 70
     0
300
10:1
140
10.0
141
1.0
290
     0
  0
SCALE
  5
58
102
{ACAD_REACTORS
330
47
102
}
330
47
100
AcDbScale
 70
     0
300
100:1
140
100.0
141
1.0
290
     0
  0
SCALE
  5
59
102
{ACAD_REACTORS
330
47
102
}
330
47
100
AcDbScale
 70
     0
300
1/128" = 1'-0"
140
0.0078125
141
12.0
290
     0
  0
SCALE
  5
5A
102
{ACAD_REACTORS
330
47
102
}
330
47
100
AcDbScale
 70
     0
300
1/64" = 1'-0"
140
0.015625
141
12.0
290
     0
  0
SCALE
  5
5B
102
{ACAD_REACTORS
330
47
102
}
330
47
100
AcDbScale
 70
     0
300
1/32" = 1'-0"
140
0.03125
141
12.0
290
     0
  0
SCALE
  5
5C
102
{ACAD_REACTORS
330
47
102
}
330
47
100
AcDbScale
 70
     0
300
1/16" = 1'-0"
140
0.0625
141
12.0
290
     0
  0
SCALE
  5
5D
102
{ACAD_REACTORS
330
47
102
}
330
47
100
AcDbScale
 70
     0
300
3/32" = 1'-0"
140
0.09375
141
12.0
290
     0
  0
SCALE
  5
5E
102
{ACAD_REACTORS
330
47
102
}
330
47
100
AcDbScale
 70
     0
300
1/8" = 1'-0"
140
0.125
141
12.0
290
     0
  0
SCALE
  5
5F
102
{ACAD_REACTORS
330
47
102
}
330
47
100
AcDbScale
 70
     0
300
3/16" = 1'-0"
140
0.1875
141
12.0
290
     0
  0
SCALE
  5
60
102
{ACAD_REACTORS
330
47
102
}
330
47
100
AcDbScale
 70
     0
300
1/4" = 1'-0"
140
0.25
141
12.0
290
     0
  0
SCALE
  5
61
102
{ACAD_REACTORS
330
47
102
}
330
47
100
AcDbScale
 70
     0
300
3/8" = 1'-0"
140
0.375
141
12.0
290
     0
  0
SCALE
  5
62
102
{ACAD_REACTORS
330
47
102
}
330
47
100
AcDbScale
 70
     0
300
1/2" = 1'-0"
140
0.5
141
12.0
290
     0
  0
SCALE
  5
63
102
{ACAD_REACTORS
330
47
102
}
330
47
100
AcDbScale
 70
     0
300
3/4" = 1'-0"
140
0.75
141
12.0
290
     0
  0
SCALE
  5
64
102
{ACAD_REACTORS
330
47
102
}
330
47
100
AcDbScale
 70
     0
300
1" = 1'-0"
140
1.0
141
12.0
290
     0
  0
SCALE
  5
65
102
{ACAD_REACTORS
330
47
102
}
330
47
100
AcDbScale
 70
     0
300
1-1/2" = 1'-0"
140
1.5
141
12.0
290
     0
  0
SCALE
  5
66
102
{ACAD_REACTORS
330
47
102
}
330
47
100
AcDbScale
 70
     0
300
3" = 1'-0"
140
3.0
141
12.0
290
     0
  0
SCALE
  5
67
102
{ACAD_REACTORS
330
47
102
}
330
47
100
AcDbScale
 70
     0
300
6" = 1'-0"
140
6.0
141
12.0
290
     0
  0
SCALE
  5
68
102
{ACAD_REACTORS
330
47
102
}
330
47
100
AcDbScale
 70
     0
300
1'-0" = 1'-0"
140
12.0
141
12.0
290
     0
  0
ENDSEC
  0
EOF
