  0
SECTION
  2
HEADER
  9
$ACADVER
  1
AC1012
  9
$DWGCODEPAGE
  3
ansi_1252
  9
$INSBASE
 10
0.0
 20
0.0
 30
0.0
  9
$EXTMIN
 10
0.0
 20
0.0
 30
0.0
  9
$EXTMAX
 10
44.0
 20
34.0
 30
0.0
  9
$LIMMIN
 10
0.0
 20
0.0
  9
$LIMMAX
 10
44.0
 20
34.0
  9
$ORTHOMODE
 70
     0
  9
$REGENMODE
 70
     1
  9
$FILLMODE
 70
     1
  9
$QTEXTMODE
 70
     0
  9
$MIRRTEXT
 70
     1
  9
$DRAGMODE
 70
     2
  9
$LTSCALE
 40
1.0
  9
$OSMODE
 70
    37
  9
$ATTMODE
 70
     1
  9
$TEXTSIZE
 40
0.1377952756
  9
$TRACEWID
 40
0.05
  9
$TEXTSTYLE
  7
STANDARD
  9
$CLAYER
  8
0
  9
$CELTYPE
  6
BYLAYER
  9
$CECOLOR
 62
   256
  9
$CELTSCALE
 40
1.0
  9
$DELOBJ
 70
     1
  9
$DISPSILH
 70
     0
  9
$DIMSCALE
 40
1.0
  9
$DIMASZ
 40
0.13
  9
$DIMEXO
 40
0.0393700787
  9
$DIMDLI
 40
0.38
  9
$DIMRND
 40
0.0
  9
$DIMDLE
 40
0.0
  9
$DIMEXE
 40
0.0393700787
  9
$DIMTP
 40
0.0
  9
$DIMTM
 40
0.0
  9
$DIMTXT
 40
0.1377952756
  9
$DIMCEN
 40
0.09
  9
$DIMTSZ
 40
0.0
  9
$DIMTOL
 70
     0
  9
$DIMLIM
 70
     0
  9
$DIMTIH
 70
     1
  9
$DIMTOH
 70
     1
  9
$DIMSE1
 70
     0
  9
$DIMSE2
 70
     0
  9
$DIMTAD
 70
     1
  9
$DIMZIN
 70
     1
  9
$DIMBLK
  1

  9
$DIMASO
 70
     1
  9
$DIMSHO
 70
     1
  9
$DIMPOST
  1

  9
$DIMAPOST
  1

  9
$DIMALT
 70
     0
  9
$DIMALTD
 70
     2
  9
$DIMALTF
 40
25.4
  9
$DIMLFAC
 40
1.0
  9
$DIMTOFL
 70
     0
  9
$DIMTVP
 40
0.0
  9
$DIMTIX
 70
     0
  9
$DIMSOXD
 70
     0
  9
$DIMSAH
 70
     0
  9
$DIMBLK1
  1

  9
$DIMBLK2
  1

  9
$DIMSTYLE
  2
STANDARD
  9
$DIMCLRD
 70
     0
  9
$DIMCLRE
 70
     0
  9
$DIMCLRT
 70
     0
  9
$DIMTFAC
 40
1.0
  9
$DIMGAP
 40
0.06
  9
$DIMJUST
 70
     0
  9
$DIMSD1
 70
     0
  9
$DIMSD2
 70
     0
  9
$DIMTOLJ
 70
     1
  9
$DIMTZIN
 70
     1
  9
$DIMALTZ
 70
     0
  9
$DIMALTTZ
 70
     0
  9
$DIMFIT
 70
     3
  9
$DIMUPT
 70
     0
  9
$DIMUNIT
 70
     2
  9
$DIMDEC
 70
     0
  9
$DIMTDEC
 70
     4
  9
$DIMALTU
 70
     2
  9
$DIMALTTD
 70
     2
  9
$DIMTXSTY
  7
STANDARD
  9
$DIMAUNIT
 70
     0
  9
$LUNITS
 70
     2
  9
$LUPREC
 70
     4
  9
$SKETCHINC
 40
0.1
  9
$FILLETRAD
 40
0.5
  9
$AUNITS
 70
     0
  9
$AUPREC
 70
     0
  9
$MENU
  1
.
  9
$ELEVATION
 40
0.0
  9
$PELEVATION
 40
0.0
  9
$THICKNESS
 40
0.0
  9
$LIMCHECK
 70
     0
  9
$CHAMFERA
 40
0.0
  9
$CHAMFERB
 40
0.0
  9
$CHAMFERC
 40
0.0
  9
$CHAMFERD
 40
0.0
  9
$SKPOLY
 70
     0
  9
$TDCREATE
 40
2456813.577017731
  9
$TDUPDATE
 40
2456813.577018079
  9
$TDINDWG
 40
0.0000000116
  9
$TDUSRTIMER
 40
0.0000000116
  9
$USRTIMER
 70
     1
  9
$ANGBASE
 50
0.0
  9
$ANGDIR
 70
     0
  9
$PDMODE
 70
     0
  9
$PDSIZE
 40
-1.0
  9
$PLINEWID
 40
0.0
  9
$COORDS
 70
     1
  9
$SPLFRAME
 70
     0
  9
$SPLINETYPE
 70
     6
  9
$SPLINESEGS
 70
     8
  9
$ATTDIA
 70
     0
  9
$ATTREQ
 70
     1
  9
$HANDLING
 70
     1
  9
$HANDSEED
  5
F6
  9
$SURFTAB1
 70
     6
  9
$SURFTAB2
 70
     6
  9
$SURFTYPE
 70
     6
  9
$SURFU
 70
     6
  9
$SURFV
 70
     6
  9
$UCSNAME
  2

  9
$UCSORG
 10
0.0
 20
0.0
 30
0.0
  9
$UCSXDIR
 10
1.0
 20
0.0
 30
0.0
  9
$UCSYDIR
 10
0.0
 20
1.0
 30
0.0
  9
$PUCSNAME
  2

  9
$PUCSORG
 10
0.0
 20
0.0
 30
0.0
  9
$PUCSXDIR
 10
1.0
 20
0.0
 30
0.0
  9
$PUCSYDIR
 10
0.0
 20
1.0
 30
0.0
  9
$USERI1
 70
     0
  9
$USERI2
 70
     0
  9
$USERI3
 70
     0
  9
$USERI4
 70
     0
  9
$USERI5
 70
     0
  9
$USERR1
 40
0.0
  9
$USERR2
 40
0.0
  9
$USERR3
 40
0.0
  9
$USERR4
 40
0.0
  9
$USERR5
 40
0.0
  9
$WORLDVIEW
 70
     1
  9
$SHADEDGE
 70
     3
  9
$SHADEDIF
 70
    70
  9
$TILEMODE
 70
     1
  9
$MAXACTVP
 70
    64
  9
$PINSBASE
 10
0.0
 20
0.0
 30
0.0
  9
$PLIMCHECK
 70
     0
  9
$PEXTMIN
 10
1.0000000000E+20
 20
1.0000000000E+20
 30
1.0000000000E+20
  9
$PEXTMAX
 10
-1.0000000000E+20
 20
-1.0000000000E+20
 30
-1.0000000000E+20
  9
$PLIMMIN
 10
0.0
 20
0.0
  9
$PLIMMAX
 10
12.0
 20
9.0
  9
$UNITMODE
 70
     0
  9
$VISRETAIN
 70
     1
  9
$PLINEGEN
 70
     0
  9
$PSLTSCALE
 70
     1
  9
$TREEDEPTH
 70
  3020
  9
$PICKSTYLE
 70
     1
  9
$CMLSTYLE
  2
STANDARD
  9
$CMLJUST
 70
     0
  9
$CMLSCALE
 40
1.0
  9
$SAVEIMAGES
 70
     1
  0
ENDSEC
  0
SECTION
  2
CLASSES
  0
CLASS
  1
ACDBDICTIONARYWDFLT
  2
AcDbDictionaryWithDefault
  3
ObjectDBX Classes
 90
    32768
280
     0
281
     0
  0
CLASS
  1
VISUALSTYLE
  2
AcDbVisualStyle
  3
ObjectDBX Classes
 90
     4095
280
     0
281
     0
  0
CLASS
  1
MATERIAL
  2
AcDbMaterial
  3
ObjectDBX Classes
 90
     1153
280
     0
281
     0
  0
CLASS
  1
SCALE
  2
AcDbScale
  3
ObjectDBX Classes
 90
     1153
280
     0
281
     0
  0
CLASS
  1
SUN
  2
AcDbSun
  3
SCENEOE
 90
     1153
280
     0
281
     0
  0
CLASS
  1
XRECORD
  2
AcDbXrecord
  3
ObjectDBX Classes
 90
    32768
280
     0
281
     0
  0
ENDSEC
  0
SECTION
  2
TABLES
  0
TABLE
  2
VPORT
  5
8
330
0
100
AcDbSymbolTable
 70
     1
  0
VPORT
  5
29
330
8
100
AcDbSymbolTableRecord
100
AcDbViewportTableRecord
  2
*ACTIVE
 70
     0
 10
0.0
 20
0.0
 11
1.0
 21
1.0
 12
22.0
 22
17.0
 13
0.0
 23
0.0
 14
0.5
 24
0.5
 15
0.5
 25
0.5
 16
0.0
 26
0.0
 36
1.0
 17
0.0
 27
0.0
 37
0.0
 40
34.0
 41
1.2941176471
 42
50.0
 43
0.0
 44
0.0
 50
0.0
 51
0.0
 71
     0
 72
  2000
 73
     1
 74
     3
 75
     0
 76
     0
 77
     0
 78
     0
  0
ENDTAB
  0
TABLE
  2
LTYPE
  5
5
330
0
100
AcDbSymbolTable
 70
     8
  0
LTYPE
  5
14
330
5
100
AcDbSymbolTableRecord
100
AcDbLinetypeTableRecord
  2
BYBLOCK
 70
     0
  3

 72
    65
 73
     0
 40
0.0
  0
LTYPE
  5
15
330
5
100
AcDbSymbolTableRecord
100
AcDbLinetypeTableRecord
  2
BYLAYER
 70
     0
  3

 72
    65
 73
     0
 40
0.0
  0
LTYPE
  5
16
330
5
100
AcDbSymbolTableRecord
100
AcDbLinetypeTableRecord
  2
CONTINUOUS
 70
     0
  3
Solid line
 72
    65
 73
     0
 40
0.0
  0
LTYPE
  5
6A
330
5
100
AcDbSymbolTableRecord
100
AcDbLinetypeTableRecord
  2
SLD-DURCHGEHEND
 70
     0
  3
SolidWorks Line Style
 72
    65
 73
     0
 40
0.0
  0
LTYPE
  5
6B
330
5
100
AcDbSymbolTableRecord
100
AcDbLinetypeTableRecord
  2
SLD-GESTRICHELT
 70
     0
  3
SolidWorks Line Style
 72
    65
 73
     2
 40
0.075
 49
0.05
 74
     0
 49
-0.025
 74
     0
  0
LTYPE
  5
6C
330
5
100
AcDbSymbolTableRecord
100
AcDbLinetypeTableRecord
  2
SLD-PHANTOM
 70
     0
  3
SolidWorks Line Style
 72
    65
 73
     6
 40
0.5
 49
0.25
 74
     0
 49
-0.05
 74
     0
 49
0.05
 74
     0
 49
-0.05
 74
     0
 49
0.05
 74
     0
 49
-0.05
 74
     0
  0
LTYPE
  5
6D
330
5
100
AcDbSymbolTableRecord
100
AcDbLinetypeTableRecord
  2
SLD-KETTE
 70
     0
  3
SolidWorks Line Style
 72
    65
 73
     4
 40
0.4
 49
0.25
 74
     0
 49
-0.05
 74
     0
 49
0.05
 74
     0
 49
-0.05
 74
     0
  0
LTYPE
  5
6E
330
5
100
AcDbSymbolTableRecord
100
AcDbLinetypeTableRecord
  2
SLD-PUNKTSTRICH
 70
     0
  3
SolidWorks Line Style
 72
    65
 73
     4
 40
0.75
 49
0.6
 74
     0
 49
-0.05
 74
     0
 49
0.05
 74
     0
 49
-0.05
 74
     0
  0
LTYPE
  5
6F
330
5
100
AcDbSymbolTableRecord
100
AcDbLinetypeTableRecord
  2
SLD-NAHT
 70
     0
  3
SolidWorks Line Style
 72
    65
 73
     2
 40
0.025
 49
0.0
 74
     0
 49
-0.025
 74
     0
  0
LTYPE
  5
70
330
5
100
AcDbSymbolTableRecord
100
AcDbLinetypeTableRecord
  2
SLD-DICKE-DÜNNE-KETTE
 70
     0
  3
SolidWorks Line Style
 72
    65
 73
     4
 40
0.4
 49
0.25
 74
     0
 49
-0.05
 74
     0
 49
0.05
 74
     0
 49
-0.05
 74
     0
  0
ENDTAB
  0
TABLE
  2
LAYER
  5
2
330
0
100
AcDbSymbolTable
 70
     6
  0
LAYER
  5
10
330
2
100
AcDbSymbolTableRecord
100
AcDbLayerTableRecord
  2
0
 70
     0
 62
     7
  6
CONTINUOUS
  0
LAYER
  5
71
330
2
100
AcDbSymbolTableRecord
100
AcDbLayerTableRecord
  2
FORMAT
 70
     0
 62
     7
  6
SLD-DURCHGEHEND
  0
LAYER
  5
72
330
2
100
AcDbSymbolTableRecord
100
AcDbLayerTableRecord
  2
SLD-0
 70
     0
 62
    -1
  6
SLD-DURCHGEHEND
  0
LAYER
  5
73
330
2
100
AcDbSymbolTableRecord
100
AcDbLayerTableRecord
  2
GRUNDEBENE
 70
     0
 62
     1
  6
SLD-DURCHGEHEND
  0
LAYER
  5
74
330
2
100
AcDbSymbolTableRecord
100
AcDbLayerTableRecord
  2
HILFSLINIEN
 70
     0
 62
     1
  6
SLD-DURCHGEHEND
  0
LAYER
  5
75
330
2
100
AcDbSymbolTableRecord
100
AcDbLayerTableRecord
  2
SCHRIFTFELD
 70
     0
 62
     1
  6
SLD-DURCHGEHEND
  0
ENDTAB
  0
TABLE
  2
STYLE
  5
3
330
0
100
AcDbSymbolTable
 70
    16
  0
STYLE
  5
11
330
3
100
AcDbSymbolTableRecord
100
AcDbTextStyleTableRecord
  2
STANDARD
 70
     0
 40
0.0
 41
1.0
 50
0.0
 71
     0
 42
0.1377952756
  3
txt
  4

  0
STYLE
  5
7D
330
3
100
AcDbSymbolTableRecord
100
AcDbTextStyleTableRecord
  2
SLDTEXTSTYLE0
 70
     0
 40
0.0
 41
0.6462264547
 50
0.0
 71
     0
 42
0.1377952756
  3
TXT
  4

  0
STYLE
  5
7F
330
3
100
AcDbSymbolTableRecord
100
AcDbTextStyleTableRecord
  2
SLDTEXTSTYLE1
 70
     0
 40
0.0
 41
0.6474532474
 50
0.0
 71
     0
 42
0.1377952756
  3
TXT
  4

  0
STYLE
  5
D5
330
3
100
AcDbSymbolTableRecord
100
AcDbTextStyleTableRecord
  2
SLDTEXTSTYLE2
 70
     0
 40
0.0
 41
0.6520592552
 50
0.0
 71
     0
 42
0.1377952756
  3
TXT
  4

  0
STYLE
  5
D7
330
3
100
AcDbSymbolTableRecord
100
AcDbTextStyleTableRecord
  2
SLDTEXTSTYLE3
 70
     0
 40
0.0
 41
0.6520046347
 50
0.0
 71
     0
 42
0.1377952756
  3
TXT
  4

  0
STYLE
  5
D9
330
3
100
AcDbSymbolTableRecord
100
AcDbTextStyleTableRecord
  2
SLDTEXTSTYLE4
 70
     0
 40
0.0
 41
0.6507236826
 50
0.0
 71
     0
 42
0.1377952756
  3
TXT
  4

  0
STYLE
  5
DB
330
3
100
AcDbSymbolTableRecord
100
AcDbTextStyleTableRecord
  2
SLDTEXTSTYLE5
 70
     0
 40
0.0
 41
0.649976613
 50
0.0
 71
     0
 42
0.1377952756
  3
TXT
  4

  0
STYLE
  5
DD
330
3
100
AcDbSymbolTableRecord
100
AcDbTextStyleTableRecord
  2
SLDTEXTSTYLE6
 70
     0
 40
0.0
 41
0.6517962485
 50
0.0
 71
     0
 42
0.1377952756
  3
TXT
  4

  0
STYLE
  5
DF
330
3
100
AcDbSymbolTableRecord
100
AcDbTextStyleTableRecord
  2
SLDTEXTSTYLE7
 70
     0
 40
0.0
 41
0.6493129936
 50
0.0
 71
     0
 42
0.1377952756
  3
TXT
  4

  0
STYLE
  5
E1
330
3
100
AcDbSymbolTableRecord
100
AcDbTextStyleTableRecord
  2
SLDTEXTSTYLE8
 70
     0
 40
0.0
 41
0.6500273093
 50
0.0
 71
     0
 42
0.1377952756
  3
TXT
  4

  0
STYLE
  5
E3
330
3
100
AcDbSymbolTableRecord
100
AcDbTextStyleTableRecord
  2
SLDTEXTSTYLE9
 70
     0
 40
0.0
 41
0.649554898
 50
0.0
 71
     0
 42
0.1377952756
  3
TXT
  4

  0
STYLE
  5
E5
330
3
100
AcDbSymbolTableRecord
100
AcDbTextStyleTableRecord
  2
SLDTEXTSTYLE10
 70
     0
 40
0.0
 41
0.6511343484
 50
0.0
 71
     0
 42
0.1377952756
  3
TXT
  4

  0
STYLE
  5
E7
330
3
100
AcDbSymbolTableRecord
100
AcDbTextStyleTableRecord
  2
SLDTEXTSTYLE11
 70
     0
 40
0.0
 41
0.6511738902
 50
0.0
 71
     0
 42
0.1377952756
  3
TXT
  4

  0
STYLE
  5
E9
330
3
100
AcDbSymbolTableRecord
100
AcDbTextStyleTableRecord
  2
SLDTEXTSTYLE12
 70
     0
 40
0.0
 41
0.6493196962
 50
0.0
 71
     0
 42
0.1377952756
  3
TXT
  4

  0
STYLE
  5
EB
330
3
100
AcDbSymbolTableRecord
100
AcDbTextStyleTableRecord
  2
SLDTEXTSTYLE13
 70
     0
 40
0.0
 41
0.638185654
 50
0.0
 71
     0
 42
0.1377952756
  3
TXT
  4

  0
STYLE
  5
ED
330
3
100
AcDbSymbolTableRecord
100
AcDbTextStyleTableRecord
  2
SLDTEXTSTYLE14
 70
     0
 40
0.0
 41
0.6494791829
 50
0.0
 71
     0
 42
0.1377952756
  3
TXT
  4

  0
ENDTAB
  0
TABLE
  2
VIEW
  5
6
330
0
100
AcDbSymbolTable
 70
     0
  0
ENDTAB
  0
TABLE
  2
UCS
  5
7
330
0
100
AcDbSymbolTable
 70
     0
  0
ENDTAB
  0
TABLE
  2
APPID
  5
9
330
0
100
AcDbSymbolTable
 70
     1
  0
APPID
  5
12
330
9
100
AcDbSymbolTableRecord
100
AcDbRegAppTableRecord
  2
ACAD
 70
     0
  0
ENDTAB
  0
TABLE
  2
DIMSTYLE
  5
A
330
0
100
AcDbSymbolTable
 70
     1
  0
DIMSTYLE
105
27
330
A
100
AcDbSymbolTableRecord
100
AcDbDimStyleTableRecord
  2
STANDARD
 70
     0
  3

  4

  5

  6

  7

 40
1.0
 41
0.18
 42
0.0625
 43
0.38
 44
0.18
 45
0.0
 46
0.0
 47
0.0
 48
0.0
140
0.18
141
0.09
142
0.0
143
25.4
144
1.0
145
0.0
146
1.0
147
0.09
 71
     0
 72
     0
 73
     1
 74
     1
 75
     0
 76
     0
 77
     0
 78
     0
170
     0
171
     2
172
     0
173
     0
174
     0
175
     0
176
     0
177
     0
178
     0
270
     2
271
     4
272
     4
273
     2
274
     2
340
11
275
     0
280
     0
281
     0
282
     0
283
     1
284
     0
285
     0
286
     0
287
     3
288
     0
  0
ENDTAB
  0
TABLE
  2
BLOCK_RECORD
  5
1
330
0
100
AcDbSymbolTable
 70
     2
  0
BLOCK_RECORD
  5
1F
330
1
100
AcDbSymbolTableRecord
100
AcDbBlockTableRecord
  2
*MODEL_SPACE
  0
BLOCK_RECORD
  5
1B
330
1
100
AcDbSymbolTableRecord
100
AcDbBlockTableRecord
  2
*PAPER_SPACE
  0
BLOCK_RECORD
  5
23
330
1
100
AcDbSymbolTableRecord
100
AcDbBlockTableRecord
  2
*PAPER_SPACE0
  0
BLOCK_RECORD
  5
76
330
1
100
AcDbSymbolTableRecord
100
AcDbBlockTableRecord
  2
_LOGO-0
  0
ENDTAB
  0
ENDSEC
  0
SECTION
  2
BLOCKS
  0
BLOCK
  5
20
330
1F
100
AcDbEntity
  8
0
100
AcDbBlockBegin
  2
*MODEL_SPACE
 70
     0
 10
0.0
 20
0.0
 30
0.0
  3
*MODEL_SPACE
  1

  0
ENDBLK
  5
21
330
1F
100
AcDbEntity
  8
0
100
AcDbBlockEnd
  0
BLOCK
  5
1C
330
1B
100
AcDbEntity
 67
     1
  8
0
100
AcDbBlockBegin
  2
*PAPER_SPACE
 70
     0
 10
0.0
 20
0.0
 30
0.0
  3
*PAPER_SPACE
  1

  0
ENDBLK
  5
1D
330
1B
100
AcDbEntity
 67
     1
  8
0
100
AcDbBlockEnd
  0
BLOCK
  5
24
330
23
100
AcDbEntity
  8
0
100
AcDbBlockBegin
  2
*PAPER_SPACE0
 70
     0
 10
0.0
 20
0.0
 30
0.0
  3
*PAPER_SPACE0
  1
*PAPER_SPACE0
  0
ENDBLK
  5
25
330
23
100
AcDbEntity
  8
0
100
AcDbBlockEnd
  0
BLOCK
  5
77
330
76
100
AcDbEntity
  8
0
100
AcDbBlockBegin
  2
_LOGO-0
 70
     0
 10
0.0
 20
0.0
 30
0.0
  3
_LOGO-0
  1
_LOGO-0
  0
LINE
  5
79
330
76
100
AcDbEntity
  8
SCHRIFTFELD
  6
SLD-DURCHGEHEND
 62
   250
100
AcDbLine
 10
0.00002393
 20
0.0000014075
 30
0.0
 11
66.30013295
 21
0.0000014075
 31
0.0
  0
LINE
  5
7A
330
76
100
AcDbEntity
  8
SCHRIFTFELD
  6
SLD-DURCHGEHEND
 62
   250
100
AcDbLine
 10
66.30013295
 20
0.0000014075
 30
0.0
 11
66.30013295
 21
19.1250109025
 31
0.0
  0
LINE
  5
7B
330
76
100
AcDbEntity
  8
SCHRIFTFELD
  6
SLD-DURCHGEHEND
 62
   250
100
AcDbLine
 10
66.30013295
 20
19.1250109025
 30
0.0
 11
0.00002393
 21
19.1250109025
 31
0.0
  0
LINE
  5
7C
330
76
100
AcDbEntity
  8
SCHRIFTFELD
  6
SLD-DURCHGEHEND
 62
   250
100
AcDbLine
 10
0.00002393
 20
19.1250109025
 30
0.0
 11
0.00002393
 21
0.0000014075
 31
0.0
  0
MTEXT
  5
7E
330
76
100
AcDbEntity
  8
SCHRIFTFELD
100
AcDbMText
 10
4.168203672
 20
14.5985733281
 30
0.0
 40
5.5575729893
 41
0.0
 71
     1
 72
     1
  1
Feldmann GmbH
  7
SLDTEXTSTYLE0
  0
MTEXT
  5
80
330
76
100
AcDbEntity
  8
SCHRIFTFELD
100
AcDbMText
 10
8.3978744775
 20
7.8451436932
 30
0.0
 40
3.3714748882
 41
0.0
 71
     1
 72
     1
  1
Metall & Schmiedekunst
  7
SLDTEXTSTYLE1
  0
ENDBLK
  5
78
330
76
100
AcDbEntity
  8
0
100
AcDbBlockEnd
  0
ENDSEC
  0
SECTION
  2
ENTITIES
  0
LINE
  5
81
330
1F
100
AcDbEntity
  8
SCHRIFTFELD
  6
SLD-DURCHGEHEND
 62
   250
100
AcDbLine
 10
239.1
 20
90.375
 30
0.0
 11
438.0
 21
90.375
 31
0.0
  0
LINE
  5
82
330
1F
100
AcDbEntity
  8
SCHRIFTFELD
  6
SLD-DURCHGEHEND
 62
   250
100
AcDbLine
 10
438.0
 20
64.875
 30
0.0
 11
239.1
 21
64.875
 31
0.0
  0
LINE
  5
83
330
1F
100
AcDbEntity
  8
SCHRIFTFELD
  6
SLD-DURCHGEHEND
 62
   250
100
AcDbLine
 10
418.5
 20
33.0
 30
0.0
 11
418.5
 21
13.875
 31
0.0
  0
LINE
  5
84
330
1F
100
AcDbEntity
  8
SCHRIFTFELD
  6
SLD-DURCHGEHEND
 62
   250
100
AcDbLine
 10
438.0
 20
33.0
 30
0.0
 11
239.1
 21
33.0
 31
0.0
  0
LINE
  5
85
330
1F
100
AcDbEntity
  8
SCHRIFTFELD
  6
SLD-DURCHGEHEND
 62
   250
100
AcDbLine
 10
239.1
 20
7.5
 30
0.0
 11
239.1
 21
90.375
 31
0.0
  0
LINE
  5
86
330
1F
100
AcDbEntity
  8
SCHRIFTFELD
  6
SLD-DURCHGEHEND
 62
   250
100
AcDbLine
 10
305.4
 20
7.5
 30
0.0
 11
305.4
 21
90.375
 31
0.0
  0
LINE
  5
87
330
1F
100
AcDbEntity
  8
SCHRIFTFELD
  6
SLD-DURCHGEHEND
 62
   250
100
AcDbLine
 10
239.1
 20
52.125
 30
0.0
 11
305.4
 21
52.125
 31
0.0
  0
LINE
  5
88
330
1F
100
AcDbEntity
  8
SCHRIFTFELD
  6
SLD-DURCHGEHEND
 62
   250
100
AcDbLine
 10
239.1
 20
45.75
 30
0.0
 11
305.4
 21
45.75
 31
0.0
  0
LINE
  5
89
330
1F
100
AcDbEntity
  8
SCHRIFTFELD
  6
SLD-DURCHGEHEND
 62
   250
100
AcDbLine
 10
239.1
 20
39.375
 30
0.0
 11
305.4
 21
39.375
 31
0.0
  0
LINE
  5
8A
330
1F
100
AcDbEntity
  8
SCHRIFTFELD
  6
SLD-DURCHGEHEND
 62
   250
100
AcDbLine
 10
438.0
 20
13.875
 30
0.0
 11
239.1
 21
13.875
 31
0.0
  0
LINE
  5
8B
330
1F
100
AcDbEntity
  8
SCHRIFTFELD
  6
SLD-DURCHGEHEND
 62
   250
100
AcDbLine
 10
371.7
 20
13.875
 30
0.0
 11
371.7
 21
7.5
 31
0.0
  0
LINE
  5
8C
330
1F
100
AcDbEntity
  8
SCHRIFTFELD
  6
SLD-DURCHGEHEND
 62
   250
100
AcDbLine
 10
254.7
 20
64.875
 30
0.0
 11
254.7
 21
39.375
 31
0.0
  0
LINE
  5
8D
330
1F
100
AcDbEntity
  8
SCHRIFTFELD
  6
SLD-DURCHGEHEND
 62
   250
100
AcDbLine
 10
239.1
 20
58.5
 30
0.0
 11
305.4
 21
58.5
 31
0.0
  0
LINE
  5
8E
330
1F
100
AcDbEntity
  8
SCHRIFTFELD
  6
SLD-DURCHGEHEND
 62
   250
100
AcDbLine
 10
278.1
 20
90.375
 30
0.0
 11
278.1
 21
33.0
 31
0.0
  0
LINE
  5
8F
330
1F
100
AcDbEntity
  8
SCHRIFTFELD
  6
SLD-DURCHGEHEND
 62
   250
100
AcDbLine
 10
438.0
 20
20.25
 30
0.0
 11
418.5
 21
20.25
 31
0.0
  0
LINE
  5
90
330
1F
100
AcDbEntity
  8
SCHRIFTFELD
  6
SLD-DURCHGEHEND
 62
   250
100
AcDbLine
 10
383.4
 20
90.375
 30
0.0
 11
383.4
 21
80.8125
 31
0.0
  0
LINE
  5
91
330
1F
100
AcDbEntity
  8
SCHRIFTFELD
  6
SLD-DURCHGEHEND
 62
   250
100
AcDbLine
 10
305.4
 20
80.8125
 30
0.0
 11
438.0
 21
80.8125
 31
0.0
  0
LINE
  5
92
330
1F
100
AcDbEntity
  8
SCHRIFTFELD
  6
SLD-DURCHGEHEND
 62
   250
100
AcDbLine
 10
7.5
 20
7.5
 30
0.0
 11
438.0
 21
7.5
 31
0.0
  0
LINE
  5
93
330
1F
100
AcDbEntity
  8
SCHRIFTFELD
  6
SLD-DURCHGEHEND
 62
   250
100
AcDbLine
 10
438.0
 20
7.5
 30
0.0
 11
438.0
 21
307.5
 31
0.0
  0
LINE
  5
94
330
1F
100
AcDbEntity
  8
SCHRIFTFELD
  6
SLD-DURCHGEHEND
 62
   250
100
AcDbLine
 10
438.0
 20
307.5
 30
0.0
 11
7.5
 21
307.5
 31
0.0
  0
LINE
  5
95
330
1F
100
AcDbEntity
  8
SCHRIFTFELD
  6
SLD-DURCHGEHEND
 62
   250
100
AcDbLine
 10
7.5
 20
307.5
 30
0.0
 11
7.5
 21
7.5
 31
0.0
  0
LINE
  5
96
330
1F
100
AcDbEntity
  8
GRUNDEBENE
  6
SLD-DURCHGEHEND
 62
   250
100
AcDbLine
 10
79.605
 20
266.92
 30
0.0
 11
79.605
 21
166.92
 31
0.0
  0
LINE
  5
97
330
1F
100
AcDbEntity
  8
GRUNDEBENE
  6
SLD-DURCHGEHEND
 62
   250
100
AcDbLine
 10
64.105
 20
266.92
 30
0.0
 11
79.605
 21
266.92
 31
0.0
  0
LINE
  5
98
330
1F
100
AcDbEntity
  8
GRUNDEBENE
  6
SLD-DURCHGEHEND
 62
   250
100
AcDbLine
 10
64.105
 20
166.92
 30
0.0
 11
79.605
 21
166.92
 31
0.0
  0
LINE
  5
99
330
1F
100
AcDbEntity
  8
GRUNDEBENE
  6
SLD-DURCHGEHEND
 62
   250
100
AcDbLine
 10
64.105
 20
266.92
 30
0.0
 11
64.105
 21
167.05
 31
0.0
  0
LINE
  5
9A
330
1F
100
AcDbEntity
  8
GRUNDEBENE
  6
SLD-DURCHGEHEND
 62
   250
100
AcDbLine
 10
364.105
 20
266.92
 30
0.0
 11
364.105
 21
166.92
 31
0.0
  0
LINE
  5
9B
330
1F
100
AcDbEntity
  8
GRUNDEBENE
  6
SLD-DURCHGEHEND
 62
   250
100
AcDbLine
 10
348.605
 20
266.92
 30
0.0
 11
364.105
 21
266.92
 31
0.0
  0
LINE
  5
9C
330
1F
100
AcDbEntity
  8
GRUNDEBENE
  6
SLD-DURCHGEHEND
 62
   250
100
AcDbLine
 10
348.605
 20
166.92
 30
0.0
 11
364.105
 21
166.92
 31
0.0
  0
LINE
  5
9D
330
1F
100
AcDbEntity
  8
GRUNDEBENE
  6
SLD-DURCHGEHEND
 62
   250
100
AcDbLine
 10
348.605
 20
266.92
 30
0.0
 11
348.605
 21
167.05
 31
0.0
  0
LINE
  5
9E
330
1F
100
AcDbEntity
  8
GRUNDEBENE
  6
SLD-DURCHGEHEND
 62
   250
100
AcDbLine
 10
68.855
 20
235.81
 30
0.0
 11
296.6721283189
 21
235.81
 31
0.0
  0
LINE
  5
9F
330
1F
100
AcDbEntity
  8
GRUNDEBENE
  6
SLD-DURCHGEHEND
 62
   250
100
AcDbLine
 10
68.855
 20
229.81
 30
0.0
 11
298.0871132323
 21
229.81
 31
0.0
  0
LINE
  5
A0
330
1F
100
AcDbEntity
  8
GRUNDEBENE
  6
SLD-DURCHGEHEND
 62
   250
100
AcDbLine
 10
307.8424203458
 20
238.444299116
 30
0.0
 11
355.0145649568
 21
262.0038841061
 31
0.0
  0
LINE
  5
A1
330
1F
100
AcDbEntity
  8
GRUNDEBENE
  6
SLD-DURCHGEHEND
 62
   250
100
AcDbLine
 10
309.2574052592
 20
232.444299116
 30
0.0
 11
357.6954350432
 21
256.6361158939
 31
0.0
  0
LINE
  5
A2
330
1F
100
AcDbEntity
  8
GRUNDEBENE
  6
SLD-DURCHGEHEND
 62
   250
100
AcDbLine
 10
68.855
 20
198.03
 30
0.0
 11
296.6721283189
 21
198.03
 31
0.0
  0
LINE
  5
A3
330
1F
100
AcDbEntity
  8
GRUNDEBENE
  6
SLD-DURCHGEHEND
 62
   250
100
AcDbLine
 10
68.855
 20
204.03
 30
0.0
 11
298.0871132323
 21
204.03
 31
0.0
  0
LINE
  5
A4
330
1F
100
AcDbEntity
  8
GRUNDEBENE
  6
SLD-DURCHGEHEND
 62
   250
100
AcDbLine
 10
307.8424203458
 20
195.395700884
 30
0.0
 11
355.0145649568
 21
171.8361158939
 31
0.0
  0
LINE
  5
A5
330
1F
100
AcDbEntity
  8
GRUNDEBENE
  6
SLD-DURCHGEHEND
 62
   250
100
AcDbLine
 10
309.2574052592
 20
201.395700884
 30
0.0
 11
357.6954350432
 21
177.2038841061
 31
0.0
  0
LINE
  5
A6
330
1F
100
AcDbEntity
  8
GRUNDEBENE
  6
SLD-DURCHGEHEND
 62
   250
100
AcDbLine
 10
64.105
 20
99.08
 30
0.0
 11
64.105
 21
102.08
 31
0.0
  0
LINE
  5
A7
330
1F
100
AcDbEntity
  8
GRUNDEBENE
  6
SLD-DURCHGEHEND
 62
   250
100
AcDbLine
 10
64.105
 20
102.08
 30
0.0
 11
79.605
 21
102.08
 31
0.0
  0
LINE
  5
A8
330
1F
100
AcDbEntity
  8
GRUNDEBENE
  6
SLD-DURCHGEHEND
 62
   250
100
AcDbLine
 10
64.105
 20
99.08
 30
0.0
 11
79.605
 21
99.08
 31
0.0
  0
LINE
  5
A9
330
1F
100
AcDbEntity
  8
GRUNDEBENE
  6
SLD-DURCHGEHEND
 62
   250
100
AcDbLine
 10
79.605
 20
102.08
 30
0.0
 11
79.605
 21
99.08
 31
0.0
  0
LINE
  5
AA
330
1F
100
AcDbEntity
  8
GRUNDEBENE
  6
SLD-DURCHGEHEND
 62
   250
100
AcDbLine
 10
69.655
 20
100.58
 30
0.0
 11
69.655
 21
99.08
 31
0.0
  0
LINE
  5
AB
330
1F
100
AcDbEntity
  8
GRUNDEBENE
  6
SLD-DURCHGEHEND
 62
   250
100
AcDbLine
 10
74.105
 20
100.58
 30
0.0
 11
74.105
 21
99.08
 31
0.0
  0
LINE
  5
AC
330
1F
100
AcDbEntity
  8
GRUNDEBENE
  6
SLD-DURCHGEHEND
 62
   250
100
AcDbLine
 10
67.855
 20
102.08
 30
0.0
 11
69.655
 21
100.58
 31
0.0
  0
LINE
  5
AD
330
1F
100
AcDbEntity
  8
GRUNDEBENE
  6
SLD-DURCHGEHEND
 62
   250
100
AcDbLine
 10
74.105
 20
100.58
 30
0.0
 11
75.855
 21
102.08
 31
0.0
  0
LINE
  5
AE
330
1F
100
AcDbEntity
  8
GRUNDEBENE
  6
SLD-DURCHGEHEND
 62
   250
100
AcDbLine
 10
348.605
 20
99.08
 30
0.0
 11
348.605
 21
102.08
 31
0.0
  0
LINE
  5
AF
330
1F
100
AcDbEntity
  8
GRUNDEBENE
  6
SLD-DURCHGEHEND
 62
   250
100
AcDbLine
 10
348.605
 20
99.08
 30
0.0
 11
364.105
 21
99.08
 31
0.0
  0
LINE
  5
B0
330
1F
100
AcDbEntity
  8
GRUNDEBENE
  6
SLD-DURCHGEHEND
 62
   250
100
AcDbLine
 10
364.105
 20
102.08
 30
0.0
 11
364.105
 21
99.08
 31
0.0
  0
LINE
  5
B1
330
1F
100
AcDbEntity
  8
GRUNDEBENE
  6
SLD-DURCHGEHEND
 62
   250
100
AcDbLine
 10
68.855
 20
102.08
 30
0.0
 11
68.855
 21
135.28
 31
0.0
  0
LINE
  5
B2
330
1F
100
AcDbEntity
  8
GRUNDEBENE
  6
SLD-DURCHGEHEND
 62
   250
100
AcDbLine
 10
80.355
 20
146.78
 30
0.0
 11
347.855
 21
146.78
 31
0.0
  0
LINE
  5
B3
330
1F
100
AcDbEntity
  8
GRUNDEBENE
  6
SLD-DURCHGEHEND
 62
   250
100
AcDbLine
 10
74.855
 20
102.08
 30
0.0
 11
74.855
 21
135.28
 31
0.0
  0
LINE
  5
B4
330
1F
100
AcDbEntity
  8
GRUNDEBENE
  6
SLD-DURCHGEHEND
 62
   250
100
AcDbLine
 10
80.355
 20
140.78
 30
0.0
 11
347.855
 21
140.78
 31
0.0
  0
LINE
  5
B5
330
1F
100
AcDbEntity
  8
GRUNDEBENE
  6
SLD-DURCHGEHEND
 62
   250
100
AcDbLine
 10
354.155
 20
100.58
 30
0.0
 11
354.155
 21
102.08
 31
0.0
  0
LINE
  5
B6
330
1F
100
AcDbEntity
  8
GRUNDEBENE
  6
SLD-DURCHGEHEND
 62
   250
100
AcDbLine
 10
358.605
 20
100.58
 30
0.0
 11
358.605
 21
102.08
 31
0.0
  0
LINE
  5
B7
330
1F
100
AcDbEntity
  8
GRUNDEBENE
  6
SLD-DURCHGEHEND
 62
   250
100
AcDbLine
 10
352.355
 20
99.08
 30
0.0
 11
354.155
 21
100.58
 31
0.0
  0
LINE
  5
B8
330
1F
100
AcDbEntity
  8
GRUNDEBENE
  6
SLD-DURCHGEHEND
 62
   250
100
AcDbLine
 10
358.605
 20
100.58
 30
0.0
 11
360.355
 21
99.08
 31
0.0
  0
LINE
  5
B9
330
1F
100
AcDbEntity
  8
GRUNDEBENE
  6
SLD-DURCHGEHEND
 62
   250
100
AcDbLine
 10
359.355
 20
102.08
 30
0.0
 11
359.355
 21
135.28
 31
0.0
  0
LINE
  5
BA
330
1F
100
AcDbEntity
  8
GRUNDEBENE
  6
SLD-DURCHGEHEND
 62
   250
100
AcDbLine
 10
353.355
 20
102.08
 30
0.0
 11
353.355
 21
135.28
 31
0.0
  0
LINE
  5
BB
330
1F
100
AcDbEntity
  8
GRUNDEBENE
  6
SLD-DURCHGEHEND
 62
   250
100
AcDbLine
 10
348.605
 20
102.08
 30
0.0
 11
364.105
 21
102.08
 31
0.0
  0
CIRCLE
  5
BC
330
1F
100
AcDbEntity
  8
GRUNDEBENE
  6
SLD-DURCHGEHEND
 62
   250
100
AcDbCircle
 10
71.855
 20
259.32
 30
0.0
 40
2.25
  0
CIRCLE
  5
BD
330
1F
100
AcDbEntity
  8
GRUNDEBENE
  6
SLD-DURCHGEHEND
 62
   250
100
AcDbCircle
 10
71.855
 20
259.32
 30
0.0
 40
4.0
  0
CIRCLE
  5
BE
330
1F
100
AcDbEntity
  8
GRUNDEBENE
  6
SLD-DURCHGEHEND
 62
   250
100
AcDbCircle
 10
71.855
 20
174.52
 30
0.0
 40
2.25
  0
CIRCLE
  5
BF
330
1F
100
AcDbEntity
  8
GRUNDEBENE
  6
SLD-DURCHGEHEND
 62
   250
100
AcDbCircle
 10
71.855
 20
174.52
 30
0.0
 40
4.0
  0
CIRCLE
  5
C0
330
1F
100
AcDbEntity
  8
GRUNDEBENE
  6
SLD-DURCHGEHEND
 62
   250
100
AcDbCircle
 10
71.855
 20
201.03
 30
0.0
 40
2.25
  0
CIRCLE
  5
C1
330
1F
100
AcDbEntity
  8
GRUNDEBENE
  6
SLD-DURCHGEHEND
 62
   250
100
AcDbCircle
 10
71.855
 20
201.03
 30
0.0
 40
4.0
  0
CIRCLE
  5
C2
330
1F
100
AcDbEntity
  8
GRUNDEBENE
  6
SLD-DURCHGEHEND
 62
   250
100
AcDbCircle
 10
71.855
 20
232.81
 30
0.0
 40
2.25
  0
CIRCLE
  5
C3
330
1F
100
AcDbEntity
  8
GRUNDEBENE
  6
SLD-DURCHGEHEND
 62
   250
100
AcDbCircle
 10
71.855
 20
232.81
 30
0.0
 40
4.0
  0
CIRCLE
  5
C4
330
1F
100
AcDbEntity
  8
GRUNDEBENE
  6
SLD-DURCHGEHEND
 62
   250
100
AcDbCircle
 10
356.355
 20
259.32
 30
0.0
 40
2.25
  0
CIRCLE
  5
C5
330
1F
100
AcDbEntity
  8
GRUNDEBENE
  6
SLD-DURCHGEHEND
 62
   250
100
AcDbCircle
 10
356.355
 20
259.32
 30
0.0
 40
4.0
  0
CIRCLE
  5
C6
330
1F
100
AcDbEntity
  8
GRUNDEBENE
  6
SLD-DURCHGEHEND
 62
   250
100
AcDbCircle
 10
356.355
 20
174.52
 30
0.0
 40
2.25
  0
CIRCLE
  5
C7
330
1F
100
AcDbEntity
  8
GRUNDEBENE
  6
SLD-DURCHGEHEND
 62
   250
100
AcDbCircle
 10
356.355
 20
174.52
 30
0.0
 40
4.0
  0
CIRCLE
  5
C8
330
1F
100
AcDbEntity
  8
GRUNDEBENE
  6
SLD-DURCHGEHEND
 62
   250
100
AcDbCircle
 10
356.355
 20
201.03
 30
0.0
 40
2.25
  0
CIRCLE
  5
C9
330
1F
100
AcDbEntity
  8
GRUNDEBENE
  6
SLD-DURCHGEHEND
 62
   250
100
AcDbCircle
 10
356.355
 20
201.03
 30
0.0
 40
4.0
  0
CIRCLE
  5
CA
330
1F
100
AcDbEntity
  8
GRUNDEBENE
  6
SLD-DURCHGEHEND
 62
   250
100
AcDbCircle
 10
356.355
 20
232.81
 30
0.0
 40
2.25
  0
CIRCLE
  5
CB
330
1F
100
AcDbEntity
  8
GRUNDEBENE
  6
SLD-DURCHGEHEND
 62
   250
100
AcDbCircle
 10
356.355
 20
232.81
 30
0.0
 40
4.0
  0
ARC
  5
CC
330
1F
100
AcDbEntity
  8
GRUNDEBENE
  6
SLD-DURCHGEHEND
 62
   250
100
AcDbCircle
 10
298.0871132323
 20
254.81
 30
0.0
 40
25.0
100
AcDbArc
 50
270.0
 51
296.5393079809
  0
ARC
  5
CD
330
1F
100
AcDbEntity
  8
GRUNDEBENE
  6
SLD-DURCHGEHEND
 62
   250
100
AcDbCircle
 10
296.6721283189
 20
260.81
 30
0.0
 40
25.0
100
AcDbArc
 50
270.0
 51
296.5393079809
  0
ARC
  5
CE
330
1F
100
AcDbEntity
  8
GRUNDEBENE
  6
SLD-DURCHGEHEND
 62
   250
100
AcDbCircle
 10
298.0871132323
 20
179.03
 30
0.0
 40
25.0
100
AcDbArc
 50
63.4606920191
 51
90.0
  0
ARC
  5
CF
330
1F
100
AcDbEntity
  8
GRUNDEBENE
  6
SLD-DURCHGEHEND
 62
   250
100
AcDbCircle
 10
296.6721283189
 20
173.03
 30
0.0
 40
25.0
100
AcDbArc
 50
63.4606920191
 51
90.0
  0
ARC
  5
D0
330
1F
100
AcDbEntity
  8
GRUNDEBENE
  6
SLD-DURCHGEHEND
 62
   250
100
AcDbCircle
 10
80.355
 20
135.28
 30
0.0
 40
11.5
100
AcDbArc
 50
90.0
 51
180.0
  0
ARC
  5
D1
330
1F
100
AcDbEntity
  8
GRUNDEBENE
  6
SLD-DURCHGEHEND
 62
   250
100
AcDbCircle
 10
80.355
 20
135.28
 30
0.0
 40
5.5
100
AcDbArc
 50
90.0
 51
180.0
  0
ARC
  5
D2
330
1F
100
AcDbEntity
  8
GRUNDEBENE
  6
SLD-DURCHGEHEND
 62
   250
100
AcDbCircle
 10
347.855
 20
135.28
 30
0.0
 40
11.50000000000006
100
AcDbArc
 50
0.0
 51
90.0
  0
ARC
  5
D3
330
1F
100
AcDbEntity
  8
GRUNDEBENE
  6
SLD-DURCHGEHEND
 62
   250
100
AcDbCircle
 10
347.855
 20
135.28
 30
0.0
 40
5.500000000000057
100
AcDbArc
 50
0.0
 51
90.0
  0
INSERT
  5
D4
330
1F
100
AcDbEntity
  8
0
  6
CONTINUOUS
 62
     7
100
AcDbBlockReference
  2
_LOGO-0
 10
239.09992819
 20
13.8749957575
 30
0.0
  0
MTEXT
  5
D6
330
1F
100
AcDbEntity
  8
SCHRIFTFELD
 62
   250
100
AcDbMText
 10
283.9043780009
 20
63.399474334
 30
0.0
 40
3.75
 41
0.0
 71
     1
 72
     1
  1
Name
  7
SLDTEXTSTYLE2
  0
MTEXT
  5
D8
330
1F
100
AcDbEntity
  8
SCHRIFTFELD
 62
   250
100
AcDbMText
 10
257.9153635967
 20
63.399474334
 30
0.0
 40
3.75
 41
0.0
 71
     1
 72
     1
  1
Datum
  7
SLDTEXTSTYLE3
  0
MTEXT
  5
DA
330
1F
100
AcDbEntity
  8
SCHRIFTFELD
 62
   250
100
AcDbMText
 10
240.1334063728
 20
57.2441814488
 30
0.0
 40
3.75
 41
0.0
 71
     1
 72
     1
  1
Bearb.
  7
SLDTEXTSTYLE4
  0
MTEXT
  5
DC
330
1F
100
AcDbEntity
  8
SCHRIFTFELD
 62
   250
100
AcDbMText
 10
240.1334063728
 20
50.860914753
 30
0.0
 40
3.75
 41
0.0
 71
     1
 72
     1
  1
Gepr.
  7
SLDTEXTSTYLE5
  0
MTEXT
  5
DE
330
1F
100
AcDbEntity
  8
SCHRIFTFELD
 62
   250
100
AcDbMText
 10
240.1334063728
 20
44.4776480573
 30
0.0
 40
3.75
 41
0.0
 71
     1
 72
     1
  1
Norm
  7
SLDTEXTSTYLE6
  0
MTEXT
  5
E0
330
1F
100
AcDbEntity
  8
SCHRIFTFELD
 62
   250
100
AcDbMText
 10
240.0938105631
 20
11.6938104515
 30
0.0
 40
2.7
 41
0.0
 71
     1
 72
     1
  1
Urspr.:
  7
SLDTEXTSTYLE7
  0
MTEXT
  5
E2
330
1F
100
AcDbEntity
  8
SCHRIFTFELD
 62
   250
100
AcDbMText
 10
306.2062156264
 20
11.6938104515
 30
0.0
 40
2.7
 41
0.0
 71
     1
 72
     1
  1
Ers. für:
  7
SLDTEXTSTYLE8
  0
MTEXT
  5
E4
330
1F
100
AcDbEntity
  8
SCHRIFTFELD
 62
   250
100
AcDbMText
 10
372.7745683108
 20
11.6938104515
 30
0.0
 40
2.7
 41
0.0
 71
     1
 72
     1
  1
Ers. durch:
  7
SLDTEXTSTYLE9
  0
MTEXT
  5
E6
330
1F
100
AcDbEntity
  8
SCHRIFTFELD
 62
   250
100
AcDbMText
 10
419.8907560017
 20
31.3477650565
 30
0.0
 40
2.7
 41
0.0
 71
     1
 72
     1
  1
Blatt
  7
SLDTEXTSTYLE10
  0
MTEXT
  5
E8
330
1F
100
AcDbEntity
  8
SCHRIFTFELD
 62
   250
100
AcDbMText
 10
426.3562300862
 20
18.1252840438
 30
0.0
 40
2.7
 41
0.0
 71
     1
 72
     1
  1
Blätter
  7
SLDTEXTSTYLE11
  0
MTEXT
  5
EA
330
1F
100
AcDbEntity
  8
SCHRIFTFELD
 62
   250
100
AcDbMText
 10
385.2523931507
 20
87.7337788969
 30
0.0
 40
3.75
 41
0.0
 71
     1
 72
     1
  1
Gewicht
  7
SLDTEXTSTYLE12
  0
MTEXT
  5
EC
330
1F
100
AcDbEntity
  8
SCHRIFTFELD
 62
   250
100
AcDbMText
 10
307.4717269832
 20
87.7337788969
 30
0.0
 40
3.75
 41
0.0
 71
     1
 72
     1
  1
Maßstab 1:1,5
  7
SLDTEXTSTYLE13
  0
MTEXT
  5
EE
330
1F
100
AcDbEntity
  8
SCHRIFTFELD
 62
   250
100
AcDbMText
 10
307.4717269832
 20
78.1712788969
 30
0.0
 40
3.75
 41
0.0
 71
     1
 72
     1
  1
Werkstoff
  7
SLDTEXTSTYLE14
  0
MTEXT
  5
EF
330
1F
100
AcDbEntity
  8
SCHRIFTFELD
 62
   250
100
AcDbMText
 10
256.0125
 20
56.4297031836
 30
0.0
 40
3.0
 41
0.0
 71
     1
 72
     1
  1
07.01.2014
  7
SLDTEXTSTYLE13
  0
MTEXT
  5
F0
330
1F
100
AcDbEntity
  8
SCHRIFTFELD
 62
   250
100
AcDbMText
 10
279.4125
 20
56.4297031836
 30
0.0
 40
3.0
 41
0.0
 71
     1
 72
     1
  1
CH
  7
SLDTEXTSTYLE13
  0
MTEXT
  5
F1
330
1F
100
AcDbEntity
  8
SCHRIFTFELD
 62
   250
100
AcDbMText
 10
406.5073931507
 20
87.7337788969
 30
0.0
 40
3.75
 41
0.0
 71
     1
 72
     1
  1
0,298kg
  7
SLDTEXTSTYLE13
  0
MTEXT
  5
F2
330
1F
100
AcDbEntity
  8
SCHRIFTFELD
 62
   250
100
AcDbMText
 10
419.7937300862
 20
19.1725550848
 30
0.0
 40
3.75
 41
0.0
 71
     1
 72
     1
  1
1
  7
SLDTEXTSTYLE13
  0
MTEXT
  5
F3
330
1F
100
AcDbEntity
  8
SCHRIFTFELD
 62
   250
100
AcDbMText
 10
427.6687300862
 20
27.0475550848
 30
0.0
 40
3.75
 41
0.0
 71
     1
 72
     1
  1
1
  7
SLDTEXTSTYLE13
  0
MTEXT
  5
F4
330
1F
100
AcDbEntity
  8
SCHRIFTFELD
 62
   250
100
AcDbMText
 10
330.5792269832
 20
73.852931358
 30
0.0
 40
6.0
 41
0.0
 71
     1
 72
     1
  1
1.4301
  7
SLDTEXTSTYLE13
  0
MTEXT
  5
F5
330
1F
100
AcDbEntity
  8
SCHRIFTFELD
 62
   250
100
AcDbMText
 10
347.50078125
 20
52.6680078125
 30
0.0
 40
7.5
 41
0.0
 71
     1
 72
     1
  1
70211-240
  7
SLDTEXTSTYLE13
  0
ENDSEC
  0
SECTION
  2
OBJECTS
  0
DICTIONARY
  5
C
330
0
100
AcDbDictionary
  3
ACAD_GROUP
350
D
  3
ACAD_MLINESTYLE
350
17
  3
ACAD_SCALELIST
350
47
1001
ACAD
1000
TREAT_AS_HARD
1070
     0
  0
DICTIONARY
  5
D
102
{ACAD_REACTORS
330
C
102
}
330
C
100
AcDbDictionary
1001
ACAD
1000
TREAT_AS_HARD
1070
     0
  0
DICTIONARY
  5
17
102
{ACAD_REACTORS
330
C
102
}
330
C
100
AcDbDictionary
  3
STANDARD
350
18
1001
ACAD
1000
TREAT_AS_HARD
1070
     0
  0
DICTIONARY
  5
47
102
{ACAD_REACTORS
330
C
102
}
330
C
100
AcDbDictionary
1001
ACAD
1000
TREAT_AS_HARD
1070
     0
  0
MLINESTYLE
  5
18
102
{ACAD_REACTORS
330
17
102
}
330
17
100
AcDbMlineStyle
  2
Standard
 70
     0
  3

 62
   256
 51
90.0
 52
90.0
 71
     2
 49
0.5
 62
   256
  6
BYLAYER
 49
-0.5
 62
   256
  6
BYLAYER
  0
ENDSEC
  0
EOF
