ISO-10303-21;
HEADER;
FILE_DESCRIPTION (( 'STEP AP203' ),
    '1' );
FILE_NAME ('51015-240.STEP',
    '2016-05-20T08:01:18',
    ( '' ),
    ( '' ),
    'SwSTEP 2.0',
    'SolidWorks 2015',
    '' );
FILE_SCHEMA (( 'CONFIG_CONTROL_DESIGN' ));
ENDSEC;

DATA;
#1 = APPROVAL_DATE_TIME ( #199, #230 ) ;
#2 = PERSON_AND_ORGANIZATION ( #244, #6 ) ;
#3 = VERTEX_POINT ( 'NONE', #188 ) ;
#4 =( NAMED_UNIT ( * ) PLANE_ANGLE_UNIT ( ) SI_UNIT ( $, .RADIAN. ) );
#5 = FACE_OUTER_BOUND ( 'NONE', #34, .T. ) ;
#6 = ORGANIZATION ( 'UNSPECIFIED', 'UNSPECIFIED', '' ) ;
#7 = CYLINDRICAL_SURFACE ( 'NONE', #79, 2.099999999999997900 ) ;
#8 = DIRECTION ( 'NONE',  ( -0.0000000000000000000, -1.000000000000000000, -0.0000000000000000000 ) ) ;
#9 = DIRECTION ( 'NONE',  ( 0.0000000000000000000, 0.0000000000000000000, 1.000000000000000000 ) ) ;
#10 = EDGE_CURVE ( 'NONE', #176, #278, #146, .T. ) ;
#11 =( NAMED_UNIT ( * ) SI_UNIT ( $, .STERADIAN. ) SOLID_ANGLE_UNIT ( ) );
#12 = APPLICATION_PROTOCOL_DEFINITION ( 'international standard', 'config_control_design', 1994, #202 ) ;
#13 = CC_DESIGN_PERSON_AND_ORGANIZATION_ASSIGNMENT ( #2, #275, ( #93 ) ) ;
#14 = CARTESIAN_POINT ( 'NONE',  ( 0.0000000000000000000, 0.3287681812469229700, 0.0000000000000000000 ) ) ;
#15 = EDGE_CURVE ( 'NONE', #278, #41, #161, .T. ) ;
#16 = FACE_OUTER_BOUND ( 'NONE', #24, .T. ) ;
#17 = CIRCLE ( 'NONE', #290, 2.099999999999997400 ) ;
#18 = VECTOR ( 'NONE', #61, 1000.000000000000000 ) ;
#19 = AXIS2_PLACEMENT_3D ( 'NONE', #221, #116, #114 ) ;
#20 = VECTOR ( 'NONE', #283, 1000.000000000000000 ) ;
#21 = DIRECTION ( 'NONE',  ( -0.0000000000000000000, -1.000000000000000000, -0.0000000000000000000 ) ) ;
#22 = CARTESIAN_POINT ( 'NONE',  ( 3.092233167847066500E-016, 0.0000000000000000000, 2.524999999999999900 ) ) ;
#23 = ORIENTED_EDGE ( 'NONE', *, *, #97, .T. ) ;
#24 = EDGE_LOOP ( 'NONE', ( #77, #109, #80, #40 ) ) ;
#25 = EDGE_CURVE ( 'NONE', #3, #200, #89, .T. ) ;
#26 = ORIENTED_EDGE ( 'NONE', *, *, #10, .F. ) ;
#27 = CALENDAR_DATE ( 2016, 20, 5 ) ;
#28 = CC_DESIGN_APPROVAL ( #127, ( #189 ) ) ;
#29 = EDGE_LOOP ( 'NONE', ( #72, #243, #208, #218, #209 ) ) ;
#30 = CC_DESIGN_SECURITY_CLASSIFICATION ( #189, ( #115 ) ) ;
#31 = ORIENTED_EDGE ( 'NONE', *, *, #25, .T. ) ;
#32 = CC_DESIGN_APPROVAL ( #130, ( #115 ) ) ;
#33 = EDGE_LOOP ( 'NONE', ( #26, #224, #184, #190 ) ) ;
#34 = EDGE_LOOP ( 'NONE', ( #145, #225, #178, #198, #62 ) ) ;
#35 = AXIS2_PLACEMENT_3D ( 'NONE', #76, #73, #100 ) ;
#36 = CARTESIAN_POINT ( 'NONE',  ( 0.0000000000000000000, 0.0000000000000000000, -2.099999999999997900 ) ) ;
#37 = PERSON_AND_ORGANIZATION ( #244, #6 ) ;
#38 = CIRCLE ( 'NONE', #120, 2.196231818753075600 ) ;
#39 = CYLINDRICAL_SURFACE ( 'NONE', #126, 2.099999999999997900 ) ;
#40 = ORIENTED_EDGE ( 'NONE', *, *, #141, .F. ) ;
#41 = VERTEX_POINT ( 'NONE', #279 ) ;
#42 = CARTESIAN_POINT ( 'NONE',  ( 0.0000000000000000000, 7.500000000000000000, 0.0000000000000000000 ) ) ;
#43 = ORIENTED_EDGE ( 'NONE', *, *, #141, .T. ) ;
#44 = DIRECTION ( 'NONE',  ( -0.0000000000000000000, -0.0000000000000000000, -1.000000000000000000 ) ) ;
#45 =( GEOMETRIC_REPRESENTATION_CONTEXT ( 3 ) GLOBAL_UNCERTAINTY_ASSIGNED_CONTEXT ( ( #46 ) ) GLOBAL_UNIT_ASSIGNED_CONTEXT ( ( #66, #4, #11 ) ) REPRESENTATION_CONTEXT ( 'NONE', 'WORKASPACE' ) );
#46 = UNCERTAINTY_MEASURE_WITH_UNIT (LENGTH_MEASURE( 1.000000000000000100E-005 ), #66, 'distance_accuracy_value', 'NONE');
#47 = VECTOR ( 'NONE', #212, 1000.000000000000000 ) ;
#48 = CARTESIAN_POINT ( 'NONE',  ( 0.0000000000000000000, 7.500000000000000000, 0.0000000000000000000 ) ) ;
#49 = VERTEX_POINT ( 'NONE', #267 ) ;
#50 = EDGE_CURVE ( 'NONE', #170, #200, #215, .T. ) ;
#51 = DIRECTION ( 'NONE',  ( -0.0000000000000000000, -1.000000000000000000, -0.0000000000000000000 ) ) ;
#52 = ORIENTED_EDGE ( 'NONE', *, *, #106, .F. ) ;
#53 = EDGE_LOOP ( 'NONE', ( #105, #125, #52, #287 ) ) ;
#54 = DIRECTION ( 'NONE',  ( -0.0000000000000000000, -0.0000000000000000000, -1.000000000000000000 ) ) ;
#55 = CARTESIAN_POINT ( 'NONE',  ( 0.0000000000000000000, 0.0000000000000000000, 0.0000000000000000000 ) ) ;
#56 = SHAPE_DEFINITION_REPRESENTATION ( #63, #291 ) ;
#57 = PERSON_AND_ORGANIZATION ( #244, #6 ) ;
#58 = CIRCLE ( 'NONE', #74, 2.099999999999998800 ) ;
#59 = EDGE_LOOP ( 'NONE', ( #205, #23, #206 ) ) ;
#60 = CC_DESIGN_DATE_AND_TIME_ASSIGNMENT ( #222, #157, ( #93 ) ) ;
#61 = DIRECTION ( 'NONE',  ( 8.659560562354947600E-017, -0.7071067811865464600, 0.7071067811865486800 ) ) ;
#62 = ORIENTED_EDGE ( 'NONE', *, *, #266, .T. ) ;
#63 = PRODUCT_DEFINITION_SHAPE ( 'NONE', 'NONE',  #93 ) ;
#64 = CALENDAR_DATE ( 2016, 20, 5 ) ;
#65 = FACE_OUTER_BOUND ( 'NONE', #256, .T. ) ;
#66 =( LENGTH_UNIT ( ) NAMED_UNIT ( * ) SI_UNIT ( .MILLI., .METRE. ) );
#67 = CARTESIAN_POINT ( 'NONE',  ( 0.0000000000000000000, 0.0000000000000000000, 0.0000000000000000000 ) ) ;
#68 = CARTESIAN_POINT ( 'NONE',  ( 0.0000000000000000000, 12.00000000000000000, -2.099999999999997400 ) ) ;
#69 = DIRECTION ( 'NONE',  ( -1.000000000000000000, 0.0000000000000000000, 0.0000000000000000000 ) ) ;
#70 = CARTESIAN_POINT ( 'NONE',  ( 2.196231818753075200, 0.3287681812469234200, -2.689608267021523300E-016 ) ) ;
#71 = AXIS2_PLACEMENT_3D ( 'NONE', #172, #164, #181 ) ;
#72 = ORIENTED_EDGE ( 'NONE', *, *, #102, .F. ) ;
#73 = DIRECTION ( 'NONE',  ( -1.224646799147353200E-016, 0.0000000000000000000, -1.000000000000000000 ) ) ;
#74 = AXIS2_PLACEMENT_3D ( 'NONE', #177, #295, #294 ) ;
#75 = CARTESIAN_POINT ( 'NONE',  ( 0.0000000000000000000, 12.00000000000000000, 0.0000000000000000000 ) ) ;
#76 = CARTESIAN_POINT ( 'NONE',  ( 0.0000000000000000000, 7.500000000000000000, 0.0000000000000000000 ) ) ;
#77 = ORIENTED_EDGE ( 'NONE', *, *, #83, .F. ) ;
#78 = FACE_OUTER_BOUND ( 'NONE', #53, .T. ) ;
#79 = AXIS2_PLACEMENT_3D ( 'NONE', #134, #147, #152 ) ;
#80 = ORIENTED_EDGE ( 'NONE', *, *, #102, .T. ) ;
#81 = CARTESIAN_POINT ( 'NONE',  ( -3.248205972160483300E-015, 13.26180729995787600, 0.0000000000000000000 ) ) ;
#82 = LINE ( 'NONE', #111, #87 ) ;
#83 = EDGE_CURVE ( 'NONE', #170, #49, #17, .T. ) ;
#84 = PERSON_AND_ORGANIZATION_ROLE ( 'design_supplier' ) ;
#85 = CARTESIAN_POINT ( 'NONE',  ( 2.571758278209440000E-016, 0.4250000000000000400, 2.099999999999998800 ) ) ;
#86 = ORIENTED_EDGE ( 'NONE', *, *, #97, .F. ) ;
#87 = VECTOR ( 'NONE', #103, 1000.000000000000000 ) ;
#88 = CONICAL_SURFACE ( 'NONE', #274, 2.524999999999999900, 0.7853981633974498300 ) ;
#89 = CIRCLE ( 'NONE', #158, 2.099999999999998800 ) ;
#90 = LINE ( 'NONE', #36, #20 ) ;
#91 = PRODUCT_RELATED_PRODUCT_CATEGORY ( 'detail', '', ( #104 ) ) ;
#92 = CARTESIAN_POINT ( 'NONE',  ( 2.571758278209438500E-016, 12.00000000000000000, 2.099999999999997400 ) ) ;
#93 = PRODUCT_DEFINITION ( 'UNKNOWN', '', #115, #112 ) ;
#94 = CLOSED_SHELL ( 'NONE', ( #155, #240, #241, #263, #261, #238, #259, #262 ) ) ;
#95 = CIRCLE ( 'NONE', #194, 2.099999999999997400 ) ;
#96 = CONICAL_SURFACE ( 'NONE', #71, 2.099999999999997400, 1.029744258676653400 ) ;
#97 = EDGE_CURVE ( 'NONE', #165, #170, #131, .T. ) ;
#98 = CARTESIAN_POINT ( 'NONE',  ( -4.592425496802574000E-016, 15.00000000000000000, 0.0000000000000000000 ) ) ;
#99 = DIRECTION ( 'NONE',  ( -0.0000000000000000000, -1.000000000000000000, -0.0000000000000000000 ) ) ;
#100 = DIRECTION ( 'NONE',  ( -1.000000000000000000, 0.0000000000000000000, 1.224646799147353000E-016 ) ) ;
#101 = EDGE_CURVE ( 'NONE', #165, #49, #140, .T. ) ;
#102 = EDGE_CURVE ( 'NONE', #200, #3, #58, .T. ) ;
#103 = DIRECTION ( 'NONE',  ( 0.0000000000000000000, -0.7071067811865464600, -0.7071067811865486800 ) ) ;
#104 = PRODUCT ( '51015-240', '51015-240', '', ( #272 ) ) ;
#105 = ORIENTED_EDGE ( 'NONE', *, *, #159, .F. ) ;
#106 = EDGE_CURVE ( 'NONE', #217, #278, #226, .T. ) ;
#107 = AXIS2_PLACEMENT_3D ( 'NONE', #48, #44, #286 ) ;
#108 = PERSON_AND_ORGANIZATION ( #244, #6 ) ;
#109 = ORIENTED_EDGE ( 'NONE', *, *, #50, .T. ) ;
#110 = AXIS2_PLACEMENT_3D ( 'NONE', #75, #196, #139 ) ;
#111 = CARTESIAN_POINT ( 'NONE',  ( 0.0000000000000000000, 0.0000000000000000000, -2.524999999999999900 ) ) ;
#112 = DESIGN_CONTEXT ( 'detailed design', #257, 'design' ) ;
#113 = DIRECTION ( 'NONE',  ( 1.000000000000000000, 0.0000000000000000000, 0.0000000000000000000 ) ) ;
#114 = DIRECTION ( 'NONE',  ( 0.0000000000000000000, 0.0000000000000000000, 1.000000000000000000 ) ) ;
#115 = PRODUCT_DEFINITION_FORMATION_WITH_SPECIFIED_SOURCE ( 'ANY', '', #104, .NOT_KNOWN. ) ;
#116 = DIRECTION ( 'NONE',  ( -0.0000000000000000000, -1.000000000000000000, -0.0000000000000000000 ) ) ;
#117 = CC_DESIGN_PERSON_AND_ORGANIZATION_ASSIGNMENT ( #185, #84, ( #115 ) ) ;
#118 = CC_DESIGN_DATE_AND_TIME_ASSIGNMENT ( #216, #203, ( #189 ) ) ;
#119 = CARTESIAN_POINT ( 'NONE',  ( 0.0000000000000000000, 0.3287681812469229700, 0.0000000000000000000 ) ) ;
#120 = AXIS2_PLACEMENT_3D ( 'NONE', #135, #8, #9 ) ;
#121 = ORIENTED_EDGE ( 'NONE', *, *, #129, .F. ) ;
#122 = CALENDAR_DATE ( 2016, 20, 5 ) ;
#123 = CC_DESIGN_PERSON_AND_ORGANIZATION_ASSIGNMENT ( #37, #207, ( #189 ) ) ;
#124 = VECTOR ( 'NONE', #219, 1000.000000000000000 ) ;
#125 = ORIENTED_EDGE ( 'NONE', *, *, #10, .T. ) ;
#126 = AXIS2_PLACEMENT_3D ( 'NONE', #142, #166, #228 ) ;
#127 = APPROVAL ( #252, 'UNSPECIFIED' ) ;
#128 = CC_DESIGN_PERSON_AND_ORGANIZATION_ASSIGNMENT ( #57, #249, ( #115 ) ) ;
#129 = EDGE_CURVE ( 'NONE', #49, #170, #95, .T. ) ;
#130 = APPROVAL ( #280, 'UNSPECIFIED' ) ;
#131 = LINE ( 'NONE', #193, #47 ) ;
#132 = AXIS2_PLACEMENT_3D ( 'NONE', #55, #235, #251 ) ;
#133 = AXIS2_PLACEMENT_3D ( 'NONE', #67, #234, #270 ) ;
#134 = CARTESIAN_POINT ( 'NONE',  ( 0.0000000000000000000, 0.0000000000000000000, 0.0000000000000000000 ) ) ;
#135 = CARTESIAN_POINT ( 'NONE',  ( 0.0000000000000000000, 0.3287681812469229700, 0.0000000000000000000 ) ) ;
#136 = CC_DESIGN_APPROVAL ( #230, ( #93 ) ) ;
#137 = FACE_OUTER_BOUND ( 'NONE', #160, .T. ) ;
#138 = AXIS2_PLACEMENT_3D ( 'NONE', #282, #163, #113 ) ;
#139 = DIRECTION ( 'NONE',  ( 0.0000000000000000000, 0.0000000000000000000, -1.000000000000000000 ) ) ;
#140 = LINE ( 'NONE', #68, #124 ) ;
#141 = EDGE_CURVE ( 'NONE', #49, #3, #90, .T. ) ;
#142 = CARTESIAN_POINT ( 'NONE',  ( 0.0000000000000000000, 0.0000000000000000000, 0.0000000000000000000 ) ) ;
#143 = ORIENTED_EDGE ( 'NONE', *, *, #101, .T. ) ;
#144 = APPROVAL_PERSON_ORGANIZATION ( #265, #127, #186 ) ;
#145 = ORIENTED_EDGE ( 'NONE', *, *, #264, .F. ) ;
#146 = CIRCLE ( 'NONE', #138, 7.500000000000000000 ) ;
#147 = DIRECTION ( 'NONE',  ( -0.0000000000000000000, -1.000000000000000000, -0.0000000000000000000 ) ) ;
#148 = APPROVAL_DATE_TIME ( #277, #130 ) ;
#149 = LOCAL_TIME ( 10, 1, 18.00000000000000000, #269 ) ;
#150 = CARTESIAN_POINT ( 'NONE',  ( 2.571758278209439000E-016, 0.0000000000000000000, 2.099999999999997900 ) ) ;
#151 = DIRECTION ( 'NONE',  ( 0.0000000000000000000, 0.0000000000000000000, 1.000000000000000000 ) ) ;
#152 = DIRECTION ( 'NONE',  ( 0.0000000000000000000, 0.0000000000000000000, -1.000000000000000000 ) ) ;
#153 = PERSON_AND_ORGANIZATION ( #244, #6 ) ;
#154 = CARTESIAN_POINT ( 'NONE',  ( 2.689608267021524300E-016, 0.3287681812469229700, 2.196231818753076000 ) ) ;
#155 = ADVANCED_FACE ( 'NONE', ( #213 ), #88, .F. ) ;
#156 = LOCAL_TIME ( 10, 1, 18.00000000000000000, #210 ) ;
#157 = DATE_TIME_ROLE ( 'creation_date' ) ;
#158 = AXIS2_PLACEMENT_3D ( 'NONE', #187, #253, #260 ) ;
#159 = EDGE_CURVE ( 'NONE', #176, #201, #254, .T. ) ;
#160 = EDGE_LOOP ( 'NONE', ( #86, #143, #220 ) ) ;
#161 = CIRCLE ( 'NONE', #236, 2.196231818753075600 ) ;
#162 = VECTOR ( 'NONE', #281, 1000.000000000000000 ) ;
#163 = DIRECTION ( 'NONE',  ( -0.0000000000000000000, 0.0000000000000000000, 1.000000000000000000 ) ) ;
#164 = DIRECTION ( 'NONE',  ( -0.0000000000000000000, -1.000000000000000000, -0.0000000000000000000 ) ) ;
#165 = VERTEX_POINT ( 'NONE', #81 ) ;
#166 = DIRECTION ( 'NONE',  ( -0.0000000000000000000, -1.000000000000000000, -0.0000000000000000000 ) ) ;
#167 = DIRECTION ( 'NONE',  ( -0.0000000000000000000, -1.000000000000000000, -0.0000000000000000000 ) ) ;
#168 = ORIENTED_EDGE ( 'NONE', *, *, #50, .F. ) ;
#169 = APPROVAL_PERSON_ORGANIZATION ( #153, #230, #248 ) ;
#170 = VERTEX_POINT ( 'NONE', #92 ) ;
#171 = CARTESIAN_POINT ( 'NONE',  ( 0.0000000000000000000, 12.00000000000000000, 0.0000000000000000000 ) ) ;
#172 = CARTESIAN_POINT ( 'NONE',  ( 0.0000000000000000000, 12.00000000000000000, 0.0000000000000000000 ) ) ;
#173 = LINE ( 'NONE', #22, #18 ) ;
#174 = CONICAL_SURFACE ( 'NONE', #132, 2.524999999999999900, 0.7853981633974498300 ) ;
#175 = AXIS2_PLACEMENT_3D ( 'NONE', #119, #51, #232 ) ;
#176 = VERTEX_POINT ( 'NONE', #98 ) ;
#177 = CARTESIAN_POINT ( 'NONE',  ( 0.0000000000000000000, 0.4250000000000000400, 0.0000000000000000000 ) ) ;
#178 = ORIENTED_EDGE ( 'NONE', *, *, #233, .T. ) ;
#179 = CALENDAR_DATE ( 2016, 20, 5 ) ;
#180 = APPROVAL_DATE_TIME ( #258, #127 ) ;
#181 = DIRECTION ( 'NONE',  ( 0.0000000000000000000, 0.0000000000000000000, -1.000000000000000000 ) ) ;
#182 = CC_DESIGN_PERSON_AND_ORGANIZATION_ASSIGNMENT ( #276, #255, ( #104 ) ) ;
#183 = SPHERICAL_SURFACE ( 'NONE', #197, 7.500000000000000000 ) ;
#184 = ORIENTED_EDGE ( 'NONE', *, *, #191, .F. ) ;
#185 = PERSON_AND_ORGANIZATION ( #244, #6 ) ;
#186 = APPROVAL_ROLE ( '' ) ;
#187 = CARTESIAN_POINT ( 'NONE',  ( 0.0000000000000000000, 0.4250000000000000400, 0.0000000000000000000 ) ) ;
#188 = CARTESIAN_POINT ( 'NONE',  ( 0.0000000000000000000, 0.4250000000000000400, -2.099999999999998800 ) ) ;
#189 = SECURITY_CLASSIFICATION ( '', '', #204 ) ;
#190 = ORIENTED_EDGE ( 'NONE', *, *, #15, .F. ) ;
#191 = EDGE_CURVE ( 'NONE', #41, #201, #247, .T. ) ;
#192 = APPROVAL_PERSON_ORGANIZATION ( #108, #130, #211 ) ;
#193 = CARTESIAN_POINT ( 'NONE',  ( 2.571758278209438500E-016, 12.00000000000000000, 2.099999999999997400 ) ) ;
#194 = AXIS2_PLACEMENT_3D ( 'NONE', #171, #289, #214 ) ;
#195 = CONICAL_SURFACE ( 'NONE', #110, 2.099999999999997400, 1.029744258676653400 ) ;
#196 = DIRECTION ( 'NONE',  ( -0.0000000000000000000, -1.000000000000000000, -0.0000000000000000000 ) ) ;
#197 = AXIS2_PLACEMENT_3D ( 'NONE', #42, #54, #69 ) ;
#198 = ORIENTED_EDGE ( 'NONE', *, *, #191, .T. ) ;
#199 = DATE_AND_TIME ( #179, #250 ) ;
#200 = VERTEX_POINT ( 'NONE', #85 ) ;
#201 = VERTEX_POINT ( 'NONE', #70 ) ;
#202 = APPLICATION_CONTEXT ( 'configuration controlled 3d designs of mechanical parts and assemblies' ) ;
#203 = DATE_TIME_ROLE ( 'classification_date' ) ;
#204 = SECURITY_CLASSIFICATION_LEVEL ( 'unclassified' ) ;
#205 = ORIENTED_EDGE ( 'NONE', *, *, #101, .F. ) ;
#206 = ORIENTED_EDGE ( 'NONE', *, *, #83, .T. ) ;
#207 = PERSON_AND_ORGANIZATION_ROLE ( 'classification_officer' ) ;
#208 = ORIENTED_EDGE ( 'NONE', *, *, #106, .T. ) ;
#209 = ORIENTED_EDGE ( 'NONE', *, *, #233, .F. ) ;
#210 = COORDINATED_UNIVERSAL_TIME_OFFSET ( 1, 0, .AHEAD. ) ;
#211 = APPROVAL_ROLE ( '' ) ;
#212 = DIRECTION ( 'NONE',  ( 1.049727191138618000E-016, -0.5150380749100550400, 0.8571673007021117800 ) ) ;
#213 = FACE_OUTER_BOUND ( 'NONE', #29, .T. ) ;
#214 = DIRECTION ( 'NONE',  ( 0.0000000000000000000, 0.0000000000000000000, -1.000000000000000000 ) ) ;
#215 = LINE ( 'NONE', #150, #162 ) ;
#216 = DATE_AND_TIME ( #122, #288 ) ;
#217 = VERTEX_POINT ( 'NONE', #154 ) ;
#218 = ORIENTED_EDGE ( 'NONE', *, *, #15, .T. ) ;
#219 = DIRECTION ( 'NONE',  ( 0.0000000000000000000, -0.5150380749100550400, -0.8571673007021117800 ) ) ;
#220 = ORIENTED_EDGE ( 'NONE', *, *, #129, .T. ) ;
#221 = CARTESIAN_POINT ( 'NONE',  ( 0.0000000000000000000, 0.3287681812469229700, 0.0000000000000000000 ) ) ;
#222 = DATE_AND_TIME ( #64, #149 ) ;
#223 = MANIFOLD_SOLID_BREP ( 'M5 Gewindebohrung2', #94 ) ;
#224 = ORIENTED_EDGE ( 'NONE', *, *, #159, .T. ) ;
#225 = ORIENTED_EDGE ( 'NONE', *, *, #25, .F. ) ;
#226 = CIRCLE ( 'NONE', #175, 2.196231818753075600 ) ;
#227 = CARTESIAN_POINT ( 'NONE',  ( 0.0000000000000000000, 0.0000000000000000000, 0.0000000000000000000 ) ) ;
#228 = DIRECTION ( 'NONE',  ( 0.0000000000000000000, 0.0000000000000000000, -1.000000000000000000 ) ) ;
#229 = DIRECTION ( 'NONE',  ( 0.0000000000000000000, 0.0000000000000000000, -1.000000000000000000 ) ) ;
#230 = APPROVAL ( #273, 'UNSPECIFIED' ) ;
#231 = COORDINATED_UNIVERSAL_TIME_OFFSET ( 1, 0, .AHEAD. ) ;
#232 = DIRECTION ( 'NONE',  ( 0.0000000000000000000, 0.0000000000000000000, 1.000000000000000000 ) ) ;
#233 = EDGE_CURVE ( 'NONE', #3, #41, #82, .T. ) ;
#234 = DIRECTION ( 'NONE',  ( 0.0000000000000000000, 0.0000000000000000000, 1.000000000000000000 ) ) ;
#235 = DIRECTION ( 'NONE',  ( -0.0000000000000000000, -1.000000000000000000, -0.0000000000000000000 ) ) ;
#236 = AXIS2_PLACEMENT_3D ( 'NONE', #14, #21, #151 ) ;
#237 = SPHERICAL_SURFACE ( 'NONE', #107, 7.500000000000000000 ) ;
#238 = ADVANCED_FACE ( 'NONE', ( #137 ), #96, .F. ) ;
#239 = CALENDAR_DATE ( 2016, 20, 5 ) ;
#240 = ADVANCED_FACE ( 'NONE', ( #16 ), #7, .F. ) ;
#241 = ADVANCED_FACE ( 'NONE', ( #268 ), #195, .F. ) ;
#242 = LOCAL_TIME ( 10, 1, 18.00000000000000000, #292 ) ;
#243 = ORIENTED_EDGE ( 'NONE', *, *, #264, .T. ) ;
#244 = PERSON ( 'UNSPECIFIED', 'UNSPECIFIED', 'UNSPECIFIED', ('UNSPECIFIED'), ('UNSPECIFIED'), ('UNSPECIFIED') ) ;
#245 = COORDINATED_UNIVERSAL_TIME_OFFSET ( 1, 0, .AHEAD. ) ;
#246 = FACE_OUTER_BOUND ( 'NONE', #33, .T. ) ;
#247 = CIRCLE ( 'NONE', #19, 2.196231818753075600 ) ;
#248 = APPROVAL_ROLE ( '' ) ;
#249 = PERSON_AND_ORGANIZATION_ROLE ( 'creator' ) ;
#250 = LOCAL_TIME ( 10, 1, 18.00000000000000000, #231 ) ;
#251 = DIRECTION ( 'NONE',  ( 0.0000000000000000000, 0.0000000000000000000, -1.000000000000000000 ) ) ;
#252 = APPROVAL_STATUS ( 'not_yet_approved' ) ;
#253 = DIRECTION ( 'NONE',  ( -0.0000000000000000000, -1.000000000000000000, -0.0000000000000000000 ) ) ;
#254 = CIRCLE ( 'NONE', #35, 7.500000000000000000 ) ;
#255 = PERSON_AND_ORGANIZATION_ROLE ( 'design_owner' ) ;
#256 = EDGE_LOOP ( 'NONE', ( #168, #121, #43, #31 ) ) ;
#257 = APPLICATION_CONTEXT ( 'configuration controlled 3d designs of mechanical parts and assemblies' ) ;
#258 = DATE_AND_TIME ( #239, #242 ) ;
#259 = ADVANCED_FACE ( 'NONE', ( #65 ), #39, .F. ) ;
#260 = DIRECTION ( 'NONE',  ( 0.0000000000000000000, 0.0000000000000000000, -1.000000000000000000 ) ) ;
#261 = ADVANCED_FACE ( 'NONE', ( #78 ), #237, .T. ) ;
#262 = ADVANCED_FACE ( 'NONE', ( #5 ), #174, .F. ) ;
#263 = ADVANCED_FACE ( 'NONE', ( #246 ), #183, .T. ) ;
#264 = EDGE_CURVE ( 'NONE', #200, #217, #173, .T. ) ;
#265 = PERSON_AND_ORGANIZATION ( #244, #6 ) ;
#266 = EDGE_CURVE ( 'NONE', #201, #217, #38, .T. ) ;
#267 = CARTESIAN_POINT ( 'NONE',  ( 0.0000000000000000000, 12.00000000000000000, -2.099999999999997400 ) ) ;
#268 = FACE_OUTER_BOUND ( 'NONE', #59, .T. ) ;
#269 = COORDINATED_UNIVERSAL_TIME_OFFSET ( 1, 0, .AHEAD. ) ;
#270 = DIRECTION ( 'NONE',  ( 1.000000000000000000, 0.0000000000000000000, 0.0000000000000000000 ) ) ;
#271 = APPLICATION_PROTOCOL_DEFINITION ( 'international standard', 'config_control_design', 1994, #257 ) ;
#272 = MECHANICAL_CONTEXT ( 'NONE', #202, 'mechanical' ) ;
#273 = APPROVAL_STATUS ( 'not_yet_approved' ) ;
#274 = AXIS2_PLACEMENT_3D ( 'NONE', #227, #99, #284 ) ;
#275 = PERSON_AND_ORGANIZATION_ROLE ( 'creator' ) ;
#276 = PERSON_AND_ORGANIZATION ( #244, #6 ) ;
#277 = DATE_AND_TIME ( #27, #156 ) ;
#278 = VERTEX_POINT ( 'NONE', #293 ) ;
#279 = CARTESIAN_POINT ( 'NONE',  ( 0.0000000000000000000, 0.3287681812469229700, -2.196231818753076000 ) ) ;
#280 = APPROVAL_STATUS ( 'not_yet_approved' ) ;
#281 = DIRECTION ( 'NONE',  ( -0.0000000000000000000, -1.000000000000000000, -0.0000000000000000000 ) ) ;
#282 = CARTESIAN_POINT ( 'NONE',  ( 0.0000000000000000000, 7.500000000000000000, 0.0000000000000000000 ) ) ;
#283 = DIRECTION ( 'NONE',  ( -0.0000000000000000000, -1.000000000000000000, -0.0000000000000000000 ) ) ;
#284 = DIRECTION ( 'NONE',  ( 0.0000000000000000000, 0.0000000000000000000, -1.000000000000000000 ) ) ;
#285 = CARTESIAN_POINT ( 'NONE',  ( 0.0000000000000000000, 12.00000000000000000, 0.0000000000000000000 ) ) ;
#286 = DIRECTION ( 'NONE',  ( -1.000000000000000000, 0.0000000000000000000, 0.0000000000000000000 ) ) ;
#287 = ORIENTED_EDGE ( 'NONE', *, *, #266, .F. ) ;
#288 = LOCAL_TIME ( 10, 1, 18.00000000000000000, #245 ) ;
#289 = DIRECTION ( 'NONE',  ( -0.0000000000000000000, -1.000000000000000000, -0.0000000000000000000 ) ) ;
#290 = AXIS2_PLACEMENT_3D ( 'NONE', #285, #167, #229 ) ;
#291 = ADVANCED_BREP_SHAPE_REPRESENTATION ( '51015-240', ( #223, #133 ), #45 ) ;
#292 = COORDINATED_UNIVERSAL_TIME_OFFSET ( 1, 0, .AHEAD. ) ;
#293 = CARTESIAN_POINT ( 'NONE',  ( -2.196231818753075200, 0.3287681812469234200, 0.0000000000000000000 ) ) ;
#294 = DIRECTION ( 'NONE',  ( 0.0000000000000000000, 0.0000000000000000000, -1.000000000000000000 ) ) ;
#295 = DIRECTION ( 'NONE',  ( -0.0000000000000000000, -1.000000000000000000, -0.0000000000000000000 ) ) ;
ENDSEC;
END-ISO-10303-21;
