ISO-10303-21;
HEADER;
FILE_DESCRIPTION (( 'STEP AP203' ),
    '1' );
FILE_NAME ('51020-V4A.STEP',
    '2016-05-20T08:17:08',
    ( '' ),
    ( '' ),
    'SwSTEP 2.0',
    'SolidWorks 2015',
    '' );
FILE_SCHEMA (( 'CONFIG_CONTROL_DESIGN' ));
ENDSEC;

DATA;
#1 = ORIENTED_EDGE ( 'NONE', *, *, #200, .F. ) ;
#2 = DIRECTION ( 'NONE',  ( 0.0000000000000000000, -0.5150380749100562600, -0.8571673007021111100 ) ) ;
#3 = DIRECTION ( 'NONE',  ( -0.0000000000000000000, -1.000000000000000000, -0.0000000000000000000 ) ) ;
#4 = FACE_OUTER_BOUND ( 'NONE', #8, .T. ) ;
#5 = CARTESIAN_POINT ( 'NONE',  ( 0.0000000000000000000, 0.0000000000000000000, 0.0000000000000000000 ) ) ;
#6 = PERSON_AND_ORGANIZATION ( #114, #141 ) ;
#7 = PERSON_AND_ORGANIZATION ( #114, #141 ) ;
#8 = EDGE_LOOP ( 'NONE', ( #182, #29, #112, #127 ) ) ;
#9 = AXIS2_PLACEMENT_3D ( 'NONE', #144, #165, #101 ) ;
#10 = ORIENTED_EDGE ( 'NONE', *, *, #96, .T. ) ;
#11 = AXIS2_PLACEMENT_3D ( 'NONE', #225, #95, #252 ) ;
#12 = PRODUCT_DEFINITION_FORMATION_WITH_SPECIFIED_SOURCE ( 'ANY', '', #168, .NOT_KNOWN. ) ;
#13 = CALENDAR_DATE ( 2016, 20, 5 ) ;
#14 = SPHERICAL_SURFACE ( 'NONE', #31, 10.00000000000000200 ) ;
#15 = ORIENTED_EDGE ( 'NONE', *, *, #40, .F. ) ;
#16 = SPHERICAL_SURFACE ( 'NONE', #59, 10.00000000000000200 ) ;
#17 = APPROVAL_ROLE ( '' ) ;
#18 = LOCAL_TIME ( 10, 17, 8.000000000000000000, #83 ) ;
#19 = CARTESIAN_POINT ( 'NONE',  ( -6.123233995736767300E-016, 20.00000000000000400, 0.0000000000000000000 ) ) ;
#20 = DIRECTION ( 'NONE',  ( -0.0000000000000000000, -1.000000000000000000, -0.0000000000000000000 ) ) ;
#21 = DIRECTION ( 'NONE',  ( -0.0000000000000000000, -1.000000000000000000, -0.0000000000000000000 ) ) ;
#22 = DIRECTION ( 'NONE',  ( 1.000000000000000000, 0.0000000000000000000, 0.0000000000000000000 ) ) ;
#23 = PERSON_AND_ORGANIZATION ( #114, #141 ) ;
#24 = ORIENTED_EDGE ( 'NONE', *, *, #103, .F. ) ;
#25 = EDGE_CURVE ( 'NONE', #54, #198, #268, .T. ) ;
#26 = CARTESIAN_POINT ( 'NONE',  ( 0.0000000000000000000, 0.5249999999999976900, 0.0000000000000000000 ) ) ;
#27 = CARTESIAN_POINT ( 'NONE',  ( 0.0000000000000000000, 16.00000000000000000, 0.0000000000000000000 ) ) ;
#28 = CIRCLE ( 'NONE', #45, 2.663706690560802700 ) ;
#29 = ORIENTED_EDGE ( 'NONE', *, *, #203, .T. ) ;
#30 = VERTEX_POINT ( 'NONE', #142 ) ;
#31 = AXIS2_PLACEMENT_3D ( 'NONE', #231, #277, #38 ) ;
#32 = ADVANCED_FACE ( 'NONE', ( #236 ), #199, .F. ) ;
#33 = APPROVAL_ROLE ( '' ) ;
#34 = APPLICATION_PROTOCOL_DEFINITION ( 'international standard', 'config_control_design', 1994, #192 ) ;
#35 = VECTOR ( 'NONE', #71, 1000.000000000000000 ) ;
#36 = VECTOR ( 'NONE', #2, 1000.000000000000000 ) ;
#37 = PERSON_AND_ORGANIZATION ( #114, #141 ) ;
#38 = DIRECTION ( 'NONE',  ( -1.000000000000000000, 0.0000000000000000000, 0.0000000000000000000 ) ) ;
#39 = CONICAL_SURFACE ( 'NONE', #77, 2.499999999999995600, 1.029744258676652100 ) ;
#40 = EDGE_CURVE ( 'NONE', #30, #190, #276, .T. ) ;
#41 = CIRCLE ( 'NONE', #11, 2.663706690560802700 ) ;
#42 = FACE_OUTER_BOUND ( 'NONE', #235, .T. ) ;
#43 = APPLICATION_CONTEXT ( 'configuration controlled 3d designs of mechanical parts and assemblies' ) ;
#44 = ADVANCED_FACE ( 'NONE', ( #42 ), #149, .F. ) ;
#45 = AXIS2_PLACEMENT_3D ( 'NONE', #154, #21, #177 ) ;
#46 = DIRECTION ( 'NONE',  ( 0.0000000000000000000, 0.0000000000000000000, -1.000000000000000000 ) ) ;
#47 = DIRECTION ( 'NONE',  ( 0.0000000000000000000, 0.0000000000000000000, 1.000000000000000000 ) ) ;
#48 = ADVANCED_FACE ( 'NONE', ( #51 ), #263, .F. ) ;
#49 = DIRECTION ( 'NONE',  ( -1.000000000000000000, 0.0000000000000000000, 1.224646799147353200E-016 ) ) ;
#50 = VERTEX_POINT ( 'NONE', #111 ) ;
#51 = FACE_OUTER_BOUND ( 'NONE', #271, .T. ) ;
#52 = AXIS2_PLACEMENT_3D ( 'NONE', #122, #261, #22 ) ;
#53 = DATE_TIME_ROLE ( 'classification_date' ) ;
#54 = VERTEX_POINT ( 'NONE', #218 ) ;
#55 = PRODUCT_RELATED_PRODUCT_CATEGORY ( 'detail', '', ( #168 ) ) ;
#56 = PERSON_AND_ORGANIZATION_ROLE ( 'design_owner' ) ;
#57 = AXIS2_PLACEMENT_3D ( 'NONE', #221, #92, #249 ) ;
#58 = LOCAL_TIME ( 10, 17, 8.000000000000000000, #135 ) ;
#59 = AXIS2_PLACEMENT_3D ( 'NONE', #284, #146, #186 ) ;
#60 = CARTESIAN_POINT ( 'NONE',  ( -2.663706690560803100, 0.3612933094391951300, 0.0000000000000000000 ) ) ;
#61 = CALENDAR_DATE ( 2016, 20, 5 ) ;
#62 = DIRECTION ( 'NONE',  ( 1.049727191138617200E-016, -0.5150380749100562600, 0.8571673007021111100 ) ) ;
#63 = DIRECTION ( 'NONE',  ( 0.0000000000000000000, 0.0000000000000000000, -1.000000000000000000 ) ) ;
#64 = CARTESIAN_POINT ( 'NONE',  ( 3.061616997868379200E-016, 0.0000000000000000000, 2.499999999999996900 ) ) ;
#65 = FACE_OUTER_BOUND ( 'NONE', #292, .T. ) ;
#66 = PERSON_AND_ORGANIZATION ( #114, #141 ) ;
#67 = PRODUCT_DEFINITION ( 'UNKNOWN', '', #12, #215 ) ;
#68 = DIRECTION ( 'NONE',  ( 0.0000000000000000000, 0.0000000000000000000, -1.000000000000000000 ) ) ;
#69 = AXIS2_PLACEMENT_3D ( 'NONE', #72, #205, #47 ) ;
#70 = EDGE_CURVE ( 'NONE', #254, #128, #166, .T. ) ;
#71 = DIRECTION ( 'NONE',  ( -0.0000000000000000000, -1.000000000000000000, -0.0000000000000000000 ) ) ;
#72 = CARTESIAN_POINT ( 'NONE',  ( 0.0000000000000000000, 0.3612933094391951300, 0.0000000000000000000 ) ) ;
#73 = CARTESIAN_POINT ( 'NONE',  ( 0.0000000000000000000, 10.00000000000000200, 0.0000000000000000000 ) ) ;
#74 = VERTEX_POINT ( 'NONE', #60 ) ;
#75 = PERSON_AND_ORGANIZATION ( #114, #141 ) ;
#76 = AXIS2_PLACEMENT_3D ( 'NONE', #100, #118, #82 ) ;
#77 = AXIS2_PLACEMENT_3D ( 'NONE', #250, #89, #275 ) ;
#78 = ADVANCED_BREP_SHAPE_REPRESENTATION ( '51020-V4A', ( #266, #76 ), #108 ) ;
#79 = CLOSED_SHELL ( 'NONE', ( #44, #32, #91, #273, #208, #174, #240, #48 ) ) ;
#80 = CC_DESIGN_PERSON_AND_ORGANIZATION_ASSIGNMENT ( #244, #56, ( #168 ) ) ;
#81 = SECURITY_CLASSIFICATION_LEVEL ( 'unclassified' ) ;
#82 = DIRECTION ( 'NONE',  ( 1.000000000000000000, 0.0000000000000000000, 0.0000000000000000000 ) ) ;
#83 = COORDINATED_UNIVERSAL_TIME_OFFSET ( 1, 0, .AHEAD. ) ;
#84 = CC_DESIGN_PERSON_AND_ORGANIZATION_ASSIGNMENT ( #66, #104, ( #12 ) ) ;
#85 = ORIENTED_EDGE ( 'NONE', *, *, #260, .T. ) ;
#86 = EDGE_CURVE ( 'NONE', #30, #254, #278, .T. ) ;
#87 = COORDINATED_UNIVERSAL_TIME_OFFSET ( 1, 0, .AHEAD. ) ;
#88 = APPROVAL_PERSON_ORGANIZATION ( #193, #147, #267 ) ;
#89 = DIRECTION ( 'NONE',  ( -0.0000000000000000000, -1.000000000000000000, -0.0000000000000000000 ) ) ;
#90 = CARTESIAN_POINT ( 'NONE',  ( 3.061616997868377700E-016, 16.00000000000000000, 2.499999999999995600 ) ) ;
#91 = ADVANCED_FACE ( 'NONE', ( #134 ), #39, .F. ) ;
#92 = DIRECTION ( 'NONE',  ( -0.0000000000000000000, -1.000000000000000000, -0.0000000000000000000 ) ) ;
#93 = CARTESIAN_POINT ( 'NONE',  ( 0.0000000000000000000, 0.5249999999999976900, 0.0000000000000000000 ) ) ;
#94 = ORIENTED_EDGE ( 'NONE', *, *, #260, .F. ) ;
#95 = DIRECTION ( 'NONE',  ( -0.0000000000000000000, -1.000000000000000000, -0.0000000000000000000 ) ) ;
#96 = EDGE_CURVE ( 'NONE', #128, #50, #41, .T. ) ;
#97 = CARTESIAN_POINT ( 'NONE',  ( 0.0000000000000000000, 0.0000000000000000000, 0.0000000000000000000 ) ) ;
#98 = APPROVAL_PERSON_ORGANIZATION ( #7, #159, #17 ) ;
#99 = CARTESIAN_POINT ( 'NONE',  ( -4.286790774184430100E-015, 17.50215154756890400, 0.0000000000000000000 ) ) ;
#100 = CARTESIAN_POINT ( 'NONE',  ( 0.0000000000000000000, 0.0000000000000000000, 0.0000000000000000000 ) ) ;
#101 = DIRECTION ( 'NONE',  ( 0.0000000000000000000, 0.0000000000000000000, -1.000000000000000000 ) ) ;
#102 = APPROVAL ( #191, 'UNSPECIFIED' ) ;
#103 = EDGE_CURVE ( 'NONE', #190, #74, #228, .T. ) ;
#104 = PERSON_AND_ORGANIZATION_ROLE ( 'creator' ) ;
#105 = FACE_OUTER_BOUND ( 'NONE', #291, .T. ) ;
#106 = LOCAL_TIME ( 10, 17, 8.000000000000000000, #87 ) ;
#107 = ORIENTED_EDGE ( 'NONE', *, *, #203, .F. ) ;
#108 =( GEOMETRIC_REPRESENTATION_CONTEXT ( 3 ) GLOBAL_UNCERTAINTY_ASSIGNED_CONTEXT ( ( #153 ) ) GLOBAL_UNIT_ASSIGNED_CONTEXT ( ( #175, #160, #279 ) ) REPRESENTATION_CONTEXT ( 'NONE', 'WORKASPACE' ) );
#109 = COORDINATED_UNIVERSAL_TIME_OFFSET ( 1, 0, .AHEAD. ) ;
#110 = LOCAL_TIME ( 10, 17, 8.000000000000000000, #109 ) ;
#111 = CARTESIAN_POINT ( 'NONE',  ( 2.663706690560803100, 0.3612933094391951300, -3.262099872462676100E-016 ) ) ;
#112 = ORIENTED_EDGE ( 'NONE', *, *, #96, .F. ) ;
#113 = LINE ( 'NONE', #64, #140 ) ;
#114 = PERSON ( 'UNSPECIFIED', 'UNSPECIFIED', 'UNSPECIFIED', ('UNSPECIFIED'), ('UNSPECIFIED'), ('UNSPECIFIED') ) ;
#115 = DIRECTION ( 'NONE',  ( 0.0000000000000000000, 0.0000000000000000000, -1.000000000000000000 ) ) ;
#116 = CONICAL_SURFACE ( 'NONE', #229, 2.499999999999995600, 1.029744258676652100 ) ;
#117 = EDGE_CURVE ( 'NONE', #265, #198, #286, .T. ) ;
#118 = DIRECTION ( 'NONE',  ( 0.0000000000000000000, 0.0000000000000000000, 1.000000000000000000 ) ) ;
#119 = APPROVAL_DATE_TIME ( #172, #159 ) ;
#120 = VECTOR ( 'NONE', #272, 1000.000000000000000 ) ;
#121 = DIRECTION ( 'NONE',  ( 0.0000000000000000000, 0.0000000000000000000, -1.000000000000000000 ) ) ;
#122 = CARTESIAN_POINT ( 'NONE',  ( 0.0000000000000000000, 10.00000000000000200, 0.0000000000000000000 ) ) ;
#123 = DIRECTION ( 'NONE',  ( -0.0000000000000000000, -1.000000000000000000, -0.0000000000000000000 ) ) ;
#124 = VECTOR ( 'NONE', #62, 1000.000000000000000 ) ;
#125 = CIRCLE ( 'NONE', #52, 10.00000000000000200 ) ;
#126 = DATE_AND_TIME ( #13, #18 ) ;
#127 = ORIENTED_EDGE ( 'NONE', *, *, #220, .F. ) ;
#128 = VERTEX_POINT ( 'NONE', #274 ) ;
#129 = APPROVAL_STATUS ( 'not_yet_approved' ) ;
#130 = EDGE_CURVE ( 'NONE', #50, #190, #28, .T. ) ;
#131 = DATE_AND_TIME ( #222, #227 ) ;
#132 = ORIENTED_EDGE ( 'NONE', *, *, #25, .T. ) ;
#133 = DATE_AND_TIME ( #61, #110 ) ;
#134 = FACE_OUTER_BOUND ( 'NONE', #184, .T. ) ;
#135 = COORDINATED_UNIVERSAL_TIME_OFFSET ( 1, 0, .AHEAD. ) ;
#136 = CARTESIAN_POINT ( 'NONE',  ( 0.0000000000000000000, 0.0000000000000000000, 0.0000000000000000000 ) ) ;
#137 = DIRECTION ( 'NONE',  ( -0.0000000000000000000, -1.000000000000000000, -0.0000000000000000000 ) ) ;
#138 = AXIS2_PLACEMENT_3D ( 'NONE', #93, #224, #63 ) ;
#139 = AXIS2_PLACEMENT_3D ( 'NONE', #262, #123, #234 ) ;
#140 = VECTOR ( 'NONE', #20, 1000.000000000000000 ) ;
#141 = ORGANIZATION ( 'UNSPECIFIED', 'UNSPECIFIED', '' ) ;
#142 = CARTESIAN_POINT ( 'NONE',  ( 3.061616997868380700E-016, 0.5249999999999976900, 2.499999999999998200 ) ) ;
#143 = SECURITY_CLASSIFICATION ( '', '', #81 ) ;
#144 = CARTESIAN_POINT ( 'NONE',  ( 0.0000000000000000000, 0.0000000000000000000, 0.0000000000000000000 ) ) ;
#145 = CC_DESIGN_APPROVAL ( #159, ( #67 ) ) ;
#146 = DIRECTION ( 'NONE',  ( -0.0000000000000000000, -0.0000000000000000000, -1.000000000000000000 ) ) ;
#147 = APPROVAL ( #129, 'UNSPECIFIED' ) ;
#148 = ORIENTED_EDGE ( 'NONE', *, *, #200, .T. ) ;
#149 = CONICAL_SURFACE ( 'NONE', #188, 3.024999999999999900, 0.7853981633974520500 ) ;
#150 = PERSON_AND_ORGANIZATION_ROLE ( 'creator' ) ;
#151 = CC_DESIGN_PERSON_AND_ORGANIZATION_ASSIGNMENT ( #37, #209, ( #143 ) ) ;
#152 = FACE_OUTER_BOUND ( 'NONE', #242, .T. ) ;
#153 = UNCERTAINTY_MEASURE_WITH_UNIT (LENGTH_MEASURE( 1.000000000000000100E-005 ), #175, 'distance_accuracy_value', 'NONE');
#154 = CARTESIAN_POINT ( 'NONE',  ( 0.0000000000000000000, 0.3612933094391951300, 0.0000000000000000000 ) ) ;
#155 = CIRCLE ( 'NONE', #210, 10.00000000000000200 ) ;
#156 = EDGE_CURVE ( 'NONE', #265, #54, #189, .T. ) ;
#157 = ORIENTED_EDGE ( 'NONE', *, *, #40, .T. ) ;
#158 = EDGE_CURVE ( 'NONE', #198, #30, #113, .T. ) ;
#159 = APPROVAL ( #170, 'UNSPECIFIED' ) ;
#160 =( NAMED_UNIT ( * ) PLANE_ANGLE_UNIT ( ) SI_UNIT ( $, .RADIAN. ) );
#161 = CALENDAR_DATE ( 2016, 20, 5 ) ;
#162 = CARTESIAN_POINT ( 'NONE',  ( 0.0000000000000000000, 0.0000000000000000000, -2.499999999999996900 ) ) ;
#163 = ORIENTED_EDGE ( 'NONE', *, *, #213, .T. ) ;
#164 = CC_DESIGN_PERSON_AND_ORGANIZATION_ASSIGNMENT ( #6, #239, ( #12 ) ) ;
#165 = DIRECTION ( 'NONE',  ( -0.0000000000000000000, -1.000000000000000000, -0.0000000000000000000 ) ) ;
#166 = LINE ( 'NONE', #247, #120 ) ;
#167 = CC_DESIGN_PERSON_AND_ORGANIZATION_ASSIGNMENT ( #23, #150, ( #67 ) ) ;
#168 = PRODUCT ( '51020-V4A', '51020-V4A', '', ( #212 ) ) ;
#169 = ORIENTED_EDGE ( 'NONE', *, *, #156, .T. ) ;
#170 = APPROVAL_STATUS ( 'not_yet_approved' ) ;
#171 = ORIENTED_EDGE ( 'NONE', *, *, #117, .T. ) ;
#172 = DATE_AND_TIME ( #161, #106 ) ;
#173 = CC_DESIGN_DATE_AND_TIME_ASSIGNMENT ( #133, #53, ( #143 ) ) ;
#174 = ADVANCED_FACE ( 'NONE', ( #65 ), #116, .F. ) ;
#175 =( LENGTH_UNIT ( ) NAMED_UNIT ( * ) SI_UNIT ( .MILLI., .METRE. ) );
#176 = DIRECTION ( 'NONE',  ( 0.0000000000000000000, 0.0000000000000000000, -1.000000000000000000 ) ) ;
#177 = DIRECTION ( 'NONE',  ( 0.0000000000000000000, 0.0000000000000000000, 1.000000000000000000 ) ) ;
#178 = CARTESIAN_POINT ( 'NONE',  ( 3.704556567420743300E-016, 0.0000000000000000000, 3.024999999999999900 ) ) ;
#179 = DIRECTION ( 'NONE',  ( -0.0000000000000000000, -1.000000000000000000, -0.0000000000000000000 ) ) ;
#180 = APPLICATION_PROTOCOL_DEFINITION ( 'international standard', 'config_control_design', 1994, #43 ) ;
#181 = AXIS2_PLACEMENT_3D ( 'NONE', #136, #179, #68 ) ;
#182 = ORIENTED_EDGE ( 'NONE', *, *, #213, .F. ) ;
#183 = DIRECTION ( 'NONE',  ( -0.0000000000000000000, -1.000000000000000000, -0.0000000000000000000 ) ) ;
#184 = EDGE_LOOP ( 'NONE', ( #217, #171, #148 ) ) ;
#185 = ORIENTED_EDGE ( 'NONE', *, *, #158, .F. ) ;
#186 = DIRECTION ( 'NONE',  ( -1.000000000000000000, 0.0000000000000000000, 0.0000000000000000000 ) ) ;
#187 = AXIS2_PLACEMENT_3D ( 'NONE', #5, #255, #121 ) ;
#188 = AXIS2_PLACEMENT_3D ( 'NONE', #97, #201, #259 ) ;
#189 = LINE ( 'NONE', #196, #36 ) ;
#190 = VERTEX_POINT ( 'NONE', #241 ) ;
#191 = APPROVAL_STATUS ( 'not_yet_approved' ) ;
#192 = APPLICATION_CONTEXT ( 'configuration controlled 3d designs of mechanical parts and assemblies' ) ;
#193 = PERSON_AND_ORGANIZATION ( #114, #141 ) ;
#194 = ORIENTED_EDGE ( 'NONE', *, *, #251, .T. ) ;
#195 = EDGE_LOOP ( 'NONE', ( #1, #238, #270, #94 ) ) ;
#196 = CARTESIAN_POINT ( 'NONE',  ( 0.0000000000000000000, 16.00000000000000000, -2.499999999999995600 ) ) ;
#197 = CYLINDRICAL_SURFACE ( 'NONE', #9, 2.499999999999996900 ) ;
#198 = VERTEX_POINT ( 'NONE', #219 ) ;
#199 = CYLINDRICAL_SURFACE ( 'NONE', #187, 2.499999999999996900 ) ;
#200 = EDGE_CURVE ( 'NONE', #198, #54, #223, .T. ) ;
#201 = DIRECTION ( 'NONE',  ( -0.0000000000000000000, -1.000000000000000000, -0.0000000000000000000 ) ) ;
#202 = CC_DESIGN_APPROVAL ( #102, ( #143 ) ) ;
#203 = EDGE_CURVE ( 'NONE', #287, #50, #155, .T. ) ;
#204 = ORIENTED_EDGE ( 'NONE', *, *, #130, .F. ) ;
#205 = DIRECTION ( 'NONE',  ( -0.0000000000000000000, -1.000000000000000000, -0.0000000000000000000 ) ) ;
#206 = SHAPE_DEFINITION_REPRESENTATION ( #256, #78 ) ;
#207 = DIRECTION ( 'NONE',  ( -1.224646799147353200E-016, 0.0000000000000000000, -1.000000000000000000 ) ) ;
#208 = ADVANCED_FACE ( 'NONE', ( #105 ), #16, .T. ) ;
#209 = PERSON_AND_ORGANIZATION_ROLE ( 'classification_officer' ) ;
#210 = AXIS2_PLACEMENT_3D ( 'NONE', #73, #207, #49 ) ;
#211 = ORIENTED_EDGE ( 'NONE', *, *, #220, .T. ) ;
#212 = MECHANICAL_CONTEXT ( 'NONE', #43, 'mechanical' ) ;
#213 = EDGE_CURVE ( 'NONE', #287, #74, #125, .T. ) ;
#214 = CIRCLE ( 'NONE', #245, 2.499999999999998200 ) ;
#215 = DESIGN_CONTEXT ( 'detailed design', #192, 'design' ) ;
#216 = ORIENTED_EDGE ( 'NONE', *, *, #251, .F. ) ;
#217 = ORIENTED_EDGE ( 'NONE', *, *, #156, .F. ) ;
#218 = CARTESIAN_POINT ( 'NONE',  ( 0.0000000000000000000, 16.00000000000000000, -2.499999999999995600 ) ) ;
#219 = CARTESIAN_POINT ( 'NONE',  ( 3.061616997868377700E-016, 16.00000000000000000, 2.499999999999995600 ) ) ;
#220 = EDGE_CURVE ( 'NONE', #74, #128, #269, .T. ) ;
#221 = CARTESIAN_POINT ( 'NONE',  ( 0.0000000000000000000, 0.3612933094391951300, 0.0000000000000000000 ) ) ;
#222 = CALENDAR_DATE ( 2016, 20, 5 ) ;
#223 = CIRCLE ( 'NONE', #139, 2.499999999999995600 ) ;
#224 = DIRECTION ( 'NONE',  ( -0.0000000000000000000, -1.000000000000000000, -0.0000000000000000000 ) ) ;
#225 = CARTESIAN_POINT ( 'NONE',  ( 0.0000000000000000000, 0.3612933094391951300, 0.0000000000000000000 ) ) ;
#226 = DIRECTION ( 'NONE',  ( 8.659560562354964900E-017, -0.7071067811865449100, 0.7071067811865501300 ) ) ;
#227 = LOCAL_TIME ( 10, 17, 8.000000000000000000, #282 ) ;
#228 = CIRCLE ( 'NONE', #57, 2.663706690560802700 ) ;
#229 = AXIS2_PLACEMENT_3D ( 'NONE', #293, #137, #176 ) ;
#230 = ORIENTED_EDGE ( 'NONE', *, *, #25, .F. ) ;
#231 = CARTESIAN_POINT ( 'NONE',  ( 0.0000000000000000000, 10.00000000000000200, 0.0000000000000000000 ) ) ;
#232 = ORIENTED_EDGE ( 'NONE', *, *, #130, .T. ) ;
#233 = CARTESIAN_POINT ( 'NONE',  ( 0.0000000000000000000, 0.5249999999999976900, -2.499999999999998200 ) ) ;
#234 = DIRECTION ( 'NONE',  ( 0.0000000000000000000, 0.0000000000000000000, -1.000000000000000000 ) ) ;
#235 = EDGE_LOOP ( 'NONE', ( #257, #157, #285, #211, #290 ) ) ;
#236 = FACE_OUTER_BOUND ( 'NONE', #195, .T. ) ;
#237 = AXIS2_PLACEMENT_3D ( 'NONE', #27, #3, #115 ) ;
#238 = ORIENTED_EDGE ( 'NONE', *, *, #158, .T. ) ;
#239 = PERSON_AND_ORGANIZATION_ROLE ( 'design_supplier' ) ;
#240 = ADVANCED_FACE ( 'NONE', ( #152 ), #197, .F. ) ;
#241 = CARTESIAN_POINT ( 'NONE',  ( 3.262099872462675600E-016, 0.3612933094391951900, 2.663706690560802200 ) ) ;
#242 = EDGE_LOOP ( 'NONE', ( #185, #230, #85, #194 ) ) ;
#243 = DATE_AND_TIME ( #281, #58 ) ;
#244 = PERSON_AND_ORGANIZATION ( #114, #141 ) ;
#245 = AXIS2_PLACEMENT_3D ( 'NONE', #26, #183, #46 ) ;
#246 = CC_DESIGN_DATE_AND_TIME_ASSIGNMENT ( #243, #288, ( #67 ) ) ;
#247 = CARTESIAN_POINT ( 'NONE',  ( 0.0000000000000000000, 0.0000000000000000000, -3.024999999999999900 ) ) ;
#248 = ORIENTED_EDGE ( 'NONE', *, *, #117, .F. ) ;
#249 = DIRECTION ( 'NONE',  ( 0.0000000000000000000, 0.0000000000000000000, 1.000000000000000000 ) ) ;
#250 = CARTESIAN_POINT ( 'NONE',  ( 0.0000000000000000000, 16.00000000000000000, 0.0000000000000000000 ) ) ;
#251 = EDGE_CURVE ( 'NONE', #254, #30, #214, .T. ) ;
#252 = DIRECTION ( 'NONE',  ( 0.0000000000000000000, 0.0000000000000000000, 1.000000000000000000 ) ) ;
#253 = CC_DESIGN_APPROVAL ( #147, ( #12 ) ) ;
#254 = VERTEX_POINT ( 'NONE', #233 ) ;
#255 = DIRECTION ( 'NONE',  ( -0.0000000000000000000, -1.000000000000000000, -0.0000000000000000000 ) ) ;
#256 = PRODUCT_DEFINITION_SHAPE ( 'NONE', 'NONE',  #67 ) ;
#257 = ORIENTED_EDGE ( 'NONE', *, *, #86, .F. ) ;
#258 = LINE ( 'NONE', #162, #35 ) ;
#259 = DIRECTION ( 'NONE',  ( 0.0000000000000000000, 0.0000000000000000000, -1.000000000000000000 ) ) ;
#260 = EDGE_CURVE ( 'NONE', #54, #254, #258, .T. ) ;
#261 = DIRECTION ( 'NONE',  ( -0.0000000000000000000, 0.0000000000000000000, 1.000000000000000000 ) ) ;
#262 = CARTESIAN_POINT ( 'NONE',  ( 0.0000000000000000000, 16.00000000000000000, 0.0000000000000000000 ) ) ;
#263 = CONICAL_SURFACE ( 'NONE', #181, 3.024999999999999900, 0.7853981633974520500 ) ;
#264 = ORIENTED_EDGE ( 'NONE', *, *, #70, .T. ) ;
#265 = VERTEX_POINT ( 'NONE', #99 ) ;
#266 = MANIFOLD_SOLID_BREP ( 'M6 Gewindebohrung2', #79 ) ;
#267 = APPROVAL_ROLE ( '' ) ;
#268 = CIRCLE ( 'NONE', #237, 2.499999999999995600 ) ;
#269 = CIRCLE ( 'NONE', #69, 2.663706690560802700 ) ;
#270 = ORIENTED_EDGE ( 'NONE', *, *, #86, .T. ) ;
#271 = EDGE_LOOP ( 'NONE', ( #15, #216, #264, #10, #232 ) ) ;
#272 = DIRECTION ( 'NONE',  ( 0.0000000000000000000, -0.7071067811865449100, -0.7071067811865501300 ) ) ;
#273 = ADVANCED_FACE ( 'NONE', ( #4 ), #14, .T. ) ;
#274 = CARTESIAN_POINT ( 'NONE',  ( 0.0000000000000000000, 0.3612933094391951900, -2.663706690560802200 ) ) ;
#275 = DIRECTION ( 'NONE',  ( 0.0000000000000000000, 0.0000000000000000000, -1.000000000000000000 ) ) ;
#276 = LINE ( 'NONE', #178, #280 ) ;
#277 = DIRECTION ( 'NONE',  ( -0.0000000000000000000, -0.0000000000000000000, -1.000000000000000000 ) ) ;
#278 = CIRCLE ( 'NONE', #138, 2.499999999999998200 ) ;
#279 =( NAMED_UNIT ( * ) SI_UNIT ( $, .STERADIAN. ) SOLID_ANGLE_UNIT ( ) );
#280 = VECTOR ( 'NONE', #226, 1000.000000000000000 ) ;
#281 = CALENDAR_DATE ( 2016, 20, 5 ) ;
#282 = COORDINATED_UNIVERSAL_TIME_OFFSET ( 1, 0, .AHEAD. ) ;
#283 = APPROVAL_DATE_TIME ( #131, #102 ) ;
#284 = CARTESIAN_POINT ( 'NONE',  ( 0.0000000000000000000, 10.00000000000000200, 0.0000000000000000000 ) ) ;
#285 = ORIENTED_EDGE ( 'NONE', *, *, #103, .T. ) ;
#286 = LINE ( 'NONE', #90, #124 ) ;
#287 = VERTEX_POINT ( 'NONE', #19 ) ;
#288 = DATE_TIME_ROLE ( 'creation_date' ) ;
#289 = APPROVAL_DATE_TIME ( #126, #147 ) ;
#290 = ORIENTED_EDGE ( 'NONE', *, *, #70, .F. ) ;
#291 = EDGE_LOOP ( 'NONE', ( #107, #163, #24, #204 ) ) ;
#292 = EDGE_LOOP ( 'NONE', ( #248, #169, #132 ) ) ;
#293 = CARTESIAN_POINT ( 'NONE',  ( 0.0000000000000000000, 16.00000000000000000, 0.0000000000000000000 ) ) ;
#294 = APPROVAL_PERSON_ORGANIZATION ( #75, #102, #33 ) ;
#295 = CC_DESIGN_SECURITY_CLASSIFICATION ( #143, ( #12 ) ) ;
ENDSEC;
END-ISO-10303-21;
