ISO-10303-21;
HEADER;
FILE_DESCRIPTION (( 'STEP AP203' ),
    '1' );
FILE_NAME ('51020-240.step',
    '2023-09-08T07:10:49',
    ( '' ),
    ( '' ),
    'SwSTEP 2.0',
    'SolidWorks 2018',
    '' );
FILE_SCHEMA (( 'CONFIG_CONTROL_DESIGN' ));
ENDSEC;

DATA;
#1 = CYLINDRICAL_SURFACE ( 'NONE', #59, 2.499999999999988454 ) ;
#2 = LOCAL_TIME ( 9, 10, 49.00000000000000000, #15 ) ;
#3 = AXIS2_PLACEMENT_3D ( 'NONE', #125, #45, #57 ) ;
#4 = DIRECTION ( 'NONE',  ( -0.000000000000000000, -1.000000000000000000, -0.000000000000000000 ) ) ;
#5 = APPLICATION_PROTOCOL_DEFINITION ( 'international standard', 'config_control_design', 1994, #113 ) ;
#6 = CIRCLE ( 'NONE', #7, 2.499999999999986677 ) ;
#7 = AXIS2_PLACEMENT_3D ( 'NONE', #84, #101, #33 ) ;
#8 = DATE_TIME_ROLE ( 'creation_date' ) ;
#9 = DESIGN_CONTEXT ( 'detailed design', #124, 'design' ) ;
#10 = PERSON_AND_ORGANIZATION_ROLE ( 'design_supplier' ) ;
#11 = ADVANCED_BREP_SHAPE_REPRESENTATION ( '51020-240', ( #53, #3 ), #104 ) ;
#12 = ORIENTED_EDGE ( 'NONE', *, *, #116, .F. ) ;
#13 = CC_DESIGN_DATE_AND_TIME_ASSIGNMENT ( #88, #8, ( #98 ) ) ;
#14 = PERSON_AND_ORGANIZATION ( #83, #123 ) ;
#15 = COORDINATED_UNIVERSAL_TIME_OFFSET ( 1, 0, .AHEAD. ) ;
#16 = SHAPE_DEFINITION_REPRESENTATION ( #94, #11 ) ;
#17 = CARTESIAN_POINT ( 'NONE',  ( -6.933347799794072061E-32, 10.00000000000000178, 0.000000000000000000 ) ) ;
#18 = CARTESIAN_POINT ( 'NONE',  ( 0.000000000000000000, 0.000000000000000000, 0.000000000000000000 ) ) ;
#19 = APPROVAL_DATE_TIME ( #65, #46 ) ;
#20 = PERSON_AND_ORGANIZATION_ROLE ( 'design_owner' ) ;
#21 = APPROVAL_STATUS ( 'not_yet_approved' ) ;
#22 = PERSON_AND_ORGANIZATION_ROLE ( 'classification_officer' ) ;
#23 = APPROVAL_ROLE ( '' ) ;
#24 = PERSON_AND_ORGANIZATION ( #83, #123 ) ;
#25 = CC_DESIGN_APPROVAL ( #112, ( #63 ) ) ;
#26 = ORIENTED_EDGE ( 'NONE', *, *, #38, .T. ) ;
#27 = DATE_AND_TIME ( #39, #115 ) ;
#28 = DIRECTION ( 'NONE',  ( -0.000000000000000000, -1.000000000000000000, -0.000000000000000000 ) ) ;
#29 = DATE_AND_TIME ( #56, #58 ) ;
#30 = ADVANCED_FACE ( 'NONE', ( #64, #81 ), #1, .F. ) ;
#31 = DIRECTION ( 'NONE',  ( 0.000000000000000000, 0.000000000000000000, -1.000000000000000000 ) ) ;
#32 = CARTESIAN_POINT ( 'NONE',  ( 0.000000000000000000, 0.3175416344814545599, 2.499999999999988454 ) ) ;
#33 = DIRECTION ( 'NONE',  ( 0.000000000000000000, 0.000000000000000000, -1.000000000000000000 ) ) ;
#34 = APPROVAL_DATE_TIME ( #29, #112 ) ;
#35 = MECHANICAL_CONTEXT ( 'NONE', #113, 'mechanical' ) ;
#36 = COORDINATED_UNIVERSAL_TIME_OFFSET ( 1, 0, .AHEAD. ) ;
#37 = COORDINATED_UNIVERSAL_TIME_OFFSET ( 1, 0, .AHEAD. ) ;
#38 = EDGE_CURVE ( 'NONE', #47, #47, #6, .T. ) ;
#39 = CALENDAR_DATE ( 2023, 8, 9 ) ;
#40 = CALENDAR_DATE ( 2023, 8, 9 ) ;
#41 = EDGE_LOOP ( 'NONE', ( #66 ) ) ;
#42 = CC_DESIGN_SECURITY_CLASSIFICATION ( #82, ( #63 ) ) ;
#43 = AXIS2_PLACEMENT_3D ( 'NONE', #100, #4, #31 ) ;
#44 = FACE_OUTER_BOUND ( 'NONE', #92, .T. ) ;
#45 = DIRECTION ( 'NONE',  ( 0.000000000000000000, 0.000000000000000000, 1.000000000000000000 ) ) ;
#46 = APPROVAL ( #51, 'UNSPECIFIED' ) ;
#47 = VERTEX_POINT ( 'NONE', #121 ) ;
#48 = CC_DESIGN_APPROVAL ( #52, ( #98 ) ) ;
#49 = EDGE_LOOP ( 'NONE', ( #26 ) ) ;
#50 = DIRECTION ( 'NONE',  ( -0.000000000000000000, -1.000000000000000000, -0.000000000000000000 ) ) ;
#51 = APPROVAL_STATUS ( 'not_yet_approved' ) ;
#52 = APPROVAL ( #21, 'UNSPECIFIED' ) ;
#53 = MANIFOLD_SOLID_BREP ( 'M6 Gewindebohrung2', #117 ) ;
#54 = PERSON_AND_ORGANIZATION ( #83, #123 ) ;
#55 = PRODUCT_RELATED_PRODUCT_CATEGORY ( 'detail', '', ( #126 ) ) ;
#56 = CALENDAR_DATE ( 2023, 8, 9 ) ;
#57 = DIRECTION ( 'NONE',  ( 1.000000000000000000, 0.000000000000000000, 0.000000000000000000 ) ) ;
#58 = LOCAL_TIME ( 9, 10, 49.00000000000000000, #86 ) ;
#59 = AXIS2_PLACEMENT_3D ( 'NONE', #18, #28, #80 ) ;
#60 = APPROVAL_DATE_TIME ( #27, #52 ) ;
#61 = APPLICATION_PROTOCOL_DEFINITION ( 'international standard', 'config_control_design', 1994, #124 ) ;
#62 = APPROVAL_STATUS ( 'not_yet_approved' ) ;
#63 = PRODUCT_DEFINITION_FORMATION_WITH_SPECIFIED_SOURCE ( 'ANY', '', #126, .NOT_KNOWN. ) ;
#64 = FACE_OUTER_BOUND ( 'NONE', #41, .T. ) ;
#65 = DATE_AND_TIME ( #40, #120 ) ;
#66 = ORIENTED_EDGE ( 'NONE', *, *, #116, .T. ) ;
#67 = LOCAL_TIME ( 9, 10, 49.00000000000000000, #105 ) ;
#68 =( NAMED_UNIT ( * ) PLANE_ANGLE_UNIT ( ) SI_UNIT ( $, .RADIAN. ) );
#69 = PERSON_AND_ORGANIZATION ( #83, #123 ) ;
#70 = PERSON_AND_ORGANIZATION_ROLE ( 'creator' ) ;
#71 = PERSON_AND_ORGANIZATION_ROLE ( 'creator' ) ;
#72 = CC_DESIGN_PERSON_AND_ORGANIZATION_ASSIGNMENT ( #54, #71, ( #63 ) ) ;
#73 = EDGE_LOOP ( 'NONE', ( #128 ) ) ;
#74 = AXIS2_PLACEMENT_3D ( 'NONE', #17, #102, #119 ) ;
#75 = CC_DESIGN_PERSON_AND_ORGANIZATION_ASSIGNMENT ( #114, #22, ( #82 ) ) ;
#76 = SPHERICAL_SURFACE ( 'NONE', #74, 10.00000000000000178 ) ;
#77 = ADVANCED_FACE ( 'NONE', ( #93 ), #109, .F. ) ;
#78 = CIRCLE ( 'NONE', #99, 2.499999999999988454 ) ;
#79 = CARTESIAN_POINT ( 'NONE',  ( 0.000000000000000000, 0.3175416344814545599, 0.000000000000000000 ) ) ;
#80 = DIRECTION ( 'NONE',  ( 0.000000000000000000, 0.000000000000000000, -1.000000000000000000 ) ) ;
#81 = FACE_OUTER_BOUND ( 'NONE', #73, .T. ) ;
#82 = SECURITY_CLASSIFICATION ( '', '', #85 ) ;
#83 = PERSON ( 'UNSPECIFIED', 'UNSPECIFIED', 'UNSPECIFIED', ('UNSPECIFIED'), ('UNSPECIFIED'), ('UNSPECIFIED') ) ;
#84 = CARTESIAN_POINT ( 'NONE',  ( 0.000000000000000000, 17.00000000000000000, 0.000000000000000000 ) ) ;
#85 = SECURITY_CLASSIFICATION_LEVEL ( 'unclassified' ) ;
#86 = COORDINATED_UNIVERSAL_TIME_OFFSET ( 1, 0, .AHEAD. ) ;
#87 = APPROVAL_PERSON_ORGANIZATION ( #24, #46, #23 ) ;
#88 = DATE_AND_TIME ( #134, #67 ) ;
#89 = CC_DESIGN_DATE_AND_TIME_ASSIGNMENT ( #103, #129, ( #82 ) ) ;
#90 = PERSON_AND_ORGANIZATION ( #83, #123 ) ;
#91 = DIRECTION ( 'NONE',  ( 0.000000000000000000, 0.000000000000000000, 1.000000000000000000 ) ) ;
#92 = EDGE_LOOP ( 'NONE', ( #12 ) ) ;
#93 = FACE_OUTER_BOUND ( 'NONE', #49, .T. ) ;
#94 = PRODUCT_DEFINITION_SHAPE ( 'NONE', 'NONE',  #98 ) ;
#95 =( NAMED_UNIT ( * ) SI_UNIT ( $, .STERADIAN. ) SOLID_ANGLE_UNIT ( ) );
#96 = APPROVAL_PERSON_ORGANIZATION ( #69, #52, #133 ) ;
#97 = UNCERTAINTY_MEASURE_WITH_UNIT (LENGTH_MEASURE( 1.000000000000000082E-05 ), #107, 'distance_accuracy_value', 'NONE');
#98 = PRODUCT_DEFINITION ( 'UNKNOWN', '', #63, #9 ) ;
#99 = AXIS2_PLACEMENT_3D ( 'NONE', #79, #50, #91 ) ;
#100 = CARTESIAN_POINT ( 'NONE',  ( 0.000000000000000000, 17.00000000000000000, 0.000000000000000000 ) ) ;
#101 = DIRECTION ( 'NONE',  ( -0.000000000000000000, -1.000000000000000000, -0.000000000000000000 ) ) ;
#102 = DIRECTION ( 'NONE',  ( -0.000000000000000000, 0.000000000000000000, -1.000000000000000000 ) ) ;
#103 = DATE_AND_TIME ( #130, #2 ) ;
#104 =( GEOMETRIC_REPRESENTATION_CONTEXT ( 3 ) GLOBAL_UNCERTAINTY_ASSIGNED_CONTEXT ( ( #97 ) ) GLOBAL_UNIT_ASSIGNED_CONTEXT ( ( #107, #68, #95 ) ) REPRESENTATION_CONTEXT ( 'NONE', 'WORKASPACE' ) );
#105 = COORDINATED_UNIVERSAL_TIME_OFFSET ( 1, 0, .AHEAD. ) ;
#106 = PERSON_AND_ORGANIZATION ( #83, #123 ) ;
#107 =( LENGTH_UNIT ( ) NAMED_UNIT ( * ) SI_UNIT ( .MILLI., .METRE. ) );
#108 = CC_DESIGN_PERSON_AND_ORGANIZATION_ASSIGNMENT ( #111, #70, ( #98 ) ) ;
#109 = CONICAL_SURFACE ( 'NONE', #43, 2.499999999999986677, 1.029744258676651647 ) ;
#110 = ADVANCED_FACE ( 'NONE', ( #44 ), #76, .T. ) ;
#111 = PERSON_AND_ORGANIZATION ( #83, #123 ) ;
#112 = APPROVAL ( #62, 'UNSPECIFIED' ) ;
#113 = APPLICATION_CONTEXT ( 'configuration controlled 3d designs of mechanical parts and assemblies' ) ;
#114 = PERSON_AND_ORGANIZATION ( #83, #123 ) ;
#115 = LOCAL_TIME ( 9, 10, 49.00000000000000000, #37 ) ;
#116 = EDGE_CURVE ( 'NONE', #132, #132, #78, .T. ) ;
#117 = CLOSED_SHELL ( 'NONE', ( #110, #77, #30 ) ) ;
#118 = APPROVAL_PERSON_ORGANIZATION ( #14, #112, #135 ) ;
#119 = DIRECTION ( 'NONE',  ( -1.000000000000000000, -1.734723475976806848E-16, 0.000000000000000000 ) ) ;
#120 = LOCAL_TIME ( 9, 10, 49.00000000000000000, #36 ) ;
#121 = CARTESIAN_POINT ( 'NONE',  ( 0.000000000000000000, 17.00000000000000000, -2.499999999999986677 ) ) ;
#122 = CC_DESIGN_APPROVAL ( #46, ( #82 ) ) ;
#123 = ORGANIZATION ( 'UNSPECIFIED', 'UNSPECIFIED', '' ) ;
#124 = APPLICATION_CONTEXT ( 'configuration controlled 3d designs of mechanical parts and assemblies' ) ;
#125 = CARTESIAN_POINT ( 'NONE',  ( 0.000000000000000000, 0.000000000000000000, 0.000000000000000000 ) ) ;
#126 = PRODUCT ( '51020-240', '51020-240', '', ( #35 ) ) ;
#127 = CC_DESIGN_PERSON_AND_ORGANIZATION_ASSIGNMENT ( #106, #10, ( #63 ) ) ;
#128 = ORIENTED_EDGE ( 'NONE', *, *, #38, .F. ) ;
#129 = DATE_TIME_ROLE ( 'classification_date' ) ;
#130 = CALENDAR_DATE ( 2023, 8, 9 ) ;
#131 = CC_DESIGN_PERSON_AND_ORGANIZATION_ASSIGNMENT ( #90, #20, ( #126 ) ) ;
#132 = VERTEX_POINT ( 'NONE', #32 ) ;
#133 = APPROVAL_ROLE ( '' ) ;
#134 = CALENDAR_DATE ( 2023, 8, 9 ) ;
#135 = APPROVAL_ROLE ( '' ) ;
ENDSEC;
END-ISO-10303-21;
