ISO-10303-21;
HEADER;
FILE_DESCRIPTION (( 'STEP AP203' ),
    '1' );
FILE_NAME ('51025-V4A.STEP',
    '2016-05-20T08:23:07',
    ( '' ),
    ( '' ),
    'SwSTEP 2.0',
    'SolidWorks 2015',
    '' );
FILE_SCHEMA (( 'CONFIG_CONTROL_DESIGN' ));
ENDSEC;

DATA;
#1 = AXIS2_PLACEMENT_3D ( 'NONE', #6, #221, #39 ) ;
#2 = DIRECTION ( 'NONE',  ( 0.0000000000000000000, 0.0000000000000000000, 1.000000000000000000 ) ) ;
#3 = DIRECTION ( 'NONE',  ( 8.659560562354964900E-017, -0.7071067811865449100, 0.7071067811865501300 ) ) ;
#4 = FACE_OUTER_BOUND ( 'NONE', #36, .T. ) ;
#5 = DIRECTION ( 'NONE',  ( 0.0000000000000000000, 0.0000000000000000000, -1.000000000000000000 ) ) ;
#6 = CARTESIAN_POINT ( 'NONE',  ( 0.0000000000000000000, 0.0000000000000000000, 0.0000000000000000000 ) ) ;
#7 = DIRECTION ( 'NONE',  ( -1.224646799147353200E-016, 0.0000000000000000000, -1.000000000000000000 ) ) ;
#8 = CARTESIAN_POINT ( 'NONE',  ( 0.0000000000000000000, 0.0000000000000000000, 0.0000000000000000000 ) ) ;
#9 = FACE_OUTER_BOUND ( 'NONE', #188, .T. ) ;
#10 = CIRCLE ( 'NONE', #23, 2.499999999999998200 ) ;
#11 =( LENGTH_UNIT ( ) NAMED_UNIT ( * ) SI_UNIT ( .MILLI., .METRE. ) );
#12 = ORIENTED_EDGE ( 'NONE', *, *, #183, .T. ) ;
#13 = DATE_TIME_ROLE ( 'creation_date' ) ;
#14 = CC_DESIGN_PERSON_AND_ORGANIZATION_ASSIGNMENT ( #146, #95, ( #124 ) ) ;
#15 = APPLICATION_PROTOCOL_DEFINITION ( 'international standard', 'config_control_design', 1994, #142 ) ;
#16 = EDGE_CURVE ( 'NONE', #117, #128, #162, .T. ) ;
#17 = PERSON_AND_ORGANIZATION_ROLE ( 'design_owner' ) ;
#18 = AXIS2_PLACEMENT_3D ( 'NONE', #214, #219, #217 ) ;
#19 = EDGE_CURVE ( 'NONE', #20, #108, #52, .T. ) ;
#20 = VERTEX_POINT ( 'NONE', #71 ) ;
#21 = LOCAL_TIME ( 10, 23, 7.000000000000000000, #175 ) ;
#22 = PRODUCT_DEFINITION_SHAPE ( 'NONE', 'NONE',  #69 ) ;
#23 = AXIS2_PLACEMENT_3D ( 'NONE', #62, #272, #5 ) ;
#24 = AXIS2_PLACEMENT_3D ( 'NONE', #238, #172, #103 ) ;
#25 = DIRECTION ( 'NONE',  ( 0.0000000000000000000, 0.0000000000000000000, 1.000000000000000000 ) ) ;
#26 = EDGE_LOOP ( 'NONE', ( #50, #193, #282 ) ) ;
#27 = ORIENTED_EDGE ( 'NONE', *, *, #32, .F. ) ;
#28 = CARTESIAN_POINT ( 'NONE',  ( 0.0000000000000000000, 0.0000000000000000000, 0.0000000000000000000 ) ) ;
#29 = DIRECTION ( 'NONE',  ( 0.0000000000000000000, -0.7071067811865449100, -0.7071067811865501300 ) ) ;
#30 = COORDINATED_UNIVERSAL_TIME_OFFSET ( 1, 0, .AHEAD. ) ;
#31 = ORIENTED_EDGE ( 'NONE', *, *, #16, .F. ) ;
#32 = EDGE_CURVE ( 'NONE', #163, #108, #92, .T. ) ;
#33 = CC_DESIGN_PERSON_AND_ORGANIZATION_ASSIGNMENT ( #197, #140, ( #124 ) ) ;
#34 = DIRECTION ( 'NONE',  ( -0.0000000000000000000, -1.000000000000000000, -0.0000000000000000000 ) ) ;
#35 = CIRCLE ( 'NONE', #84, 2.499999999999995100 ) ;
#36 = EDGE_LOOP ( 'NONE', ( #27, #40, #31, #138 ) ) ;
#37 =( GEOMETRIC_REPRESENTATION_CONTEXT ( 3 ) GLOBAL_UNCERTAINTY_ASSIGNED_CONTEXT ( ( #131 ) ) GLOBAL_UNIT_ASSIGNED_CONTEXT ( ( #11, #173, #266 ) ) REPRESENTATION_CONTEXT ( 'NONE', 'WORKASPACE' ) );
#38 = CARTESIAN_POINT ( 'NONE',  ( 0.0000000000000000000, 19.00000000000000000, 0.0000000000000000000 ) ) ;
#39 = DIRECTION ( 'NONE',  ( 0.0000000000000000000, 0.0000000000000000000, -1.000000000000000000 ) ) ;
#40 = ORIENTED_EDGE ( 'NONE', *, *, #58, .T. ) ;
#41 = DIRECTION ( 'NONE',  ( 1.000000000000000000, 0.0000000000000000000, 0.0000000000000000000 ) ) ;
#42 = CARTESIAN_POINT ( 'NONE',  ( 0.0000000000000000000, 12.50000000000000000, 0.0000000000000000000 ) ) ;
#43 = CC_DESIGN_APPROVAL ( #243, ( #174 ) ) ;
#44 = DIRECTION ( 'NONE',  ( -0.0000000000000000000, -1.000000000000000000, -0.0000000000000000000 ) ) ;
#45 = EDGE_CURVE ( 'NONE', #226, #57, #35, .T. ) ;
#46 = CIRCLE ( 'NONE', #168, 2.724476531053952000 ) ;
#47 = ADVANCED_FACE ( 'NONE', ( #246 ), #169, .F. ) ;
#48 = VECTOR ( 'NONE', #55, 1000.000000000000000 ) ;
#49 = DIRECTION ( 'NONE',  ( -0.0000000000000000000, -1.000000000000000000, -0.0000000000000000000 ) ) ;
#50 = ORIENTED_EDGE ( 'NONE', *, *, #183, .F. ) ;
#51 = SHAPE_DEFINITION_REPRESENTATION ( #22, #102 ) ;
#52 = CIRCLE ( 'NONE', #133, 2.724476531053952000 ) ;
#53 = CARTESIAN_POINT ( 'NONE',  ( 3.061616997868377200E-016, 19.00000000000000000, 2.499999999999995100 ) ) ;
#54 = EDGE_CURVE ( 'NONE', #137, #57, #202, .T. ) ;
#55 = DIRECTION ( 'NONE',  ( -0.0000000000000000000, -1.000000000000000000, -0.0000000000000000000 ) ) ;
#56 = CARTESIAN_POINT ( 'NONE',  ( 0.0000000000000000000, 0.0000000000000000000, -3.024999999999999900 ) ) ;
#57 = VERTEX_POINT ( 'NONE', #291 ) ;
#58 = EDGE_CURVE ( 'NONE', #163, #128, #264, .T. ) ;
#59 = CC_DESIGN_APPROVAL ( #122, ( #124 ) ) ;
#60 = DIRECTION ( 'NONE',  ( 0.0000000000000000000, 0.0000000000000000000, -1.000000000000000000 ) ) ;
#61 = PERSON_AND_ORGANIZATION ( #145, #109 ) ;
#62 = CARTESIAN_POINT ( 'NONE',  ( 0.0000000000000000000, 0.5249999999999976900, 0.0000000000000000000 ) ) ;
#63 = PERSON_AND_ORGANIZATION ( #145, #109 ) ;
#64 = FACE_OUTER_BOUND ( 'NONE', #26, .T. ) ;
#65 = CC_DESIGN_PERSON_AND_ORGANIZATION_ASSIGNMENT ( #194, #99, ( #69 ) ) ;
#66 = LINE ( 'NONE', #56, #228 ) ;
#67 = ORIENTED_EDGE ( 'NONE', *, *, #45, .F. ) ;
#68 = ORIENTED_EDGE ( 'NONE', *, *, #274, .F. ) ;
#69 = PRODUCT_DEFINITION ( 'UNKNOWN', '', #124, #158 ) ;
#70 = DIRECTION ( 'NONE',  ( -0.0000000000000000000, -1.000000000000000000, -0.0000000000000000000 ) ) ;
#71 = CARTESIAN_POINT ( 'NONE',  ( 0.0000000000000000000, 0.3005234689460456500, -2.724476531053952000 ) ) ;
#72 = DIRECTION ( 'NONE',  ( 1.000000000000000000, 0.0000000000000000000, 0.0000000000000000000 ) ) ;
#73 = APPROVAL_ROLE ( '' ) ;
#74 = DATE_AND_TIME ( #229, #223 ) ;
#75 = CARTESIAN_POINT ( 'NONE',  ( 0.0000000000000000000, 19.00000000000000000, -2.499999999999995100 ) ) ;
#76 = APPROVAL_PERSON_ORGANIZATION ( #61, #218, #200 ) ;
#77 = SPHERICAL_SURFACE ( 'NONE', #113, 12.50000000000000000 ) ;
#78 = CIRCLE ( 'NONE', #24, 2.499999999999998200 ) ;
#79 = CARTESIAN_POINT ( 'NONE',  ( 3.336521463107306700E-016, 0.3005234689460456500, 2.724476531053952000 ) ) ;
#80 = ORIENTED_EDGE ( 'NONE', *, *, #19, .T. ) ;
#81 = DATE_AND_TIME ( #182, #21 ) ;
#82 = AXIS2_PLACEMENT_3D ( 'NONE', #241, #7, #294 ) ;
#83 = DIRECTION ( 'NONE',  ( -1.000000000000000000, 0.0000000000000000000, 0.0000000000000000000 ) ) ;
#84 = AXIS2_PLACEMENT_3D ( 'NONE', #191, #44, #187 ) ;
#85 = LINE ( 'NONE', #265, #156 ) ;
#86 = COORDINATED_UNIVERSAL_TIME_OFFSET ( 1, 0, .AHEAD. ) ;
#87 = ORIENTED_EDGE ( 'NONE', *, *, #236, .T. ) ;
#88 = CC_DESIGN_DATE_AND_TIME_ASSIGNMENT ( #74, #196, ( #174 ) ) ;
#89 = DATE_AND_TIME ( #227, #256 ) ;
#90 = ADVANCED_FACE ( 'NONE', ( #190 ), #185, .F. ) ;
#91 = CARTESIAN_POINT ( 'NONE',  ( 0.0000000000000000000, 0.3005234689460456500, 0.0000000000000000000 ) ) ;
#92 = CIRCLE ( 'NONE', #82, 12.50000000000000000 ) ;
#93 = APPLICATION_CONTEXT ( 'configuration controlled 3d designs of mechanical parts and assemblies' ) ;
#94 = CARTESIAN_POINT ( 'NONE',  ( 0.0000000000000000000, 0.0000000000000000000, -2.499999999999996900 ) ) ;
#95 = PERSON_AND_ORGANIZATION_ROLE ( 'design_supplier' ) ;
#96 = EDGE_CURVE ( 'NONE', #108, #117, #154, .T. ) ;
#97 = ADVANCED_FACE ( 'NONE', ( #209 ), #245, .F. ) ;
#98 = VECTOR ( 'NONE', #125, 1000.000000000000000 ) ;
#99 = PERSON_AND_ORGANIZATION_ROLE ( 'creator' ) ;
#100 = ORIENTED_EDGE ( 'NONE', *, *, #111, .F. ) ;
#101 = CIRCLE ( 'NONE', #277, 2.499999999999995100 ) ;
#102 = ADVANCED_BREP_SHAPE_REPRESENTATION ( '51025-V4A', ( #211, #234 ), #37 ) ;
#103 = DIRECTION ( 'NONE',  ( 0.0000000000000000000, 0.0000000000000000000, -1.000000000000000000 ) ) ;
#104 = AXIS2_PLACEMENT_3D ( 'NONE', #28, #147, #233 ) ;
#105 = ORIENTED_EDGE ( 'NONE', *, *, #236, .F. ) ;
#106 = ADVANCED_FACE ( 'NONE', ( #9 ), #258, .T. ) ;
#107 = CONICAL_SURFACE ( 'NONE', #203, 2.499999999999995100, 1.029744258676651900 ) ;
#108 = VERTEX_POINT ( 'NONE', #165 ) ;
#109 = ORGANIZATION ( 'UNSPECIFIED', 'UNSPECIFIED', '' ) ;
#110 = ORIENTED_EDGE ( 'NONE', *, *, #45, .T. ) ;
#111 = EDGE_CURVE ( 'NONE', #128, #20, #46, .T. ) ;
#112 = DIRECTION ( 'NONE',  ( -1.000000000000000000, 0.0000000000000000000, 0.0000000000000000000 ) ) ;
#113 = AXIS2_PLACEMENT_3D ( 'NONE', #251, #167, #112 ) ;
#114 = ORIENTED_EDGE ( 'NONE', *, *, #189, .F. ) ;
#115 = VERTEX_POINT ( 'NONE', #205 ) ;
#116 = PERSON_AND_ORGANIZATION_ROLE ( 'classification_officer' ) ;
#117 = VERTEX_POINT ( 'NONE', #79 ) ;
#118 = CARTESIAN_POINT ( 'NONE',  ( 3.061616997868377200E-016, 19.00000000000000000, 2.499999999999995100 ) ) ;
#119 = APPROVAL_STATUS ( 'not_yet_approved' ) ;
#120 = DIRECTION ( 'NONE',  ( 0.0000000000000000000, 0.0000000000000000000, 1.000000000000000000 ) ) ;
#121 = EDGE_LOOP ( 'NONE', ( #281, #114, #87, #192 ) ) ;
#122 = APPROVAL ( #199, 'UNSPECIFIED' ) ;
#123 = DIRECTION ( 'NONE',  ( 0.0000000000000000000, 0.0000000000000000000, 1.000000000000000000 ) ) ;
#124 = PRODUCT_DEFINITION_FORMATION_WITH_SPECIFIED_SOURCE ( 'ANY', '', #286, .NOT_KNOWN. ) ;
#125 = DIRECTION ( 'NONE',  ( 1.049727191138617100E-016, -0.5150380749100563800, 0.8571673007021110000 ) ) ;
#126 = CARTESIAN_POINT ( 'NONE',  ( -7.654042494670957600E-016, 25.00000000000000000, 0.0000000000000000000 ) ) ;
#127 = ORIENTED_EDGE ( 'NONE', *, *, #54, .F. ) ;
#128 = VERTEX_POINT ( 'NONE', #244 ) ;
#129 = AXIS2_PLACEMENT_3D ( 'NONE', #288, #150, #41 ) ;
#130 = ORIENTED_EDGE ( 'NONE', *, *, #58, .F. ) ;
#131 = UNCERTAINTY_MEASURE_WITH_UNIT (LENGTH_MEASURE( 1.000000000000000100E-005 ), #11, 'distance_accuracy_value', 'NONE');
#132 = ORIENTED_EDGE ( 'NONE', *, *, #274, .T. ) ;
#133 = AXIS2_PLACEMENT_3D ( 'NONE', #152, #49, #2 ) ;
#134 = CALENDAR_DATE ( 2016, 20, 5 ) ;
#135 = ORIENTED_EDGE ( 'NONE', *, *, #207, .T. ) ;
#136 = CARTESIAN_POINT ( 'NONE',  ( 0.0000000000000000000, 0.3005234689460456500, 0.0000000000000000000 ) ) ;
#137 = VERTEX_POINT ( 'NONE', #289 ) ;
#138 = ORIENTED_EDGE ( 'NONE', *, *, #96, .F. ) ;
#139 = APPROVAL_PERSON_ORGANIZATION ( #63, #122, #261 ) ;
#140 = PERSON_AND_ORGANIZATION_ROLE ( 'creator' ) ;
#141 = LINE ( 'NONE', #94, #48 ) ;
#142 = APPLICATION_CONTEXT ( 'configuration controlled 3d designs of mechanical parts and assemblies' ) ;
#143 = CC_DESIGN_SECURITY_CLASSIFICATION ( #174, ( #124 ) ) ;
#144 = ORIENTED_EDGE ( 'NONE', *, *, #111, .T. ) ;
#145 = PERSON ( 'UNSPECIFIED', 'UNSPECIFIED', 'UNSPECIFIED', ('UNSPECIFIED'), ('UNSPECIFIED'), ('UNSPECIFIED') ) ;
#146 = PERSON_AND_ORGANIZATION ( #145, #109 ) ;
#147 = DIRECTION ( 'NONE',  ( -0.0000000000000000000, -1.000000000000000000, -0.0000000000000000000 ) ) ;
#148 = LOCAL_TIME ( 10, 23, 7.000000000000000000, #86 ) ;
#149 = ORIENTED_EDGE ( 'NONE', *, *, #32, .T. ) ;
#150 = DIRECTION ( 'NONE',  ( -0.0000000000000000000, 0.0000000000000000000, 1.000000000000000000 ) ) ;
#151 = CONICAL_SURFACE ( 'NONE', #104, 3.024999999999999900, 0.7853981633974520500 ) ;
#152 = CARTESIAN_POINT ( 'NONE',  ( 0.0000000000000000000, 0.3005234689460456500, 0.0000000000000000000 ) ) ;
#153 = DIRECTION ( 'NONE',  ( 0.0000000000000000000, -0.5150380749100563800, -0.8571673007021110000 ) ) ;
#154 = CIRCLE ( 'NONE', #240, 2.724476531053952000 ) ;
#155 = ORIENTED_EDGE ( 'NONE', *, *, #220, .T. ) ;
#156 = VECTOR ( 'NONE', #262, 1000.000000000000000 ) ;
#157 = ORIENTED_EDGE ( 'NONE', *, *, #230, .F. ) ;
#158 = DESIGN_CONTEXT ( 'detailed design', #142, 'design' ) ;
#159 = LINE ( 'NONE', #53, #98 ) ;
#160 = ORIENTED_EDGE ( 'NONE', *, *, #220, .F. ) ;
#161 = EDGE_CURVE ( 'NONE', #115, #249, #78, .T. ) ;
#162 = CIRCLE ( 'NONE', #253, 2.724476531053952000 ) ;
#163 = VERTEX_POINT ( 'NONE', #126 ) ;
#164 = CARTESIAN_POINT ( 'NONE',  ( 0.0000000000000000000, 0.0000000000000000000, 0.0000000000000000000 ) ) ;
#165 = CARTESIAN_POINT ( 'NONE',  ( 2.724476531053952500, 0.3005234689460465300, -3.336521463107308200E-016 ) ) ;
#166 = DIRECTION ( 'NONE',  ( -0.0000000000000000000, -0.0000000000000000000, -1.000000000000000000 ) ) ;
#167 = DIRECTION ( 'NONE',  ( -0.0000000000000000000, -0.0000000000000000000, -1.000000000000000000 ) ) ;
#168 = AXIS2_PLACEMENT_3D ( 'NONE', #136, #34, #120 ) ;
#169 = CONICAL_SURFACE ( 'NONE', #239, 3.024999999999999900, 0.7853981633974520500 ) ;
#170 = VECTOR ( 'NONE', #153, 1000.000000000000000 ) ;
#171 = APPROVAL_STATUS ( 'not_yet_approved' ) ;
#172 = DIRECTION ( 'NONE',  ( -0.0000000000000000000, -1.000000000000000000, -0.0000000000000000000 ) ) ;
#173 =( NAMED_UNIT ( * ) PLANE_ANGLE_UNIT ( ) SI_UNIT ( $, .RADIAN. ) );
#174 = SECURITY_CLASSIFICATION ( '', '', #204 ) ;
#175 = COORDINATED_UNIVERSAL_TIME_OFFSET ( 1, 0, .AHEAD. ) ;
#176 = CARTESIAN_POINT ( 'NONE',  ( 3.061616997868380700E-016, 0.5249999999999976900, 2.499999999999998200 ) ) ;
#177 = DIRECTION ( 'NONE',  ( 0.0000000000000000000, 0.0000000000000000000, -1.000000000000000000 ) ) ;
#178 = DATE_AND_TIME ( #134, #148 ) ;
#179 = CC_DESIGN_PERSON_AND_ORGANIZATION_ASSIGNMENT ( #273, #116, ( #174 ) ) ;
#180 = COORDINATED_UNIVERSAL_TIME_OFFSET ( 1, 0, .AHEAD. ) ;
#181 = ORIENTED_EDGE ( 'NONE', *, *, #19, .F. ) ;
#182 = CALENDAR_DATE ( 2016, 20, 5 ) ;
#183 = EDGE_CURVE ( 'NONE', #137, #226, #159, .T. ) ;
#184 = ADVANCED_FACE ( 'NONE', ( #4 ), #77, .T. ) ;
#185 = CYLINDRICAL_SURFACE ( 'NONE', #242, 2.499999999999996900 ) ;
#186 = CLOSED_SHELL ( 'NONE', ( #268, #97, #276, #106, #184, #293, #90, #47 ) ) ;
#187 = DIRECTION ( 'NONE',  ( 0.0000000000000000000, 0.0000000000000000000, -1.000000000000000000 ) ) ;
#188 = EDGE_LOOP ( 'NONE', ( #130, #149, #181, #100 ) ) ;
#189 = EDGE_CURVE ( 'NONE', #57, #226, #101, .T. ) ;
#190 = FACE_OUTER_BOUND ( 'NONE', #121, .T. ) ;
#191 = CARTESIAN_POINT ( 'NONE',  ( 0.0000000000000000000, 19.00000000000000000, 0.0000000000000000000 ) ) ;
#192 = ORIENTED_EDGE ( 'NONE', *, *, #161, .T. ) ;
#193 = ORIENTED_EDGE ( 'NONE', *, *, #54, .T. ) ;
#194 = PERSON_AND_ORGANIZATION ( #145, #109 ) ;
#195 = DIRECTION ( 'NONE',  ( -0.0000000000000000000, -1.000000000000000000, -0.0000000000000000000 ) ) ;
#196 = DATE_TIME_ROLE ( 'classification_date' ) ;
#197 = PERSON_AND_ORGANIZATION ( #145, #109 ) ;
#198 = LOCAL_TIME ( 10, 23, 7.000000000000000000, #180 ) ;
#199 = APPROVAL_STATUS ( 'not_yet_approved' ) ;
#200 = APPROVAL_ROLE ( '' ) ;
#201 = EDGE_LOOP ( 'NONE', ( #68, #252, #155, #80, #269 ) ) ;
#202 = LINE ( 'NONE', #75, #170 ) ;
#203 = AXIS2_PLACEMENT_3D ( 'NONE', #38, #70, #60 ) ;
#204 = SECURITY_CLASSIFICATION_LEVEL ( 'unclassified' ) ;
#205 = CARTESIAN_POINT ( 'NONE',  ( 0.0000000000000000000, 0.5249999999999976900, -2.499999999999998200 ) ) ;
#206 = COORDINATED_UNIVERSAL_TIME_OFFSET ( 1, 0, .AHEAD. ) ;
#207 = EDGE_CURVE ( 'NONE', #226, #249, #85, .T. ) ;
#208 = AXIS2_PLACEMENT_3D ( 'NONE', #42, #166, #83 ) ;
#209 = FACE_OUTER_BOUND ( 'NONE', #278, .T. ) ;
#210 = APPROVAL_DATE_TIME ( #89, #218 ) ;
#211 = MANIFOLD_SOLID_BREP ( 'M6 Gewindebohrung2', #186 ) ;
#212 = DIRECTION ( 'NONE',  ( 0.0000000000000000000, 0.0000000000000000000, -1.000000000000000000 ) ) ;
#213 = APPROVAL_PERSON_ORGANIZATION ( #287, #243, #73 ) ;
#214 = CARTESIAN_POINT ( 'NONE',  ( 0.0000000000000000000, 19.00000000000000000, 0.0000000000000000000 ) ) ;
#215 = FACE_OUTER_BOUND ( 'NONE', #216, .T. ) ;
#216 = EDGE_LOOP ( 'NONE', ( #157, #132, #295, #144, #160 ) ) ;
#217 = DIRECTION ( 'NONE',  ( 0.0000000000000000000, 0.0000000000000000000, -1.000000000000000000 ) ) ;
#218 = APPROVAL ( #171, 'UNSPECIFIED' ) ;
#219 = DIRECTION ( 'NONE',  ( -0.0000000000000000000, -1.000000000000000000, -0.0000000000000000000 ) ) ;
#220 = EDGE_CURVE ( 'NONE', #115, #20, #66, .T. ) ;
#221 = DIRECTION ( 'NONE',  ( -0.0000000000000000000, -1.000000000000000000, -0.0000000000000000000 ) ) ;
#222 = DIRECTION ( 'NONE',  ( -0.0000000000000000000, -1.000000000000000000, -0.0000000000000000000 ) ) ;
#223 = LOCAL_TIME ( 10, 23, 7.000000000000000000, #206 ) ;
#224 = CC_DESIGN_PERSON_AND_ORGANIZATION_ASSIGNMENT ( #254, #17, ( #286 ) ) ;
#225 = DIRECTION ( 'NONE',  ( -0.0000000000000000000, -1.000000000000000000, -0.0000000000000000000 ) ) ;
#226 = VERTEX_POINT ( 'NONE', #118 ) ;
#227 = CALENDAR_DATE ( 2016, 20, 5 ) ;
#228 = VECTOR ( 'NONE', #29, 1000.000000000000000 ) ;
#229 = CALENDAR_DATE ( 2016, 20, 5 ) ;
#230 = EDGE_CURVE ( 'NONE', #249, #115, #10, .T. ) ;
#231 = CALENDAR_DATE ( 2016, 20, 5 ) ;
#232 = CC_DESIGN_DATE_AND_TIME_ASSIGNMENT ( #81, #13, ( #69 ) ) ;
#233 = DIRECTION ( 'NONE',  ( 0.0000000000000000000, 0.0000000000000000000, -1.000000000000000000 ) ) ;
#234 = AXIS2_PLACEMENT_3D ( 'NONE', #8, #259, #72 ) ;
#235 = MECHANICAL_CONTEXT ( 'NONE', #93, 'mechanical' ) ;
#236 = EDGE_CURVE ( 'NONE', #57, #115, #141, .T. ) ;
#237 = APPROVAL_DATE_TIME ( #178, #122 ) ;
#238 = CARTESIAN_POINT ( 'NONE',  ( 0.0000000000000000000, 0.5249999999999976900, 0.0000000000000000000 ) ) ;
#239 = AXIS2_PLACEMENT_3D ( 'NONE', #270, #195, #177 ) ;
#240 = AXIS2_PLACEMENT_3D ( 'NONE', #91, #285, #123 ) ;
#241 = CARTESIAN_POINT ( 'NONE',  ( 0.0000000000000000000, 12.50000000000000000, 0.0000000000000000000 ) ) ;
#242 = AXIS2_PLACEMENT_3D ( 'NONE', #164, #260, #212 ) ;
#243 = APPROVAL ( #119, 'UNSPECIFIED' ) ;
#244 = CARTESIAN_POINT ( 'NONE',  ( -2.724476531053952500, 0.3005234689460465300, 0.0000000000000000000 ) ) ;
#245 = CYLINDRICAL_SURFACE ( 'NONE', #1, 2.499999999999996900 ) ;
#246 = FACE_OUTER_BOUND ( 'NONE', #201, .T. ) ;
#247 = CARTESIAN_POINT ( 'NONE',  ( 3.704556567420743300E-016, 0.0000000000000000000, 3.024999999999999900 ) ) ;
#248 = CARTESIAN_POINT ( 'NONE',  ( 0.0000000000000000000, 0.3005234689460456500, 0.0000000000000000000 ) ) ;
#249 = VERTEX_POINT ( 'NONE', #176 ) ;
#250 = ORIENTED_EDGE ( 'NONE', *, *, #230, .T. ) ;
#251 = CARTESIAN_POINT ( 'NONE',  ( 0.0000000000000000000, 12.50000000000000000, 0.0000000000000000000 ) ) ;
#252 = ORIENTED_EDGE ( 'NONE', *, *, #161, .F. ) ;
#253 = AXIS2_PLACEMENT_3D ( 'NONE', #248, #222, #25 ) ;
#254 = PERSON_AND_ORGANIZATION ( #145, #109 ) ;
#255 = PRODUCT_RELATED_PRODUCT_CATEGORY ( 'detail', '', ( #286 ) ) ;
#256 = LOCAL_TIME ( 10, 23, 7.000000000000000000, #30 ) ;
#257 = CC_DESIGN_APPROVAL ( #218, ( #69 ) ) ;
#258 = SPHERICAL_SURFACE ( 'NONE', #208, 12.50000000000000000 ) ;
#259 = DIRECTION ( 'NONE',  ( 0.0000000000000000000, 0.0000000000000000000, 1.000000000000000000 ) ) ;
#260 = DIRECTION ( 'NONE',  ( -0.0000000000000000000, -1.000000000000000000, -0.0000000000000000000 ) ) ;
#261 = APPROVAL_ROLE ( '' ) ;
#262 = DIRECTION ( 'NONE',  ( -0.0000000000000000000, -1.000000000000000000, -0.0000000000000000000 ) ) ;
#263 = APPROVAL_DATE_TIME ( #283, #243 ) ;
#264 = CIRCLE ( 'NONE', #129, 12.50000000000000000 ) ;
#265 = CARTESIAN_POINT ( 'NONE',  ( 3.061616997868379200E-016, 0.0000000000000000000, 2.499999999999996900 ) ) ;
#266 =( NAMED_UNIT ( * ) SI_UNIT ( $, .STERADIAN. ) SOLID_ANGLE_UNIT ( ) );
#267 = EDGE_LOOP ( 'NONE', ( #127, #12, #110 ) ) ;
#268 = ADVANCED_FACE ( 'NONE', ( #215 ), #151, .F. ) ;
#269 = ORIENTED_EDGE ( 'NONE', *, *, #96, .T. ) ;
#270 = CARTESIAN_POINT ( 'NONE',  ( 0.0000000000000000000, 0.0000000000000000000, 0.0000000000000000000 ) ) ;
#271 = DIRECTION ( 'NONE',  ( 0.0000000000000000000, 0.0000000000000000000, -1.000000000000000000 ) ) ;
#272 = DIRECTION ( 'NONE',  ( -0.0000000000000000000, -1.000000000000000000, -0.0000000000000000000 ) ) ;
#273 = PERSON_AND_ORGANIZATION ( #145, #109 ) ;
#274 = EDGE_CURVE ( 'NONE', #249, #117, #290, .T. ) ;
#275 = VECTOR ( 'NONE', #3, 1000.000000000000000 ) ;
#276 = ADVANCED_FACE ( 'NONE', ( #279 ), #280, .F. ) ;
#277 = AXIS2_PLACEMENT_3D ( 'NONE', #284, #225, #271 ) ;
#278 = EDGE_LOOP ( 'NONE', ( #67, #135, #250, #105 ) ) ;
#279 = FACE_OUTER_BOUND ( 'NONE', #267, .T. ) ;
#280 = CONICAL_SURFACE ( 'NONE', #18, 2.499999999999995100, 1.029744258676651900 ) ;
#281 = ORIENTED_EDGE ( 'NONE', *, *, #207, .F. ) ;
#282 = ORIENTED_EDGE ( 'NONE', *, *, #189, .T. ) ;
#283 = DATE_AND_TIME ( #231, #198 ) ;
#284 = CARTESIAN_POINT ( 'NONE',  ( 0.0000000000000000000, 19.00000000000000000, 0.0000000000000000000 ) ) ;
#285 = DIRECTION ( 'NONE',  ( -0.0000000000000000000, -1.000000000000000000, -0.0000000000000000000 ) ) ;
#286 = PRODUCT ( '51025-V4A', '51025-V4A', '', ( #235 ) ) ;
#287 = PERSON_AND_ORGANIZATION ( #145, #109 ) ;
#288 = CARTESIAN_POINT ( 'NONE',  ( 0.0000000000000000000, 12.50000000000000000, 0.0000000000000000000 ) ) ;
#289 = CARTESIAN_POINT ( 'NONE',  ( -5.021578853672842600E-015, 20.50215154756890400, 0.0000000000000000000 ) ) ;
#290 = LINE ( 'NONE', #247, #275 ) ;
#291 = CARTESIAN_POINT ( 'NONE',  ( 0.0000000000000000000, 19.00000000000000000, -2.499999999999995100 ) ) ;
#292 = APPLICATION_PROTOCOL_DEFINITION ( 'international standard', 'config_control_design', 1994, #93 ) ;
#293 = ADVANCED_FACE ( 'NONE', ( #64 ), #107, .F. ) ;
#294 = DIRECTION ( 'NONE',  ( -1.000000000000000000, 0.0000000000000000000, 1.224646799147353200E-016 ) ) ;
#295 = ORIENTED_EDGE ( 'NONE', *, *, #16, .T. ) ;
ENDSEC;
END-ISO-10303-21;
