ISO-10303-21;
HEADER;
FILE_DESCRIPTION (( 'STEP AP203' ),
    '1' );
FILE_NAME ('51025-240.STEP',
    '2016-05-20T08:21:21',
    ( '' ),
    ( '' ),
    'SwSTEP 2.0',
    'SolidWorks 2015',
    '' );
FILE_SCHEMA (( 'CONFIG_CONTROL_DESIGN' ));
ENDSEC;

DATA;
#1 = AXIS2_PLACEMENT_3D ( 'NONE', #62, #236, #100 ) ;
#2 = VERTEX_POINT ( 'NONE', #107 ) ;
#3 = CARTESIAN_POINT ( 'NONE',  ( 0.0000000000000000000, 12.50000000000000000, 0.0000000000000000000 ) ) ;
#4 = DATE_AND_TIME ( #121, #26 ) ;
#5 = ORIENTED_EDGE ( 'NONE', *, *, #18, .T. ) ;
#6 = CARTESIAN_POINT ( 'NONE',  ( 3.061616997868379200E-016, 0.0000000000000000000, 2.499999999999996900 ) ) ;
#7 = SPHERICAL_SURFACE ( 'NONE', #229, 12.50000000000000000 ) ;
#8 = PERSON_AND_ORGANIZATION_ROLE ( 'creator' ) ;
#9 = FACE_OUTER_BOUND ( 'NONE', #44, .T. ) ;
#10 = DIRECTION ( 'NONE',  ( -1.000000000000000000, 0.0000000000000000000, 0.0000000000000000000 ) ) ;
#11 = APPLICATION_PROTOCOL_DEFINITION ( 'international standard', 'config_control_design', 1994, #210 ) ;
#12 = EDGE_CURVE ( 'NONE', #67, #227, #102, .T. ) ;
#13 = CARTESIAN_POINT ( 'NONE',  ( -2.724476531053952500, 0.3005234689460465300, 0.0000000000000000000 ) ) ;
#14 = CARTESIAN_POINT ( 'NONE',  ( 0.0000000000000000000, 19.00000000000000000, 0.0000000000000000000 ) ) ;
#15 = DIRECTION ( 'NONE',  ( 0.0000000000000000000, 0.0000000000000000000, 1.000000000000000000 ) ) ;
#16 = DIRECTION ( 'NONE',  ( -0.0000000000000000000, -1.000000000000000000, -0.0000000000000000000 ) ) ;
#17 = PERSON_AND_ORGANIZATION ( #65, #239 ) ;
#18 = EDGE_CURVE ( 'NONE', #67, #90, #148, .T. ) ;
#19 = CARTESIAN_POINT ( 'NONE',  ( 0.0000000000000000000, 19.00000000000000000, 0.0000000000000000000 ) ) ;
#20 = APPROVAL_PERSON_ORGANIZATION ( #17, #153, #248 ) ;
#21 = CARTESIAN_POINT ( 'NONE',  ( 3.336521463107306700E-016, 0.3005234689460456500, 2.724476531053952000 ) ) ;
#22 = CALENDAR_DATE ( 2016, 20, 5 ) ;
#23 = EDGE_CURVE ( 'NONE', #90, #182, #261, .T. ) ;
#24 = ORIENTED_EDGE ( 'NONE', *, *, #240, .T. ) ;
#25 = ORIENTED_EDGE ( 'NONE', *, *, #105, .T. ) ;
#26 = LOCAL_TIME ( 10, 21, 21.00000000000000000, #33 ) ;
#27 = CC_DESIGN_APPROVAL ( #243, ( #150 ) ) ;
#28 = ORIENTED_EDGE ( 'NONE', *, *, #257, .T. ) ;
#29 = CONICAL_SURFACE ( 'NONE', #70, 2.499999999999995600, 1.029744258676652100 ) ;
#30 = CONICAL_SURFACE ( 'NONE', #149, 3.024999999999999900, 0.7853981633974520500 ) ;
#31 = APPROVAL_STATUS ( 'not_yet_approved' ) ;
#32 = DIRECTION ( 'NONE',  ( 0.0000000000000000000, 0.0000000000000000000, -1.000000000000000000 ) ) ;
#33 = COORDINATED_UNIVERSAL_TIME_OFFSET ( 1, 0, .AHEAD. ) ;
#34 = CC_DESIGN_DATE_AND_TIME_ASSIGNMENT ( #123, #117, ( #150 ) ) ;
#35 = ORIENTED_EDGE ( 'NONE', *, *, #91, .F. ) ;
#36 = CIRCLE ( 'NONE', #232, 2.724476531053952000 ) ;
#37 = EDGE_LOOP ( 'NONE', ( #66, #118, #24 ) ) ;
#38 = DIRECTION ( 'NONE',  ( 1.000000000000000000, 0.0000000000000000000, 0.0000000000000000000 ) ) ;
#39 = EDGE_CURVE ( 'NONE', #109, #211, #86, .T. ) ;
#40 = DATE_TIME_ROLE ( 'classification_date' ) ;
#41 = LINE ( 'NONE', #289, #196 ) ;
#42 = EDGE_CURVE ( 'NONE', #74, #90, #79, .T. ) ;
#43 = ORIENTED_EDGE ( 'NONE', *, *, #39, .T. ) ;
#44 = EDGE_LOOP ( 'NONE', ( #35, #28, #43, #57 ) ) ;
#45 = EDGE_LOOP ( 'NONE', ( #286, #133, #48, #290 ) ) ;
#46 = AXIS2_PLACEMENT_3D ( 'NONE', #3, #205, #93 ) ;
#47 = CARTESIAN_POINT ( 'NONE',  ( 3.061616997868380700E-016, 0.5249999999999976900, 2.499999999999998200 ) ) ;
#48 = ORIENTED_EDGE ( 'NONE', *, *, #170, .F. ) ;
#49 = VECTOR ( 'NONE', #116, 1000.000000000000000 ) ;
#50 = ADVANCED_FACE ( 'NONE', ( #80 ), #63, .F. ) ;
#51 = LOCAL_TIME ( 10, 21, 21.00000000000000000, #129 ) ;
#52 = ORIENTED_EDGE ( 'NONE', *, *, #92, .F. ) ;
#53 = APPROVAL_STATUS ( 'not_yet_approved' ) ;
#54 = APPROVAL_PERSON_ORGANIZATION ( #185, #186, #78 ) ;
#55 = CARTESIAN_POINT ( 'NONE',  ( 3.061616997868377700E-016, 19.00000000000000000, 2.499999999999995600 ) ) ;
#56 = CC_DESIGN_PERSON_AND_ORGANIZATION_ASSIGNMENT ( #187, #254, ( #150 ) ) ;
#57 = ORIENTED_EDGE ( 'NONE', *, *, #238, .F. ) ;
#58 = DIRECTION ( 'NONE',  ( 0.0000000000000000000, 0.0000000000000000000, -1.000000000000000000 ) ) ;
#59 = COORDINATED_UNIVERSAL_TIME_OFFSET ( 1, 0, .AHEAD. ) ;
#60 = PRODUCT ( '51025-240', '51025-240', '', ( #237 ) ) ;
#61 = COORDINATED_UNIVERSAL_TIME_OFFSET ( 1, 0, .AHEAD. ) ;
#62 = CARTESIAN_POINT ( 'NONE',  ( 0.0000000000000000000, 19.00000000000000000, 0.0000000000000000000 ) ) ;
#63 = CONICAL_SURFACE ( 'NONE', #171, 3.024999999999999900, 0.7853981633974520500 ) ;
#64 = VERTEX_POINT ( 'NONE', #119 ) ;
#65 = PERSON ( 'UNSPECIFIED', 'UNSPECIFIED', 'UNSPECIFIED', ('UNSPECIFIED'), ('UNSPECIFIED'), ('UNSPECIFIED') ) ;
#66 = ORIENTED_EDGE ( 'NONE', *, *, #82, .F. ) ;
#67 = VERTEX_POINT ( 'NONE', #85 ) ;
#68 = FACE_OUTER_BOUND ( 'NONE', #71, .T. ) ;
#69 = DIRECTION ( 'NONE',  ( 0.0000000000000000000, 0.0000000000000000000, -1.000000000000000000 ) ) ;
#70 = AXIS2_PLACEMENT_3D ( 'NONE', #14, #16, #179 ) ;
#71 = EDGE_LOOP ( 'NONE', ( #259, #5, #285, #134 ) ) ;
#72 = LINE ( 'NONE', #55, #49 ) ;
#73 = CC_DESIGN_PERSON_AND_ORGANIZATION_ASSIGNMENT ( #127, #268, ( #60 ) ) ;
#74 = VERTEX_POINT ( 'NONE', #220 ) ;
#75 = ORIENTED_EDGE ( 'NONE', *, *, #92, .T. ) ;
#76 = DIRECTION ( 'NONE',  ( -0.0000000000000000000, -1.000000000000000000, -0.0000000000000000000 ) ) ;
#77 = DIRECTION ( 'NONE',  ( -0.0000000000000000000, -1.000000000000000000, -0.0000000000000000000 ) ) ;
#78 = APPROVAL_ROLE ( '' ) ;
#79 = CIRCLE ( 'NONE', #177, 2.724476531053952000 ) ;
#80 = FACE_OUTER_BOUND ( 'NONE', #278, .T. ) ;
#81 = SPHERICAL_SURFACE ( 'NONE', #46, 12.50000000000000000 ) ;
#82 = EDGE_CURVE ( 'NONE', #250, #2, #72, .T. ) ;
#83 = DIRECTION ( 'NONE',  ( 0.0000000000000000000, 0.0000000000000000000, -1.000000000000000000 ) ) ;
#84 = FACE_OUTER_BOUND ( 'NONE', #228, .T. ) ;
#85 = CARTESIAN_POINT ( 'NONE',  ( -7.654042494670957600E-016, 25.00000000000000000, 0.0000000000000000000 ) ) ;
#86 = CIRCLE ( 'NONE', #155, 2.499999999999998200 ) ;
#87 = FACE_OUTER_BOUND ( 'NONE', #206, .T. ) ;
#88 = LINE ( 'NONE', #6, #99 ) ;
#89 = CARTESIAN_POINT ( 'NONE',  ( 0.0000000000000000000, 19.00000000000000000, 0.0000000000000000000 ) ) ;
#90 = VERTEX_POINT ( 'NONE', #138 ) ;
#91 = EDGE_CURVE ( 'NONE', #2, #64, #103, .T. ) ;
#92 = EDGE_CURVE ( 'NONE', #211, #74, #41, .T. ) ;
#93 = DIRECTION ( 'NONE',  ( -1.000000000000000000, 0.0000000000000000000, 0.0000000000000000000 ) ) ;
#94 = DATE_AND_TIME ( #217, #51 ) ;
#95 = VECTOR ( 'NONE', #97, 1000.000000000000000 ) ;
#96 = AXIS2_PLACEMENT_3D ( 'NONE', #183, #178, #174 ) ;
#97 = DIRECTION ( 'NONE',  ( -0.0000000000000000000, -1.000000000000000000, -0.0000000000000000000 ) ) ;
#98 = CC_DESIGN_DATE_AND_TIME_ASSIGNMENT ( #4, #40, ( #144 ) ) ;
#99 = VECTOR ( 'NONE', #295, 1000.000000000000000 ) ;
#100 = DIRECTION ( 'NONE',  ( 0.0000000000000000000, 0.0000000000000000000, -1.000000000000000000 ) ) ;
#101 = DIRECTION ( 'NONE',  ( -0.0000000000000000000, -1.000000000000000000, -0.0000000000000000000 ) ) ;
#102 = CIRCLE ( 'NONE', #292, 12.50000000000000000 ) ;
#103 = CIRCLE ( 'NONE', #163, 2.499999999999995600 ) ;
#104 = LINE ( 'NONE', #165, #281 ) ;
#105 = EDGE_CURVE ( 'NONE', #211, #109, #175, .T. ) ;
#106 = CYLINDRICAL_SURFACE ( 'NONE', #207, 2.499999999999996900 ) ;
#107 = CARTESIAN_POINT ( 'NONE',  ( 3.061616997868377700E-016, 19.00000000000000000, 2.499999999999995600 ) ) ;
#108 = AXIS2_PLACEMENT_3D ( 'NONE', #216, #283, #15 ) ;
#109 = VERTEX_POINT ( 'NONE', #47 ) ;
#110 = ADVANCED_FACE ( 'NONE', ( #184 ), #106, .F. ) ;
#111 = DESIGN_CONTEXT ( 'detailed design', #131, 'design' ) ;
#112 = AXIS2_PLACEMENT_3D ( 'NONE', #294, #162, #38 ) ;
#113 = VECTOR ( 'NONE', #276, 1000.000000000000000 ) ;
#114 = APPROVAL_PERSON_ORGANIZATION ( #166, #243, #256 ) ;
#115 = CARTESIAN_POINT ( 'NONE',  ( 0.0000000000000000000, 0.0000000000000000000, -2.499999999999996900 ) ) ;
#116 = DIRECTION ( 'NONE',  ( 1.049727191138617200E-016, -0.5150380749100562600, 0.8571673007021111100 ) ) ;
#117 = DATE_TIME_ROLE ( 'creation_date' ) ;
#118 = ORIENTED_EDGE ( 'NONE', *, *, #126, .T. ) ;
#119 = CARTESIAN_POINT ( 'NONE',  ( 0.0000000000000000000, 19.00000000000000000, -2.499999999999995600 ) ) ;
#120 = CC_DESIGN_SECURITY_CLASSIFICATION ( #144, ( #202 ) ) ;
#121 = CALENDAR_DATE ( 2016, 20, 5 ) ;
#122 = CARTESIAN_POINT ( 'NONE',  ( 0.0000000000000000000, 0.5249999999999976900, -2.499999999999998200 ) ) ;
#123 = DATE_AND_TIME ( #22, #269 ) ;
#124 = EDGE_LOOP ( 'NONE', ( #159, #247, #266, #25 ) ) ;
#125 = ADVANCED_FACE ( 'NONE', ( #212 ), #287, .F. ) ;
#126 = EDGE_CURVE ( 'NONE', #250, #64, #104, .T. ) ;
#127 = PERSON_AND_ORGANIZATION ( #65, #239 ) ;
#128 = DIRECTION ( 'NONE',  ( -0.0000000000000000000, -1.000000000000000000, -0.0000000000000000000 ) ) ;
#129 = COORDINATED_UNIVERSAL_TIME_OFFSET ( 1, 0, .AHEAD. ) ;
#130 = AXIS2_PLACEMENT_3D ( 'NONE', #143, #147, #69 ) ;
#131 = APPLICATION_CONTEXT ( 'configuration controlled 3d designs of mechanical parts and assemblies' ) ;
#132 = FACE_OUTER_BOUND ( 'NONE', #45, .T. ) ;
#133 = ORIENTED_EDGE ( 'NONE', *, *, #12, .T. ) ;
#134 = ORIENTED_EDGE ( 'NONE', *, *, #291, .F. ) ;
#135 = CARTESIAN_POINT ( 'NONE',  ( 0.0000000000000000000, 0.0000000000000000000, 0.0000000000000000000 ) ) ;
#136 = ORIENTED_EDGE ( 'NONE', *, *, #82, .T. ) ;
#137 = CC_DESIGN_APPROVAL ( #153, ( #202 ) ) ;
#138 = CARTESIAN_POINT ( 'NONE',  ( 2.724476531053952500, 0.3005234689460465300, -3.336521463107308200E-016 ) ) ;
#139 = ADVANCED_FACE ( 'NONE', ( #87 ), #30, .F. ) ;
#140 = PRODUCT_RELATED_PRODUCT_CATEGORY ( 'detail', '', ( #60 ) ) ;
#141 =( GEOMETRIC_REPRESENTATION_CONTEXT ( 3 ) GLOBAL_UNCERTAINTY_ASSIGNED_CONTEXT ( ( #252 ) ) GLOBAL_UNIT_ASSIGNED_CONTEXT ( ( #249, #197, #188 ) ) REPRESENTATION_CONTEXT ( 'NONE', 'WORKASPACE' ) );
#142 = ORIENTED_EDGE ( 'NONE', *, *, #42, .T. ) ;
#143 = CARTESIAN_POINT ( 'NONE',  ( 0.0000000000000000000, 0.5249999999999976900, 0.0000000000000000000 ) ) ;
#144 = SECURITY_CLASSIFICATION ( '', '', #235 ) ;
#145 = ADVANCED_FACE ( 'NONE', ( #84 ), #29, .F. ) ;
#146 = DIRECTION ( 'NONE',  ( -0.0000000000000000000, -1.000000000000000000, -0.0000000000000000000 ) ) ;
#147 = DIRECTION ( 'NONE',  ( -0.0000000000000000000, -1.000000000000000000, -0.0000000000000000000 ) ) ;
#148 = CIRCLE ( 'NONE', #241, 12.50000000000000000 ) ;
#149 = AXIS2_PLACEMENT_3D ( 'NONE', #226, #199, #224 ) ;
#150 = PRODUCT_DEFINITION ( 'UNKNOWN', '', #202, #111 ) ;
#151 = DIRECTION ( 'NONE',  ( 0.0000000000000000000, 0.0000000000000000000, 1.000000000000000000 ) ) ;
#152 = SHAPE_DEFINITION_REPRESENTATION ( #231, #222 ) ;
#153 = APPROVAL ( #176, 'UNSPECIFIED' ) ;
#154 = AXIS2_PLACEMENT_3D ( 'NONE', #267, #77, #198 ) ;
#155 = AXIS2_PLACEMENT_3D ( 'NONE', #167, #76, #83 ) ;
#156 = APPROVAL_DATE_TIME ( #194, #186 ) ;
#157 = ORIENTED_EDGE ( 'NONE', *, *, #170, .T. ) ;
#158 = DIRECTION ( 'NONE',  ( 0.0000000000000000000, 0.0000000000000000000, -1.000000000000000000 ) ) ;
#159 = ORIENTED_EDGE ( 'NONE', *, *, #257, .F. ) ;
#160 = CARTESIAN_POINT ( 'NONE',  ( 3.704556567420743300E-016, 0.0000000000000000000, 3.024999999999999900 ) ) ;
#161 = PERSON_AND_ORGANIZATION_ROLE ( 'design_supplier' ) ;
#162 = DIRECTION ( 'NONE',  ( 0.0000000000000000000, 0.0000000000000000000, 1.000000000000000000 ) ) ;
#163 = AXIS2_PLACEMENT_3D ( 'NONE', #19, #128, #58 ) ;
#164 = ORIENTED_EDGE ( 'NONE', *, *, #260, .T. ) ;
#165 = CARTESIAN_POINT ( 'NONE',  ( 0.0000000000000000000, 19.00000000000000000, -2.499999999999995600 ) ) ;
#166 = PERSON_AND_ORGANIZATION ( #65, #239 ) ;
#167 = CARTESIAN_POINT ( 'NONE',  ( 0.0000000000000000000, 0.5249999999999976900, 0.0000000000000000000 ) ) ;
#168 = LOCAL_TIME ( 10, 21, 21.00000000000000000, #61 ) ;
#169 = CC_DESIGN_PERSON_AND_ORGANIZATION_ASSIGNMENT ( #255, #221, ( #144 ) ) ;
#170 = EDGE_CURVE ( 'NONE', #182, #227, #181, .T. ) ;
#171 = AXIS2_PLACEMENT_3D ( 'NONE', #135, #101, #213 ) ;
#172 = CALENDAR_DATE ( 2016, 20, 5 ) ;
#173 = DIRECTION ( 'NONE',  ( 0.0000000000000000000, 0.0000000000000000000, 1.000000000000000000 ) ) ;
#174 = DIRECTION ( 'NONE',  ( 0.0000000000000000000, 0.0000000000000000000, 1.000000000000000000 ) ) ;
#175 = CIRCLE ( 'NONE', #130, 2.499999999999998200 ) ;
#176 = APPROVAL_STATUS ( 'not_yet_approved' ) ;
#177 = AXIS2_PLACEMENT_3D ( 'NONE', #192, #233, #173 ) ;
#178 = DIRECTION ( 'NONE',  ( -0.0000000000000000000, -1.000000000000000000, -0.0000000000000000000 ) ) ;
#179 = DIRECTION ( 'NONE',  ( 0.0000000000000000000, 0.0000000000000000000, -1.000000000000000000 ) ) ;
#180 = ADVANCED_FACE ( 'NONE', ( #132 ), #81, .T. ) ;
#181 = CIRCLE ( 'NONE', #108, 2.724476531053952000 ) ;
#182 = VERTEX_POINT ( 'NONE', #21 ) ;
#183 = CARTESIAN_POINT ( 'NONE',  ( 0.0000000000000000000, 0.3005234689460456500, 0.0000000000000000000 ) ) ;
#184 = FACE_OUTER_BOUND ( 'NONE', #124, .T. ) ;
#185 = PERSON_AND_ORGANIZATION ( #65, #239 ) ;
#186 = APPROVAL ( #31, 'UNSPECIFIED' ) ;
#187 = PERSON_AND_ORGANIZATION ( #65, #239 ) ;
#188 =( NAMED_UNIT ( * ) SI_UNIT ( $, .STERADIAN. ) SOLID_ANGLE_UNIT ( ) );
#189 = DIRECTION ( 'NONE',  ( -1.000000000000000000, 0.0000000000000000000, 1.224646799147353200E-016 ) ) ;
#190 = DIRECTION ( 'NONE',  ( -1.224646799147353200E-016, 0.0000000000000000000, -1.000000000000000000 ) ) ;
#191 = ORIENTED_EDGE ( 'NONE', *, *, #39, .F. ) ;
#192 = CARTESIAN_POINT ( 'NONE',  ( 0.0000000000000000000, 0.3005234689460456500, 0.0000000000000000000 ) ) ;
#193 = DIRECTION ( 'NONE',  ( -0.0000000000000000000, -1.000000000000000000, -0.0000000000000000000 ) ) ;
#194 = DATE_AND_TIME ( #172, #209 ) ;
#195 = CARTESIAN_POINT ( 'NONE',  ( 0.0000000000000000000, 12.50000000000000000, 0.0000000000000000000 ) ) ;
#196 = VECTOR ( 'NONE', #244, 1000.000000000000000 ) ;
#197 =( NAMED_UNIT ( * ) PLANE_ANGLE_UNIT ( ) SI_UNIT ( $, .RADIAN. ) );
#198 = DIRECTION ( 'NONE',  ( 0.0000000000000000000, 0.0000000000000000000, -1.000000000000000000 ) ) ;
#199 = DIRECTION ( 'NONE',  ( -0.0000000000000000000, -1.000000000000000000, -0.0000000000000000000 ) ) ;
#200 = CALENDAR_DATE ( 2016, 20, 5 ) ;
#201 = DIRECTION ( 'NONE',  ( 0.0000000000000000000, -0.5150380749100562600, -0.8571673007021111100 ) ) ;
#202 = PRODUCT_DEFINITION_FORMATION_WITH_SPECIFIED_SOURCE ( 'ANY', '', #60, .NOT_KNOWN. ) ;
#203 = CC_DESIGN_APPROVAL ( #186, ( #144 ) ) ;
#204 = LINE ( 'NONE', #160, #113 ) ;
#205 = DIRECTION ( 'NONE',  ( -0.0000000000000000000, -0.0000000000000000000, -1.000000000000000000 ) ) ;
#206 = EDGE_LOOP ( 'NONE', ( #191, #164, #157, #271, #52 ) ) ;
#207 = AXIS2_PLACEMENT_3D ( 'NONE', #284, #263, #32 ) ;
#208 = MANIFOLD_SOLID_BREP ( 'M6 Gewindebohrung2', #246 ) ;
#209 = LOCAL_TIME ( 10, 21, 21.00000000000000000, #273 ) ;
#210 = APPLICATION_CONTEXT ( 'configuration controlled 3d designs of mechanical parts and assemblies' ) ;
#211 = VERTEX_POINT ( 'NONE', #122 ) ;
#212 = FACE_OUTER_BOUND ( 'NONE', #37, .T. ) ;
#213 = DIRECTION ( 'NONE',  ( 0.0000000000000000000, 0.0000000000000000000, -1.000000000000000000 ) ) ;
#214 = DATE_AND_TIME ( #200, #168 ) ;
#215 = PERSON_AND_ORGANIZATION ( #65, #239 ) ;
#216 = CARTESIAN_POINT ( 'NONE',  ( 0.0000000000000000000, 0.3005234689460456500, 0.0000000000000000000 ) ) ;
#217 = CALENDAR_DATE ( 2016, 20, 5 ) ;
#218 = CARTESIAN_POINT ( 'NONE',  ( 0.0000000000000000000, 12.50000000000000000, 0.0000000000000000000 ) ) ;
#219 = DIRECTION ( 'NONE',  ( -0.0000000000000000000, 0.0000000000000000000, 1.000000000000000000 ) ) ;
#220 = CARTESIAN_POINT ( 'NONE',  ( 0.0000000000000000000, 0.3005234689460456500, -2.724476531053952000 ) ) ;
#221 = PERSON_AND_ORGANIZATION_ROLE ( 'classification_officer' ) ;
#222 = ADVANCED_BREP_SHAPE_REPRESENTATION ( '51025-240', ( #208, #112 ), #141 ) ;
#223 = DIRECTION ( 'NONE',  ( 1.000000000000000000, 0.0000000000000000000, 0.0000000000000000000 ) ) ;
#224 = DIRECTION ( 'NONE',  ( 0.0000000000000000000, 0.0000000000000000000, -1.000000000000000000 ) ) ;
#225 = APPROVAL_DATE_TIME ( #94, #153 ) ;
#226 = CARTESIAN_POINT ( 'NONE',  ( 0.0000000000000000000, 0.0000000000000000000, 0.0000000000000000000 ) ) ;
#227 = VERTEX_POINT ( 'NONE', #13 ) ;
#228 = EDGE_LOOP ( 'NONE', ( #234, #136, #230 ) ) ;
#229 = AXIS2_PLACEMENT_3D ( 'NONE', #251, #275, #10 ) ;
#230 = ORIENTED_EDGE ( 'NONE', *, *, #91, .T. ) ;
#231 = PRODUCT_DEFINITION_SHAPE ( 'NONE', 'NONE',  #150 ) ;
#232 = AXIS2_PLACEMENT_3D ( 'NONE', #279, #146, #151 ) ;
#233 = DIRECTION ( 'NONE',  ( -0.0000000000000000000, -1.000000000000000000, -0.0000000000000000000 ) ) ;
#234 = ORIENTED_EDGE ( 'NONE', *, *, #126, .F. ) ;
#235 = SECURITY_CLASSIFICATION_LEVEL ( 'unclassified' ) ;
#236 = DIRECTION ( 'NONE',  ( -0.0000000000000000000, -1.000000000000000000, -0.0000000000000000000 ) ) ;
#237 = MECHANICAL_CONTEXT ( 'NONE', #210, 'mechanical' ) ;
#238 = EDGE_CURVE ( 'NONE', #64, #211, #265, .T. ) ;
#239 = ORGANIZATION ( 'UNSPECIFIED', 'UNSPECIFIED', '' ) ;
#240 = EDGE_CURVE ( 'NONE', #64, #2, #270, .T. ) ;
#241 = AXIS2_PLACEMENT_3D ( 'NONE', #195, #190, #189 ) ;
#242 = APPLICATION_PROTOCOL_DEFINITION ( 'international standard', 'config_control_design', 1994, #131 ) ;
#243 = APPROVAL ( #53, 'UNSPECIFIED' ) ;
#244 = DIRECTION ( 'NONE',  ( 0.0000000000000000000, -0.7071067811865449100, -0.7071067811865501300 ) ) ;
#245 = ADVANCED_FACE ( 'NONE', ( #68 ), #7, .T. ) ;
#246 = CLOSED_SHELL ( 'NONE', ( #139, #288, #145, #245, #180, #125, #110, #50 ) ) ;
#247 = ORIENTED_EDGE ( 'NONE', *, *, #240, .F. ) ;
#248 = APPROVAL_ROLE ( '' ) ;
#249 =( LENGTH_UNIT ( ) NAMED_UNIT ( * ) SI_UNIT ( .MILLI., .METRE. ) );
#250 = VERTEX_POINT ( 'NONE', #274 ) ;
#251 = CARTESIAN_POINT ( 'NONE',  ( 0.0000000000000000000, 12.50000000000000000, 0.0000000000000000000 ) ) ;
#252 = UNCERTAINTY_MEASURE_WITH_UNIT (LENGTH_MEASURE( 1.000000000000000100E-005 ), #249, 'distance_accuracy_value', 'NONE');
#253 = CC_DESIGN_PERSON_AND_ORGANIZATION_ASSIGNMENT ( #215, #161, ( #202 ) ) ;
#254 = PERSON_AND_ORGANIZATION_ROLE ( 'creator' ) ;
#255 = PERSON_AND_ORGANIZATION ( #65, #239 ) ;
#256 = APPROVAL_ROLE ( '' ) ;
#257 = EDGE_CURVE ( 'NONE', #2, #109, #88, .T. ) ;
#258 = ORIENTED_EDGE ( 'NONE', *, *, #260, .F. ) ;
#259 = ORIENTED_EDGE ( 'NONE', *, *, #12, .F. ) ;
#260 = EDGE_CURVE ( 'NONE', #109, #182, #204, .T. ) ;
#261 = CIRCLE ( 'NONE', #96, 2.724476531053952000 ) ;
#262 = CYLINDRICAL_SURFACE ( 'NONE', #154, 2.499999999999996900 ) ;
#263 = DIRECTION ( 'NONE',  ( -0.0000000000000000000, -1.000000000000000000, -0.0000000000000000000 ) ) ;
#264 = APPROVAL_DATE_TIME ( #214, #243 ) ;
#265 = LINE ( 'NONE', #115, #95 ) ;
#266 = ORIENTED_EDGE ( 'NONE', *, *, #238, .T. ) ;
#267 = CARTESIAN_POINT ( 'NONE',  ( 0.0000000000000000000, 0.0000000000000000000, 0.0000000000000000000 ) ) ;
#268 = PERSON_AND_ORGANIZATION_ROLE ( 'design_owner' ) ;
#269 = LOCAL_TIME ( 10, 21, 21.00000000000000000, #59 ) ;
#270 = CIRCLE ( 'NONE', #277, 2.499999999999995600 ) ;
#271 = ORIENTED_EDGE ( 'NONE', *, *, #291, .T. ) ;
#272 = CC_DESIGN_PERSON_AND_ORGANIZATION_ASSIGNMENT ( #280, #8, ( #202 ) ) ;
#273 = COORDINATED_UNIVERSAL_TIME_OFFSET ( 1, 0, .AHEAD. ) ;
#274 = CARTESIAN_POINT ( 'NONE',  ( -5.021578853672842600E-015, 20.50215154756890400, 0.0000000000000000000 ) ) ;
#275 = DIRECTION ( 'NONE',  ( -0.0000000000000000000, -0.0000000000000000000, -1.000000000000000000 ) ) ;
#276 = DIRECTION ( 'NONE',  ( 8.659560562354964900E-017, -0.7071067811865449100, 0.7071067811865501300 ) ) ;
#277 = AXIS2_PLACEMENT_3D ( 'NONE', #89, #193, #158 ) ;
#278 = EDGE_LOOP ( 'NONE', ( #258, #282, #75, #142, #293 ) ) ;
#279 = CARTESIAN_POINT ( 'NONE',  ( 0.0000000000000000000, 0.3005234689460456500, 0.0000000000000000000 ) ) ;
#280 = PERSON_AND_ORGANIZATION ( #65, #239 ) ;
#281 = VECTOR ( 'NONE', #201, 1000.000000000000000 ) ;
#282 = ORIENTED_EDGE ( 'NONE', *, *, #105, .F. ) ;
#283 = DIRECTION ( 'NONE',  ( -0.0000000000000000000, -1.000000000000000000, -0.0000000000000000000 ) ) ;
#284 = CARTESIAN_POINT ( 'NONE',  ( 0.0000000000000000000, 0.0000000000000000000, 0.0000000000000000000 ) ) ;
#285 = ORIENTED_EDGE ( 'NONE', *, *, #42, .F. ) ;
#286 = ORIENTED_EDGE ( 'NONE', *, *, #18, .F. ) ;
#287 = CONICAL_SURFACE ( 'NONE', #1, 2.499999999999995600, 1.029744258676652100 ) ;
#288 = ADVANCED_FACE ( 'NONE', ( #9 ), #262, .F. ) ;
#289 = CARTESIAN_POINT ( 'NONE',  ( 0.0000000000000000000, 0.0000000000000000000, -3.024999999999999900 ) ) ;
#290 = ORIENTED_EDGE ( 'NONE', *, *, #23, .F. ) ;
#291 = EDGE_CURVE ( 'NONE', #227, #74, #36, .T. ) ;
#292 = AXIS2_PLACEMENT_3D ( 'NONE', #218, #219, #223 ) ;
#293 = ORIENTED_EDGE ( 'NONE', *, *, #23, .T. ) ;
#294 = CARTESIAN_POINT ( 'NONE',  ( 0.0000000000000000000, 0.0000000000000000000, 0.0000000000000000000 ) ) ;
#295 = DIRECTION ( 'NONE',  ( -0.0000000000000000000, -1.000000000000000000, -0.0000000000000000000 ) ) ;
ENDSEC;
END-ISO-10303-21;
