ISO-10303-21;
HEADER;
FILE_DESCRIPTION (( 'STEP AP203' ),
    '1' );
FILE_NAME ('51030-240.step',
    '2023-09-08T07:10:38',
    ( '' ),
    ( '' ),
    'SwSTEP 2.0',
    'SolidWorks 2018',
    '' );
FILE_SCHEMA (( 'CONFIG_CONTROL_DESIGN' ));
ENDSEC;

DATA;
#1 = CC_DESIGN_APPROVAL ( #17, ( #135 ) ) ;
#2 = DATE_AND_TIME ( #100, #20 ) ;
#3 = PRODUCT_DEFINITION_FORMATION_WITH_SPECIFIED_SOURCE ( 'ANY', '', #130, .NOT_KNOWN. ) ;
#4 = COORDINATED_UNIVERSAL_TIME_OFFSET ( 1, 0, .AHEAD. ) ;
#5 = ORIENTED_EDGE ( 'NONE', *, *, #34, .T. ) ;
#6 = CC_DESIGN_DATE_AND_TIME_ASSIGNMENT ( #52, #134, ( #135 ) ) ;
#7 = PERSON_AND_ORGANIZATION ( #88, #40 ) ;
#8 = LOCAL_TIME ( 9, 10, 38.00000000000000000, #59 ) ;
#9 = APPLICATION_CONTEXT ( 'configuration controlled 3d designs of mechanical parts and assemblies' ) ;
#10 = PERSON_AND_ORGANIZATION_ROLE ( 'creator' ) ;
#11 = APPLICATION_PROTOCOL_DEFINITION ( 'international standard', 'config_control_design', 1994, #9 ) ;
#12 = CC_DESIGN_PERSON_AND_ORGANIZATION_ASSIGNMENT ( #126, #114, ( #3 ) ) ;
#13 = MECHANICAL_CONTEXT ( 'NONE', #62, 'mechanical' ) ;
#14 = CC_DESIGN_DATE_AND_TIME_ASSIGNMENT ( #89, #94, ( #53 ) ) ;
#15 = APPROVAL_PERSON_ORGANIZATION ( #30, #64, #123 ) ;
#16 = ORIENTED_EDGE ( 'NONE', *, *, #67, .T. ) ;
#17 = APPROVAL ( #33, 'UNSPECIFIED' ) ;
#18 = DIRECTION ( 'NONE',  ( 0.000000000000000000, 0.000000000000000000, -1.000000000000000000 ) ) ;
#19 = COORDINATED_UNIVERSAL_TIME_OFFSET ( 1, 0, .AHEAD. ) ;
#20 = LOCAL_TIME ( 9, 10, 38.00000000000000000, #48 ) ;
#21 = APPROVAL_PERSON_ORGANIZATION ( #43, #50, #103 ) ;
#22 = PERSON_AND_ORGANIZATION ( #88, #40 ) ;
#23 = AXIS2_PLACEMENT_3D ( 'NONE', #56, #55, #122 ) ;
#24 = UNCERTAINTY_MEASURE_WITH_UNIT (LENGTH_MEASURE( 1.000000000000000082E-05 ), #45, 'distance_accuracy_value', 'NONE');
#25 = PERSON_AND_ORGANIZATION ( #88, #40 ) ;
#26 = PERSON_AND_ORGANIZATION ( #88, #40 ) ;
#27 = CONICAL_SURFACE ( 'NONE', #51, 2.499999999999986677, 1.029744258676651647 ) ;
#28 = DIRECTION ( 'NONE',  ( 0.000000000000000000, 0.000000000000000000, -1.000000000000000000 ) ) ;
#29 = LOCAL_TIME ( 9, 10, 38.00000000000000000, #4 ) ;
#30 = PERSON_AND_ORGANIZATION ( #88, #40 ) ;
#31 = PERSON_AND_ORGANIZATION_ROLE ( 'creator' ) ;
#32 = AXIS2_PLACEMENT_3D ( 'NONE', #68, #69, #28 ) ;
#33 = APPROVAL_STATUS ( 'not_yet_approved' ) ;
#34 = EDGE_CURVE ( 'NONE', #44, #44, #102, .T. ) ;
#35 = MANIFOLD_SOLID_BREP ( 'M6 Gewindebohrung2', #121 ) ;
#36 = DIRECTION ( 'NONE',  ( -1.000000000000000000, -2.312964634635742957E-16, 0.000000000000000000 ) ) ;
#37 = CC_DESIGN_SECURITY_CLASSIFICATION ( #135, ( #3 ) ) ;
#38 = EDGE_LOOP ( 'NONE', ( #16 ) ) ;
#39 = APPROVAL_STATUS ( 'not_yet_approved' ) ;
#40 = ORGANIZATION ( 'UNSPECIFIED', 'UNSPECIFIED', '' ) ;
#41 = PERSON_AND_ORGANIZATION_ROLE ( 'classification_officer' ) ;
#42 = CC_DESIGN_APPROVAL ( #50, ( #3 ) ) ;
#43 = PERSON_AND_ORGANIZATION ( #88, #40 ) ;
#44 = VERTEX_POINT ( 'NONE', #118 ) ;
#45 =( LENGTH_UNIT ( ) NAMED_UNIT ( * ) SI_UNIT ( .MILLI., .METRE. ) );
#46 = DIRECTION ( 'NONE',  ( 0.000000000000000000, 0.000000000000000000, -1.000000000000000000 ) ) ;
#47 =( GEOMETRIC_REPRESENTATION_CONTEXT ( 3 ) GLOBAL_UNCERTAINTY_ASSIGNED_CONTEXT ( ( #24 ) ) GLOBAL_UNIT_ASSIGNED_CONTEXT ( ( #45, #131, #99 ) ) REPRESENTATION_CONTEXT ( 'NONE', 'WORKASPACE' ) );
#48 = COORDINATED_UNIVERSAL_TIME_OFFSET ( 1, 0, .AHEAD. ) ;
#49 = APPROVAL_DATE_TIME ( #105, #50 ) ;
#50 = APPROVAL ( #60, 'UNSPECIFIED' ) ;
#51 = AXIS2_PLACEMENT_3D ( 'NONE', #83, #112, #46 ) ;
#52 = DATE_AND_TIME ( #79, #29 ) ;
#53 = PRODUCT_DEFINITION ( 'UNKNOWN', '', #3, #120 ) ;
#54 = CC_DESIGN_PERSON_AND_ORGANIZATION_ASSIGNMENT ( #22, #101, ( #130 ) ) ;
#55 = DIRECTION ( 'NONE',  ( 0.000000000000000000, 0.000000000000000000, 1.000000000000000000 ) ) ;
#56 = CARTESIAN_POINT ( 'NONE',  ( 0.000000000000000000, 0.000000000000000000, 0.000000000000000000 ) ) ;
#57 = ORIENTED_EDGE ( 'NONE', *, *, #34, .F. ) ;
#58 = CARTESIAN_POINT ( 'NONE',  ( 0.000000000000000000, 0.2098005422509572337, 0.000000000000000000 ) ) ;
#59 = COORDINATED_UNIVERSAL_TIME_OFFSET ( 1, 0, .AHEAD. ) ;
#60 = APPROVAL_STATUS ( 'not_yet_approved' ) ;
#61 = APPROVAL_ROLE ( '' ) ;
#62 = APPLICATION_CONTEXT ( 'configuration controlled 3d designs of mechanical parts and assemblies' ) ;
#63 = APPROVAL_DATE_TIME ( #119, #64 ) ;
#64 = APPROVAL ( #39, 'UNSPECIFIED' ) ;
#65 = ORIENTED_EDGE ( 'NONE', *, *, #67, .F. ) ;
#66 = PRODUCT_RELATED_PRODUCT_CATEGORY ( 'detail', '', ( #130 ) ) ;
#67 = EDGE_CURVE ( 'NONE', #80, #80, #70, .T. ) ;
#68 = CARTESIAN_POINT ( 'NONE',  ( 0.000000000000000000, 0.000000000000000000, 0.000000000000000000 ) ) ;
#69 = DIRECTION ( 'NONE',  ( -0.000000000000000000, -1.000000000000000000, -0.000000000000000000 ) ) ;
#70 = CIRCLE ( 'NONE', #82, 2.499999999999988454 ) ;
#71 = EDGE_LOOP ( 'NONE', ( #65 ) ) ;
#72 = LOCAL_TIME ( 9, 10, 38.00000000000000000, #108 ) ;
#73 = FACE_OUTER_BOUND ( 'NONE', #71, .T. ) ;
#74 = ADVANCED_FACE ( 'NONE', ( #116, #92 ), #132, .F. ) ;
#75 = ADVANCED_FACE ( 'NONE', ( #85 ), #27, .F. ) ;
#76 = SHAPE_DEFINITION_REPRESENTATION ( #117, #125 ) ;
#77 = DIRECTION ( 'NONE',  ( -0.000000000000000000, -1.000000000000000000, -0.000000000000000000 ) ) ;
#78 = CALENDAR_DATE ( 2023, 8, 9 ) ;
#79 = CALENDAR_DATE ( 2023, 8, 9 ) ;
#80 = VERTEX_POINT ( 'NONE', #91 ) ;
#81 = CARTESIAN_POINT ( 'NONE',  ( 0.000000000000000000, 17.00000000000000000, 0.000000000000000000 ) ) ;
#82 = AXIS2_PLACEMENT_3D ( 'NONE', #58, #133, #113 ) ;
#83 = CARTESIAN_POINT ( 'NONE',  ( 0.000000000000000000, 17.00000000000000000, 0.000000000000000000 ) ) ;
#84 = SECURITY_CLASSIFICATION_LEVEL ( 'unclassified' ) ;
#85 = FACE_OUTER_BOUND ( 'NONE', #111, .T. ) ;
#86 = PERSON_AND_ORGANIZATION ( #88, #40 ) ;
#87 = ADVANCED_FACE ( 'NONE', ( #73 ), #96, .T. ) ;
#88 = PERSON ( 'UNSPECIFIED', 'UNSPECIFIED', 'UNSPECIFIED', ('UNSPECIFIED'), ('UNSPECIFIED'), ('UNSPECIFIED') ) ;
#89 = DATE_AND_TIME ( #115, #8 ) ;
#90 = DIRECTION ( 'NONE',  ( -0.000000000000000000, 0.000000000000000000, -1.000000000000000000 ) ) ;
#91 = CARTESIAN_POINT ( 'NONE',  ( 0.000000000000000000, 0.2098005422509572337, 2.499999999999988454 ) ) ;
#92 = FACE_OUTER_BOUND ( 'NONE', #98, .T. ) ;
#93 = CC_DESIGN_APPROVAL ( #64, ( #53 ) ) ;
#94 = DATE_TIME_ROLE ( 'creation_date' ) ;
#95 = AXIS2_PLACEMENT_3D ( 'NONE', #97, #90, #36 ) ;
#96 = SPHERICAL_SURFACE ( 'NONE', #95, 15.00000000000000000 ) ;
#97 = CARTESIAN_POINT ( 'NONE',  ( -6.933347799794072061E-32, 15.00000000000000000, 0.000000000000000000 ) ) ;
#98 = EDGE_LOOP ( 'NONE', ( #57 ) ) ;
#99 =( NAMED_UNIT ( * ) SI_UNIT ( $, .STERADIAN. ) SOLID_ANGLE_UNIT ( ) );
#100 = CALENDAR_DATE ( 2023, 8, 9 ) ;
#101 = PERSON_AND_ORGANIZATION_ROLE ( 'design_owner' ) ;
#102 = CIRCLE ( 'NONE', #106, 2.499999999999986677 ) ;
#103 = APPROVAL_ROLE ( '' ) ;
#104 = APPROVAL_PERSON_ORGANIZATION ( #25, #17, #61 ) ;
#105 = DATE_AND_TIME ( #78, #72 ) ;
#106 = AXIS2_PLACEMENT_3D ( 'NONE', #81, #77, #18 ) ;
#107 = APPROVAL_DATE_TIME ( #2, #17 ) ;
#108 = COORDINATED_UNIVERSAL_TIME_OFFSET ( 1, 0, .AHEAD. ) ;
#109 = LOCAL_TIME ( 9, 10, 38.00000000000000000, #19 ) ;
#110 = CC_DESIGN_PERSON_AND_ORGANIZATION_ASSIGNMENT ( #86, #31, ( #53 ) ) ;
#111 = EDGE_LOOP ( 'NONE', ( #5 ) ) ;
#112 = DIRECTION ( 'NONE',  ( -0.000000000000000000, -1.000000000000000000, -0.000000000000000000 ) ) ;
#113 = DIRECTION ( 'NONE',  ( 0.000000000000000000, 0.000000000000000000, 1.000000000000000000 ) ) ;
#114 = PERSON_AND_ORGANIZATION_ROLE ( 'design_supplier' ) ;
#115 = CALENDAR_DATE ( 2023, 8, 9 ) ;
#116 = FACE_OUTER_BOUND ( 'NONE', #38, .T. ) ;
#117 = PRODUCT_DEFINITION_SHAPE ( 'NONE', 'NONE',  #53 ) ;
#118 = CARTESIAN_POINT ( 'NONE',  ( 0.000000000000000000, 17.00000000000000000, -2.499999999999986677 ) ) ;
#119 = DATE_AND_TIME ( #128, #109 ) ;
#120 = DESIGN_CONTEXT ( 'detailed design', #9, 'design' ) ;
#121 = CLOSED_SHELL ( 'NONE', ( #87, #75, #74 ) ) ;
#122 = DIRECTION ( 'NONE',  ( 1.000000000000000000, 0.000000000000000000, 0.000000000000000000 ) ) ;
#123 = APPROVAL_ROLE ( '' ) ;
#124 = APPLICATION_PROTOCOL_DEFINITION ( 'international standard', 'config_control_design', 1994, #62 ) ;
#125 = ADVANCED_BREP_SHAPE_REPRESENTATION ( '51030-240', ( #35, #23 ), #47 ) ;
#126 = PERSON_AND_ORGANIZATION ( #88, #40 ) ;
#127 = CC_DESIGN_PERSON_AND_ORGANIZATION_ASSIGNMENT ( #7, #41, ( #135 ) ) ;
#128 = CALENDAR_DATE ( 2023, 8, 9 ) ;
#129 = CC_DESIGN_PERSON_AND_ORGANIZATION_ASSIGNMENT ( #26, #10, ( #3 ) ) ;
#130 = PRODUCT ( '51030-240', '51030-240', '', ( #13 ) ) ;
#131 =( NAMED_UNIT ( * ) PLANE_ANGLE_UNIT ( ) SI_UNIT ( $, .RADIAN. ) );
#132 = CYLINDRICAL_SURFACE ( 'NONE', #32, 2.499999999999988454 ) ;
#133 = DIRECTION ( 'NONE',  ( -0.000000000000000000, -1.000000000000000000, -0.000000000000000000 ) ) ;
#134 = DATE_TIME_ROLE ( 'classification_date' ) ;
#135 = SECURITY_CLASSIFICATION ( '', '', #84 ) ;
ENDSEC;
END-ISO-10303-21;
