ISO-10303-21;
HEADER;
FILE_DESCRIPTION (( 'STEP AP203' ),
    '1' );
FILE_NAME ('51040-240.STEP',
    '2016-05-20T08:33:05',
    ( '' ),
    ( '' ),
    'SwSTEP 2.0',
    'SolidWorks 2015',
    '' );
FILE_SCHEMA (( 'CONFIG_CONTROL_DESIGN' ));
ENDSEC;

DATA;
#1 = CARTESIAN_POINT ( 'NONE',  ( 0.0000000000000000000, -1.734723475976807100E-015, 0.0000000000000000000 ) ) ;
#2 = CARTESIAN_POINT ( 'NONE',  ( 0.0000000000000000000, 20.00000000000000000, 0.0000000000000000000 ) ) ;
#3 = DATE_TIME_ROLE ( 'creation_date' ) ;
#4 = LOCAL_TIME ( 10, 33, 5.000000000000000000, #265 ) ;
#5 = ADVANCED_FACE ( 'NONE', ( #153 ), #43, .F. ) ;
#6 = ORIENTED_EDGE ( 'NONE', *, *, #7, .F. ) ;
#7 = EDGE_CURVE ( 'NONE', #137, #90, #85, .T. ) ;
#8 = CARTESIAN_POINT ( 'NONE',  ( 0.0000000000000000000, 0.6250000000000144300, -3.399999999999987900 ) ) ;
#9 = UNCERTAINTY_MEASURE_WITH_UNIT (LENGTH_MEASURE( 1.000000000000000100E-005 ), #269, 'distance_accuracy_value', 'NONE');
#10 = CARTESIAN_POINT ( 'NONE',  ( 0.0000000000000000000, 0.3420311255288438500, -3.682968874471157100 ) ) ;
#11 = DIRECTION ( 'NONE',  ( -0.0000000000000000000, 0.0000000000000000000, 1.000000000000000000 ) ) ;
#12 = LINE ( 'NONE', #107, #192 ) ;
#13 = EDGE_CURVE ( 'NONE', #41, #23, #132, .T. ) ;
#14 = ORIENTED_EDGE ( 'NONE', *, *, #70, .T. ) ;
#15 = CALENDAR_DATE ( 2016, 20, 5 ) ;
#16 = DATE_AND_TIME ( #276, #91 ) ;
#17 = ORIENTED_EDGE ( 'NONE', *, *, #125, .T. ) ;
#18 = DIRECTION ( 'NONE',  ( -0.0000000000000000000, -1.000000000000000000, -0.0000000000000000000 ) ) ;
#19 = CARTESIAN_POINT ( 'NONE',  ( 4.929203366568097200E-016, -1.734723475976807100E-015, 4.025000000000000400 ) ) ;
#20 = PERSON_AND_ORGANIZATION_ROLE ( 'design_supplier' ) ;
#21 = ORIENTED_EDGE ( 'NONE', *, *, #50, .F. ) ;
#22 = ADVANCED_FACE ( 'NONE', ( #48 ), #258, .F. ) ;
#23 = VERTEX_POINT ( 'NONE', #169 ) ;
#24 = CARTESIAN_POINT ( 'NONE',  ( 0.0000000000000000000, 0.6250000000000144300, 0.0000000000000000000 ) ) ;
#25 = LOCAL_TIME ( 10, 33, 5.000000000000000000, #272 ) ;
#26 = ORIENTED_EDGE ( 'NONE', *, *, #99, .T. ) ;
#27 = DIRECTION ( 'NONE',  ( -1.000000000000000000, 0.0000000000000000000, 1.224646799147353200E-016 ) ) ;
#28 = CC_DESIGN_PERSON_AND_ORGANIZATION_ASSIGNMENT ( #271, #156, ( #229 ) ) ;
#29 = COORDINATED_UNIVERSAL_TIME_OFFSET ( 1, 0, .AHEAD. ) ;
#30 = MANIFOLD_SOLID_BREP ( 'M8 Gewindebohrung2', #170 ) ;
#31 = CALENDAR_DATE ( 2016, 20, 5 ) ;
#32 = ORIENTED_EDGE ( 'NONE', *, *, #181, .F. ) ;
#33 = CONICAL_SURFACE ( 'NONE', #190, 4.025000000000000400, 0.7853981633974456100 ) ;
#34 = CARTESIAN_POINT ( 'NONE',  ( 0.0000000000000000000, 20.00000000000000000, 0.0000000000000000000 ) ) ;
#35 = CC_DESIGN_APPROVAL ( #54, ( #101 ) ) ;
#36 = SHAPE_DEFINITION_REPRESENTATION ( #165, #255 ) ;
#37 = CARTESIAN_POINT ( 'NONE',  ( 0.0000000000000000000, 19.00000000000000000, -3.399999999999994600 ) ) ;
#38 = DIRECTION ( 'NONE',  ( 0.0000000000000000000, -0.5150380749100560400, -0.8571673007021112200 ) ) ;
#39 = APPROVAL_PERSON_ORGANIZATION ( #150, #74, #104 ) ;
#40 = APPROVAL_DATE_TIME ( #119, #74 ) ;
#41 = VERTEX_POINT ( 'NONE', #152 ) ;
#42 = DIRECTION ( 'NONE',  ( 0.0000000000000000000, 0.0000000000000000000, -1.000000000000000000 ) ) ;
#43 = CONICAL_SURFACE ( 'NONE', #290, 4.025000000000000400, 0.7853981633974456100 ) ;
#44 = CALENDAR_DATE ( 2016, 20, 5 ) ;
#45 = FACE_OUTER_BOUND ( 'NONE', #260, .T. ) ;
#46 = ORIENTED_EDGE ( 'NONE', *, *, #273, .F. ) ;
#47 =( GEOMETRIC_REPRESENTATION_CONTEXT ( 3 ) GLOBAL_UNCERTAINTY_ASSIGNED_CONTEXT ( ( #9 ) ) GLOBAL_UNIT_ASSIGNED_CONTEXT ( ( #269, #88, #239 ) ) REPRESENTATION_CONTEXT ( 'NONE', 'WORKASPACE' ) );
#48 = FACE_OUTER_BOUND ( 'NONE', #118, .T. ) ;
#49 = EDGE_LOOP ( 'NONE', ( #106, #94, #121 ) ) ;
#50 = EDGE_CURVE ( 'NONE', #157, #90, #232, .T. ) ;
#51 = CC_DESIGN_PERSON_AND_ORGANIZATION_ASSIGNMENT ( #279, #63, ( #101 ) ) ;
#52 = ORIENTED_EDGE ( 'NONE', *, *, #221, .F. ) ;
#53 = DIRECTION ( 'NONE',  ( 0.0000000000000000000, 0.0000000000000000000, 1.000000000000000000 ) ) ;
#54 = APPROVAL ( #246, 'UNSPECIFIED' ) ;
#55 = AXIS2_PLACEMENT_3D ( 'NONE', #65, #227, #195 ) ;
#56 = PRODUCT ( '51040-240', '51040-240', '', ( #200 ) ) ;
#57 = APPROVAL_DATE_TIME ( #134, #54 ) ;
#58 = VERTEX_POINT ( 'NONE', #67 ) ;
#59 = PRODUCT_RELATED_PRODUCT_CATEGORY ( 'detail', '', ( #56 ) ) ;
#60 = APPROVAL_STATUS ( 'not_yet_approved' ) ;
#61 = AXIS2_PLACEMENT_3D ( 'NONE', #154, #285, #284 ) ;
#62 = LOCAL_TIME ( 10, 33, 5.000000000000000000, #205 ) ;
#63 = PERSON_AND_ORGANIZATION_ROLE ( 'creator' ) ;
#64 = DIRECTION ( 'NONE',  ( 0.0000000000000000000, 0.0000000000000000000, -1.000000000000000000 ) ) ;
#65 = CARTESIAN_POINT ( 'NONE',  ( 0.0000000000000000000, 19.00000000000000000, 0.0000000000000000000 ) ) ;
#66 = CARTESIAN_POINT ( 'NONE',  ( 0.0000000000000000000, -1.734723475976807100E-015, 0.0000000000000000000 ) ) ;
#67 = CARTESIAN_POINT ( 'NONE',  ( 0.0000000000000000000, 19.00000000000000000, -3.399999999999994600 ) ) ;
#68 = DIRECTION ( 'NONE',  ( -1.000000000000000000, 0.0000000000000000000, 0.0000000000000000000 ) ) ;
#69 = FACE_OUTER_BOUND ( 'NONE', #149, .T. ) ;
#70 = EDGE_CURVE ( 'NONE', #137, #188, #79, .T. ) ;
#71 = DIRECTION ( 'NONE',  ( -0.0000000000000000000, -0.0000000000000000000, -1.000000000000000000 ) ) ;
#72 = ADVANCED_FACE ( 'NONE', ( #210 ), #275, .F. ) ;
#73 = ORIENTED_EDGE ( 'NONE', *, *, #13, .F. ) ;
#74 = APPROVAL ( #60, 'UNSPECIFIED' ) ;
#75 = DIRECTION ( 'NONE',  ( 0.0000000000000000000, 0.0000000000000000000, 1.000000000000000000 ) ) ;
#76 = AXIS2_PLACEMENT_3D ( 'NONE', #208, #18, #120 ) ;
#77 = CIRCLE ( 'NONE', #89, 3.682968874471155300 ) ;
#78 = ORIENTED_EDGE ( 'NONE', *, *, #181, .T. ) ;
#79 = CIRCLE ( 'NONE', #197, 3.399999999999987900 ) ;
#80 = CARTESIAN_POINT ( 'NONE',  ( 0.0000000000000000000, 19.00000000000000000, 0.0000000000000000000 ) ) ;
#81 = DIRECTION ( 'NONE',  ( -0.0000000000000000000, -1.000000000000000000, -0.0000000000000000000 ) ) ;
#82 = AXIS2_PLACEMENT_3D ( 'NONE', #2, #11, #92 ) ;
#83 = ADVANCED_FACE ( 'NONE', ( #171 ), #126, .T. ) ;
#84 = PERSON_AND_ORGANIZATION ( #244, #167 ) ;
#85 = LINE ( 'NONE', #19, #112 ) ;
#86 = DIRECTION ( 'NONE',  ( -0.0000000000000000000, -1.000000000000000000, -0.0000000000000000000 ) ) ;
#87 = CARTESIAN_POINT ( 'NONE',  ( 0.0000000000000000000, 0.6250000000000144300, 0.0000000000000000000 ) ) ;
#88 =( NAMED_UNIT ( * ) PLANE_ANGLE_UNIT ( ) SI_UNIT ( $, .RADIAN. ) );
#89 = AXIS2_PLACEMENT_3D ( 'NONE', #251, #263, #53 ) ;
#90 = VERTEX_POINT ( 'NONE', #115 ) ;
#91 = LOCAL_TIME ( 10, 33, 5.000000000000000000, #114 ) ;
#92 = DIRECTION ( 'NONE',  ( 1.000000000000000000, 0.0000000000000000000, 0.0000000000000000000 ) ) ;
#93 = APPLICATION_PROTOCOL_DEFINITION ( 'international standard', 'config_control_design', 1994, #129 ) ;
#94 = ORIENTED_EDGE ( 'NONE', *, *, #292, .T. ) ;
#95 = APPLICATION_CONTEXT ( 'configuration controlled 3d designs of mechanical parts and assemblies' ) ;
#96 = VECTOR ( 'NONE', #38, 1000.000000000000000 ) ;
#97 = CC_DESIGN_DATE_AND_TIME_ASSIGNMENT ( #16, #3, ( #229 ) ) ;
#98 = DIRECTION ( 'NONE',  ( 0.0000000000000000000, 0.0000000000000000000, 1.000000000000000000 ) ) ;
#99 = EDGE_CURVE ( 'NONE', #188, #137, #281, .T. ) ;
#100 = ORIENTED_EDGE ( 'NONE', *, *, #292, .F. ) ;
#101 = PRODUCT_DEFINITION_FORMATION_WITH_SPECIFIED_SOURCE ( 'ANY', '', #56, .NOT_KNOWN. ) ;
#102 = DIRECTION ( 'NONE',  ( 0.0000000000000000000, 0.0000000000000000000, -1.000000000000000000 ) ) ;
#103 = DIRECTION ( 'NONE',  ( 0.0000000000000000000, 0.0000000000000000000, -1.000000000000000000 ) ) ;
#104 = APPROVAL_ROLE ( '' ) ;
#105 = ORIENTED_EDGE ( 'NONE', *, *, #109, .F. ) ;
#106 = ORIENTED_EDGE ( 'NONE', *, *, #125, .F. ) ;
#107 = CARTESIAN_POINT ( 'NONE',  ( 0.0000000000000000000, 0.0000000000000000000, -3.399999999999991500 ) ) ;
#108 = CARTESIAN_POINT ( 'NONE',  ( 3.682968874471148200, 0.3420311255288438500, -4.510336043480421500E-016 ) ) ;
#109 = EDGE_CURVE ( 'NONE', #41, #157, #211, .T. ) ;
#110 = CARTESIAN_POINT ( 'NONE',  ( 4.163799117100990700E-016, 0.0000000000000000000, 3.399999999999991500 ) ) ;
#111 = APPLICATION_PROTOCOL_DEFINITION ( 'international standard', 'config_control_design', 1994, #95 ) ;
#112 = VECTOR ( 'NONE', #131, 1000.000000000000100 ) ;
#113 = CARTESIAN_POINT ( 'NONE',  ( 0.0000000000000000000, 0.0000000000000000000, 0.0000000000000000000 ) ) ;
#114 = COORDINATED_UNIVERSAL_TIME_OFFSET ( 1, 0, .AHEAD. ) ;
#115 = CARTESIAN_POINT ( 'NONE',  ( 4.510336043480432400E-016, 0.3420311255288438500, 3.682968874471157100 ) ) ;
#116 = DATE_AND_TIME ( #31, #122 ) ;
#117 = CARTESIAN_POINT ( 'NONE',  ( 4.163799117100994600E-016, 19.00000000000000000, 3.399999999999994600 ) ) ;
#118 = EDGE_LOOP ( 'NONE', ( #100, #17, #143 ) ) ;
#119 = DATE_AND_TIME ( #173, #25 ) ;
#120 = DIRECTION ( 'NONE',  ( 0.0000000000000000000, 0.0000000000000000000, 1.000000000000000000 ) ) ;
#121 = ORIENTED_EDGE ( 'NONE', *, *, #273, .T. ) ;
#122 = LOCAL_TIME ( 10, 33, 5.000000000000000000, #29 ) ;
#123 = AXIS2_PLACEMENT_3D ( 'NONE', #215, #242, #75 ) ;
#124 = CARTESIAN_POINT ( 'NONE',  ( 0.0000000000000000000, 0.0000000000000000000, 0.0000000000000000000 ) ) ;
#125 = EDGE_CURVE ( 'NONE', #256, #128, #282, .T. ) ;
#126 = SPHERICAL_SURFACE ( 'NONE', #127, 20.00000000000000000 ) ;
#127 = AXIS2_PLACEMENT_3D ( 'NONE', #277, #130, #189 ) ;
#128 = VERTEX_POINT ( 'NONE', #160 ) ;
#129 = APPLICATION_CONTEXT ( 'configuration controlled 3d designs of mechanical parts and assemblies' ) ;
#130 = DIRECTION ( 'NONE',  ( -0.0000000000000000000, -0.0000000000000000000, -1.000000000000000000 ) ) ;
#131 = DIRECTION ( 'NONE',  ( 8.659560562354908200E-017, -0.7071067811865493500, 0.7071067811865455700 ) ) ;
#132 = CIRCLE ( 'NONE', #82, 20.00000000000000000 ) ;
#133 = DIRECTION ( 'NONE',  ( 0.0000000000000000000, 0.0000000000000000000, -1.000000000000000000 ) ) ;
#134 = DATE_AND_TIME ( #44, #62 ) ;
#135 = EDGE_CURVE ( 'NONE', #262, #157, #77, .T. ) ;
#136 = ORIENTED_EDGE ( 'NONE', *, *, #7, .T. ) ;
#137 = VERTEX_POINT ( 'NONE', #213 ) ;
#138 = SPHERICAL_SURFACE ( 'NONE', #241, 20.00000000000000000 ) ;
#139 = ADVANCED_FACE ( 'NONE', ( #264 ), #33, .F. ) ;
#140 = CYLINDRICAL_SURFACE ( 'NONE', #180, 3.399999999999991500 ) ;
#141 = DIRECTION ( 'NONE',  ( -0.0000000000000000000, -1.000000000000000000, -0.0000000000000000000 ) ) ;
#142 = DIRECTION ( 'NONE',  ( 1.049727191138617300E-016, -0.5150380749100560400, 0.8571673007021112200 ) ) ;
#143 = ORIENTED_EDGE ( 'NONE', *, *, #221, .T. ) ;
#144 = ORIENTED_EDGE ( 'NONE', *, *, #243, .F. ) ;
#145 = FACE_OUTER_BOUND ( 'NONE', #224, .T. ) ;
#146 = ORIENTED_EDGE ( 'NONE', *, *, #135, .F. ) ;
#147 = AXIS2_PLACEMENT_3D ( 'NONE', #248, #81, #98 ) ;
#148 = DIRECTION ( 'NONE',  ( -1.224646799147353200E-016, 0.0000000000000000000, -1.000000000000000000 ) ) ;
#149 = EDGE_LOOP ( 'NONE', ( #187, #46, #199, #26 ) ) ;
#150 = PERSON_AND_ORGANIZATION ( #244, #167 ) ;
#151 = LINE ( 'NONE', #37, #96 ) ;
#152 = CARTESIAN_POINT ( 'NONE',  ( -1.224646799147353300E-015, 40.00000000000000000, 0.0000000000000000000 ) ) ;
#153 = FACE_OUTER_BOUND ( 'NONE', #214, .T. ) ;
#154 = CARTESIAN_POINT ( 'NONE',  ( 0.0000000000000000000, 0.0000000000000000000, 0.0000000000000000000 ) ) ;
#155 = EDGE_CURVE ( 'NONE', #58, #188, #12, .T. ) ;
#156 = PERSON_AND_ORGANIZATION_ROLE ( 'creator' ) ;
#157 = VERTEX_POINT ( 'NONE', #108 ) ;
#158 = CARTESIAN_POINT ( 'NONE',  ( 0.0000000000000000000, -1.734723475976807100E-015, -4.025000000000000400 ) ) ;
#159 = CARTESIAN_POINT ( 'NONE',  ( 0.0000000000000000000, 19.00000000000000000, 0.0000000000000000000 ) ) ;
#160 = CARTESIAN_POINT ( 'NONE',  ( 4.163799117100994600E-016, 19.00000000000000000, 3.399999999999994600 ) ) ;
#161 = DIRECTION ( 'NONE',  ( 0.0000000000000000000, 0.0000000000000000000, -1.000000000000000000 ) ) ;
#162 = AXIS2_PLACEMENT_3D ( 'NONE', #87, #257, #161 ) ;
#163 = VECTOR ( 'NONE', #182, 1000.000000000000000 ) ;
#164 = CC_DESIGN_PERSON_AND_ORGANIZATION_ASSIGNMENT ( #168, #20, ( #101 ) ) ;
#165 = PRODUCT_DEFINITION_SHAPE ( 'NONE', 'NONE',  #229 ) ;
#166 = CC_DESIGN_PERSON_AND_ORGANIZATION_ASSIGNMENT ( #216, #222, ( #56 ) ) ;
#167 = ORGANIZATION ( 'UNSPECIFIED', 'UNSPECIFIED', '' ) ;
#168 = PERSON_AND_ORGANIZATION ( #244, #167 ) ;
#169 = CARTESIAN_POINT ( 'NONE',  ( -3.682968874471148200, 0.3420311255288438500, 0.0000000000000000000 ) ) ;
#170 = CLOSED_SHELL ( 'NONE', ( #139, #253, #22, #83, #250, #72, #280, #5 ) ) ;
#171 = FACE_OUTER_BOUND ( 'NONE', #176, .T. ) ;
#172 = APPROVAL ( #201, 'UNSPECIFIED' ) ;
#173 = CALENDAR_DATE ( 2016, 20, 5 ) ;
#174 = APPROVAL_ROLE ( '' ) ;
#175 = DIRECTION ( 'NONE',  ( -0.0000000000000000000, -1.000000000000000000, -0.0000000000000000000 ) ) ;
#176 = EDGE_LOOP ( 'NONE', ( #73, #291, #146, #32 ) ) ;
#177 = ORIENTED_EDGE ( 'NONE', *, *, #99, .F. ) ;
#178 = DIRECTION ( 'NONE',  ( -0.0000000000000000000, -1.000000000000000000, -0.0000000000000000000 ) ) ;
#179 = SECURITY_CLASSIFICATION_LEVEL ( 'unclassified' ) ;
#180 = AXIS2_PLACEMENT_3D ( 'NONE', #124, #175, #286 ) ;
#181 = EDGE_CURVE ( 'NONE', #23, #262, #225, .T. ) ;
#182 = DIRECTION ( 'NONE',  ( -0.0000000000000000000, -1.000000000000000000, -0.0000000000000000000 ) ) ;
#183 = CYLINDRICAL_SURFACE ( 'NONE', #226, 3.399999999999991500 ) ;
#184 = DIRECTION ( 'NONE',  ( -0.0000000000000000000, -1.000000000000000000, -0.0000000000000000000 ) ) ;
#185 = CARTESIAN_POINT ( 'NONE',  ( -5.154030419761487700E-015, 21.04292610469370900, 0.0000000000000000000 ) ) ;
#186 = CC_DESIGN_DATE_AND_TIME_ASSIGNMENT ( #233, #194, ( #212 ) ) ;
#187 = ORIENTED_EDGE ( 'NONE', *, *, #247, .F. ) ;
#188 = VERTEX_POINT ( 'NONE', #8 ) ;
#189 = DIRECTION ( 'NONE',  ( -1.000000000000000000, 0.0000000000000000000, 0.0000000000000000000 ) ) ;
#190 = AXIS2_PLACEMENT_3D ( 'NONE', #1, #289, #270 ) ;
#191 = DIRECTION ( 'NONE',  ( 0.0000000000000000000, -0.7071067811865493500, -0.7071067811865455700 ) ) ;
#192 = VECTOR ( 'NONE', #86, 1000.000000000000000 ) ;
#193 = ORIENTED_EDGE ( 'NONE', *, *, #135, .T. ) ;
#194 = DATE_TIME_ROLE ( 'classification_date' ) ;
#195 = DIRECTION ( 'NONE',  ( 0.0000000000000000000, 0.0000000000000000000, -1.000000000000000000 ) ) ;
#196 = CC_DESIGN_PERSON_AND_ORGANIZATION_ASSIGNMENT ( #203, #231, ( #212 ) ) ;
#197 = AXIS2_PLACEMENT_3D ( 'NONE', #24, #240, #64 ) ;
#198 = APPROVAL_PERSON_ORGANIZATION ( #294, #54, #288 ) ;
#199 = ORIENTED_EDGE ( 'NONE', *, *, #155, .T. ) ;
#200 = MECHANICAL_CONTEXT ( 'NONE', #129, 'mechanical' ) ;
#201 = APPROVAL_STATUS ( 'not_yet_approved' ) ;
#202 = CIRCLE ( 'NONE', #123, 3.682968874471155300 ) ;
#203 = PERSON_AND_ORGANIZATION ( #244, #167 ) ;
#204 = CC_DESIGN_SECURITY_CLASSIFICATION ( #212, ( #101 ) ) ;
#205 = COORDINATED_UNIVERSAL_TIME_OFFSET ( 1, 0, .AHEAD. ) ;
#206 = CIRCLE ( 'NONE', #55, 3.399999999999994600 ) ;
#207 = DIRECTION ( 'NONE',  ( 0.0000000000000000000, 0.0000000000000000000, -1.000000000000000000 ) ) ;
#208 = CARTESIAN_POINT ( 'NONE',  ( 0.0000000000000000000, 0.3420311255288438500, 0.0000000000000000000 ) ) ;
#209 = ORIENTED_EDGE ( 'NONE', *, *, #243, .T. ) ;
#210 = FACE_OUTER_BOUND ( 'NONE', #49, .T. ) ;
#211 = CIRCLE ( 'NONE', #274, 20.00000000000000000 ) ;
#212 = SECURITY_CLASSIFICATION ( '', '', #179 ) ;
#213 = CARTESIAN_POINT ( 'NONE',  ( 4.163799117100988200E-016, 0.6250000000000144300, 3.399999999999987900 ) ) ;
#214 = EDGE_LOOP ( 'NONE', ( #6, #177, #209, #193, #267 ) ) ;
#215 = CARTESIAN_POINT ( 'NONE',  ( 0.0000000000000000000, 0.3420311255288438500, 0.0000000000000000000 ) ) ;
#216 = PERSON_AND_ORGANIZATION ( #244, #167 ) ;
#217 = AXIS2_PLACEMENT_3D ( 'NONE', #238, #220, #42 ) ;
#218 = VECTOR ( 'NONE', #191, 1000.000000000000100 ) ;
#219 = ORIENTED_EDGE ( 'NONE', *, *, #234, .T. ) ;
#220 = DIRECTION ( 'NONE',  ( -0.0000000000000000000, -1.000000000000000000, -0.0000000000000000000 ) ) ;
#221 = EDGE_CURVE ( 'NONE', #128, #58, #293, .T. ) ;
#222 = PERSON_AND_ORGANIZATION_ROLE ( 'design_owner' ) ;
#223 = APPROVAL_DATE_TIME ( #116, #172 ) ;
#224 = EDGE_LOOP ( 'NONE', ( #105, #245, #230, #21 ) ) ;
#225 = CIRCLE ( 'NONE', #147, 3.682968874471155300 ) ;
#226 = AXIS2_PLACEMENT_3D ( 'NONE', #113, #283, #207 ) ;
#227 = DIRECTION ( 'NONE',  ( -0.0000000000000000000, -1.000000000000000000, -0.0000000000000000000 ) ) ;
#228 = ORIENTED_EDGE ( 'NONE', *, *, #155, .F. ) ;
#229 = PRODUCT_DEFINITION ( 'UNKNOWN', '', #101, #261 ) ;
#230 = ORIENTED_EDGE ( 'NONE', *, *, #234, .F. ) ;
#231 = PERSON_AND_ORGANIZATION_ROLE ( 'classification_officer' ) ;
#232 = CIRCLE ( 'NONE', #76, 3.682968874471155300 ) ;
#233 = DATE_AND_TIME ( #15, #4 ) ;
#234 = EDGE_CURVE ( 'NONE', #90, #23, #202, .T. ) ;
#235 = CC_DESIGN_APPROVAL ( #172, ( #212 ) ) ;
#236 = VECTOR ( 'NONE', #142, 1000.000000000000000 ) ;
#237 = AXIS2_PLACEMENT_3D ( 'NONE', #159, #141, #133 ) ;
#238 = CARTESIAN_POINT ( 'NONE',  ( 0.0000000000000000000, 19.00000000000000000, 0.0000000000000000000 ) ) ;
#239 =( NAMED_UNIT ( * ) SI_UNIT ( $, .STERADIAN. ) SOLID_ANGLE_UNIT ( ) );
#240 = DIRECTION ( 'NONE',  ( -0.0000000000000000000, -1.000000000000000000, -0.0000000000000000000 ) ) ;
#241 = AXIS2_PLACEMENT_3D ( 'NONE', #34, #71, #68 ) ;
#242 = DIRECTION ( 'NONE',  ( -0.0000000000000000000, -1.000000000000000000, -0.0000000000000000000 ) ) ;
#243 = EDGE_CURVE ( 'NONE', #188, #262, #254, .T. ) ;
#244 = PERSON ( 'UNSPECIFIED', 'UNSPECIFIED', 'UNSPECIFIED', ('UNSPECIFIED'), ('UNSPECIFIED'), ('UNSPECIFIED') ) ;
#245 = ORIENTED_EDGE ( 'NONE', *, *, #13, .T. ) ;
#246 = APPROVAL_STATUS ( 'not_yet_approved' ) ;
#247 = EDGE_CURVE ( 'NONE', #128, #137, #249, .T. ) ;
#248 = CARTESIAN_POINT ( 'NONE',  ( 0.0000000000000000000, 0.3420311255288438500, 0.0000000000000000000 ) ) ;
#249 = LINE ( 'NONE', #110, #163 ) ;
#250 = ADVANCED_FACE ( 'NONE', ( #145 ), #138, .T. ) ;
#251 = CARTESIAN_POINT ( 'NONE',  ( 0.0000000000000000000, 0.3420311255288438500, 0.0000000000000000000 ) ) ;
#252 = ORIENTED_EDGE ( 'NONE', *, *, #70, .F. ) ;
#253 = ADVANCED_FACE ( 'NONE', ( #45 ), #140, .F. ) ;
#254 = LINE ( 'NONE', #158, #218 ) ;
#255 = ADVANCED_BREP_SHAPE_REPRESENTATION ( '51040-240', ( #30, #61 ), #47 ) ;
#256 = VERTEX_POINT ( 'NONE', #185 ) ;
#257 = DIRECTION ( 'NONE',  ( -0.0000000000000000000, -1.000000000000000000, -0.0000000000000000000 ) ) ;
#258 = CONICAL_SURFACE ( 'NONE', #237, 3.399999999999994600, 1.029744258676652300 ) ;
#259 = APPROVAL_PERSON_ORGANIZATION ( #84, #172, #174 ) ;
#260 = EDGE_LOOP ( 'NONE', ( #52, #268, #14, #228 ) ) ;
#261 = DESIGN_CONTEXT ( 'detailed design', #95, 'design' ) ;
#262 = VERTEX_POINT ( 'NONE', #10 ) ;
#263 = DIRECTION ( 'NONE',  ( -0.0000000000000000000, -1.000000000000000000, -0.0000000000000000000 ) ) ;
#264 = FACE_OUTER_BOUND ( 'NONE', #266, .T. ) ;
#265 = COORDINATED_UNIVERSAL_TIME_OFFSET ( 1, 0, .AHEAD. ) ;
#266 = EDGE_LOOP ( 'NONE', ( #252, #136, #219, #78, #144 ) ) ;
#267 = ORIENTED_EDGE ( 'NONE', *, *, #50, .T. ) ;
#268 = ORIENTED_EDGE ( 'NONE', *, *, #247, .T. ) ;
#269 =( LENGTH_UNIT ( ) NAMED_UNIT ( * ) SI_UNIT ( .MILLI., .METRE. ) );
#270 = DIRECTION ( 'NONE',  ( 0.0000000000000000000, 0.0000000000000000000, -1.000000000000000000 ) ) ;
#271 = PERSON_AND_ORGANIZATION ( #244, #167 ) ;
#272 = COORDINATED_UNIVERSAL_TIME_OFFSET ( 1, 0, .AHEAD. ) ;
#273 = EDGE_CURVE ( 'NONE', #58, #128, #206, .T. ) ;
#274 = AXIS2_PLACEMENT_3D ( 'NONE', #287, #148, #27 ) ;
#275 = CONICAL_SURFACE ( 'NONE', #278, 3.399999999999994600, 1.029744258676652300 ) ;
#276 = CALENDAR_DATE ( 2016, 20, 5 ) ;
#277 = CARTESIAN_POINT ( 'NONE',  ( 0.0000000000000000000, 20.00000000000000000, 0.0000000000000000000 ) ) ;
#278 = AXIS2_PLACEMENT_3D ( 'NONE', #80, #178, #102 ) ;
#279 = PERSON_AND_ORGANIZATION ( #244, #167 ) ;
#280 = ADVANCED_FACE ( 'NONE', ( #69 ), #183, .F. ) ;
#281 = CIRCLE ( 'NONE', #162, 3.399999999999987900 ) ;
#282 = LINE ( 'NONE', #117, #236 ) ;
#283 = DIRECTION ( 'NONE',  ( -0.0000000000000000000, -1.000000000000000000, -0.0000000000000000000 ) ) ;
#284 = DIRECTION ( 'NONE',  ( 1.000000000000000000, 0.0000000000000000000, 0.0000000000000000000 ) ) ;
#285 = DIRECTION ( 'NONE',  ( 0.0000000000000000000, 0.0000000000000000000, 1.000000000000000000 ) ) ;
#286 = DIRECTION ( 'NONE',  ( 0.0000000000000000000, 0.0000000000000000000, -1.000000000000000000 ) ) ;
#287 = CARTESIAN_POINT ( 'NONE',  ( 0.0000000000000000000, 20.00000000000000000, 0.0000000000000000000 ) ) ;
#288 = APPROVAL_ROLE ( '' ) ;
#289 = DIRECTION ( 'NONE',  ( -0.0000000000000000000, -1.000000000000000000, -0.0000000000000000000 ) ) ;
#290 = AXIS2_PLACEMENT_3D ( 'NONE', #66, #184, #103 ) ;
#291 = ORIENTED_EDGE ( 'NONE', *, *, #109, .T. ) ;
#292 = EDGE_CURVE ( 'NONE', #256, #58, #151, .T. ) ;
#293 = CIRCLE ( 'NONE', #217, 3.399999999999994600 ) ;
#294 = PERSON_AND_ORGANIZATION ( #244, #167 ) ;
#295 = CC_DESIGN_APPROVAL ( #74, ( #229 ) ) ;
ENDSEC;
END-ISO-10303-21;
