ISO-10303-21;
HEADER;
FILE_DESCRIPTION (( 'STEP AP203' ),
    '1' );
FILE_NAME ('51050-240.STEP',
    '2016-05-20T08:36:06',
    ( '' ),
    ( '' ),
    'SwSTEP 2.0',
    'SolidWorks 2015',
    '' );
FILE_SCHEMA (( 'CONFIG_CONTROL_DESIGN' ));
ENDSEC;

DATA;
#1 = AXIS2_PLACEMENT_3D ( 'NONE', #282, #141, #123 ) ;
#2 = DIRECTION ( 'NONE',  ( 0.0000000000000000000, 0.0000000000000000000, -1.000000000000000000 ) ) ;
#3 = VERTEX_POINT ( 'NONE', #94 ) ;
#4 = AXIS2_PLACEMENT_3D ( 'NONE', #249, #136, #87 ) ;
#5 = CARTESIAN_POINT ( 'NONE',  ( 0.0000000000000000000, 0.2818168206863668200, 0.0000000000000000000 ) ) ;
#6 = VECTOR ( 'NONE', #153, 1000.000000000000000 ) ;
#7 = PERSON_AND_ORGANIZATION ( #144, #281 ) ;
#8 = DIRECTION ( 'NONE',  ( 0.0000000000000000000, 0.0000000000000000000, -1.000000000000000000 ) ) ;
#9 = VERTEX_POINT ( 'NONE', #191 ) ;
#10 = ORIENTED_EDGE ( 'NONE', *, *, #173, .T. ) ;
#11 = AXIS2_PLACEMENT_3D ( 'NONE', #248, #33, #118 ) ;
#12 = ADVANCED_FACE ( 'NONE', ( #104 ), #240, .T. ) ;
#13 = MECHANICAL_CONTEXT ( 'NONE', #26, 'mechanical' ) ;
#14 = EDGE_LOOP ( 'NONE', ( #179, #21, #60, #128 ) ) ;
#15 = CALENDAR_DATE ( 2016, 20, 5 ) ;
#16 = LINE ( 'NONE', #283, #204 ) ;
#17 = CALENDAR_DATE ( 2016, 20, 5 ) ;
#18 = ORIENTED_EDGE ( 'NONE', *, *, #186, .T. ) ;
#19 = ADVANCED_FACE ( 'NONE', ( #176 ), #78, .F. ) ;
#20 = ORIENTED_EDGE ( 'NONE', *, *, #137, .T. ) ;
#21 = ORIENTED_EDGE ( 'NONE', *, *, #167, .T. ) ;
#22 = EDGE_CURVE ( 'NONE', #56, #80, #92, .T. ) ;
#23 = DESIGN_CONTEXT ( 'detailed design', #206, 'design' ) ;
#24 = AXIS2_PLACEMENT_3D ( 'NONE', #5, #278, #264 ) ;
#25 = ADVANCED_FACE ( 'NONE', ( #86 ), #108, .F. ) ;
#26 = APPLICATION_CONTEXT ( 'configuration controlled 3d designs of mechanical parts and assemblies' ) ;
#27 = AXIS2_PLACEMENT_3D ( 'NONE', #225, #237, #183 ) ;
#28 = DATE_TIME_ROLE ( 'classification_date' ) ;
#29 = ORIENTED_EDGE ( 'NONE', *, *, #131, .F. ) ;
#30 = COORDINATED_UNIVERSAL_TIME_OFFSET ( 1, 0, .AHEAD. ) ;
#31 = DIRECTION ( 'NONE',  ( -0.0000000000000000000, -1.000000000000000000, -0.0000000000000000000 ) ) ;
#32 = AXIS2_PLACEMENT_3D ( 'NONE', #70, #247, #90 ) ;
#33 = DIRECTION ( 'NONE',  ( -0.0000000000000000000, -1.000000000000000000, -0.0000000000000000000 ) ) ;
#34 = FACE_OUTER_BOUND ( 'NONE', #208, .T. ) ;
#35 = ORIENTED_EDGE ( 'NONE', *, *, #286, .F. ) ;
#36 = CLOSED_SHELL ( 'NONE', ( #25, #19, #151, #12, #38, #245, #292, #265 ) ) ;
#37 = CC_DESIGN_APPROVAL ( #171, ( #270 ) ) ;
#38 = ADVANCED_FACE ( 'NONE', ( #43 ), #91, .T. ) ;
#39 = APPROVAL_STATUS ( 'not_yet_approved' ) ;
#40 = EDGE_CURVE ( 'NONE', #277, #3, #16, .T. ) ;
#41 = LINE ( 'NONE', #242, #6 ) ;
#42 = DATE_AND_TIME ( #275, #64 ) ;
#43 = FACE_OUTER_BOUND ( 'NONE', #14, .T. ) ;
#44 = CARTESIAN_POINT ( 'NONE',  ( 0.0000000000000000000, 0.6250000000000040000, 0.0000000000000000000 ) ) ;
#45 = ORIENTED_EDGE ( 'NONE', *, *, #173, .F. ) ;
#46 = PERSON_AND_ORGANIZATION ( #144, #281 ) ;
#47 = DATE_AND_TIME ( #17, #49 ) ;
#48 = CARTESIAN_POINT ( 'NONE',  ( 0.0000000000000000000, 19.00000000000000000, 0.0000000000000000000 ) ) ;
#49 = LOCAL_TIME ( 10, 36, 6.000000000000000000, #52 ) ;
#50 = FACE_OUTER_BOUND ( 'NONE', #169, .T. ) ;
#51 = AXIS2_PLACEMENT_3D ( 'NONE', #57, #31, #62 ) ;
#52 = COORDINATED_UNIVERSAL_TIME_OFFSET ( 1, 0, .AHEAD. ) ;
#53 = SHAPE_DEFINITION_REPRESENTATION ( #197, #295 ) ;
#54 = EDGE_CURVE ( 'NONE', #279, #80, #266, .T. ) ;
#55 = COORDINATED_UNIVERSAL_TIME_OFFSET ( 1, 0, .AHEAD. ) ;
#56 = VERTEX_POINT ( 'NONE', #269 ) ;
#57 = CARTESIAN_POINT ( 'NONE',  ( 0.0000000000000000000, 0.6250000000000040000, 0.0000000000000000000 ) ) ;
#58 = APPROVAL_DATE_TIME ( #119, #171 ) ;
#59 = CC_DESIGN_APPROVAL ( #95, ( #272 ) ) ;
#60 = ORIENTED_EDGE ( 'NONE', *, *, #174, .F. ) ;
#61 = AXIS2_PLACEMENT_3D ( 'NONE', #189, #135, #117 ) ;
#62 = DIRECTION ( 'NONE',  ( 0.0000000000000000000, 0.0000000000000000000, -1.000000000000000000 ) ) ;
#63 = ORIENTED_EDGE ( 'NONE', *, *, #156, .F. ) ;
#64 = LOCAL_TIME ( 10, 36, 6.000000000000000000, #214 ) ;
#65 = CONICAL_SURFACE ( 'NONE', #147, 3.399999999999994600, 1.029744258676652300 ) ;
#66 = PERSON_AND_ORGANIZATION ( #144, #281 ) ;
#67 = APPROVAL_STATUS ( 'not_yet_approved' ) ;
#68 = COORDINATED_UNIVERSAL_TIME_OFFSET ( 1, 0, .AHEAD. ) ;
#69 = DIRECTION ( 'NONE',  ( -0.0000000000000000000, -1.000000000000000000, -0.0000000000000000000 ) ) ;
#70 = CARTESIAN_POINT ( 'NONE',  ( 0.0000000000000000000, 25.00000000000000000, 0.0000000000000000000 ) ) ;
#71 = AXIS2_PLACEMENT_3D ( 'NONE', #268, #105, #280 ) ;
#72 = EDGE_LOOP ( 'NONE', ( #132, #285, #20, #180 ) ) ;
#73 = AXIS2_PLACEMENT_3D ( 'NONE', #234, #165, #255 ) ;
#74 = DIRECTION ( 'NONE',  ( 0.0000000000000000000, 0.0000000000000000000, 1.000000000000000000 ) ) ;
#75 = ORIENTED_EDGE ( 'NONE', *, *, #286, .T. ) ;
#76 = AXIS2_PLACEMENT_3D ( 'NONE', #134, #172, #244 ) ;
#77 = CC_DESIGN_DATE_AND_TIME_ASSIGNMENT ( #205, #194, ( #272 ) ) ;
#78 = CYLINDRICAL_SURFACE ( 'NONE', #27, 3.399999999999995900 ) ;
#79 = EDGE_CURVE ( 'NONE', #3, #200, #198, .T. ) ;
#80 = VERTEX_POINT ( 'NONE', #115 ) ;
#81 = DIRECTION ( 'NONE',  ( 1.000000000000000000, 0.0000000000000000000, 0.0000000000000000000 ) ) ;
#82 = CARTESIAN_POINT ( 'NONE',  ( 4.929203366568097200E-016, -1.734723475976807100E-015, 4.025000000000000400 ) ) ;
#83 = CARTESIAN_POINT ( 'NONE',  ( 0.0000000000000000000, 0.2818168206863668200, -3.743183179313633000 ) ) ;
#84 = SECURITY_CLASSIFICATION ( '', '', #223 ) ;
#85 = CONICAL_SURFACE ( 'NONE', #193, 3.399999999999994600, 1.029744258676652300 ) ;
#86 = FACE_OUTER_BOUND ( 'NONE', #175, .T. ) ;
#87 = DIRECTION ( 'NONE',  ( 0.0000000000000000000, 0.0000000000000000000, -1.000000000000000000 ) ) ;
#88 = UNCERTAINTY_MEASURE_WITH_UNIT (LENGTH_MEASURE( 1.000000000000000100E-005 ), #290, 'distance_accuracy_value', 'NONE');
#89 = DIRECTION ( 'NONE',  ( 8.659560562354915600E-017, -0.7071067811865489100, 0.7071067811865462400 ) ) ;
#90 = DIRECTION ( 'NONE',  ( -1.000000000000000000, 0.0000000000000000000, 0.0000000000000000000 ) ) ;
#91 = SPHERICAL_SURFACE ( 'NONE', #32, 25.00000000000000000 ) ;
#92 = CIRCLE ( 'NONE', #61, 25.00000000000000000 ) ;
#93 = CC_DESIGN_DATE_AND_TIME_ASSIGNMENT ( #47, #28, ( #84 ) ) ;
#94 = CARTESIAN_POINT ( 'NONE',  ( 0.0000000000000000000, 19.00000000000000000, -3.399999999999994600 ) ) ;
#95 = APPROVAL ( #67, 'UNSPECIFIED' ) ;
#96 = VECTOR ( 'NONE', #262, 1000.000000000000000 ) ;
#97 = ORIENTED_EDGE ( 'NONE', *, *, #131, .T. ) ;
#98 = ORIENTED_EDGE ( 'NONE', *, *, #40, .F. ) ;
#99 = CARTESIAN_POINT ( 'NONE',  ( 0.0000000000000000000, 19.00000000000000000, 0.0000000000000000000 ) ) ;
#100 = DIRECTION ( 'NONE',  ( -0.0000000000000000000, -1.000000000000000000, -0.0000000000000000000 ) ) ;
#101 = CALENDAR_DATE ( 2016, 20, 5 ) ;
#102 = ORIENTED_EDGE ( 'NONE', *, *, #137, .F. ) ;
#103 = PERSON_AND_ORGANIZATION_ROLE ( 'creator' ) ;
#104 = FACE_OUTER_BOUND ( 'NONE', #122, .T. ) ;
#105 = DIRECTION ( 'NONE',  ( -0.0000000000000000000, -0.0000000000000000000, -1.000000000000000000 ) ) ;
#106 = ORIENTED_EDGE ( 'NONE', *, *, #40, .T. ) ;
#107 = ORIENTED_EDGE ( 'NONE', *, *, #22, .T. ) ;
#108 = CONICAL_SURFACE ( 'NONE', #73, 4.025000000000000400, 0.7853981633974463900 ) ;
#109 = APPROVAL_PERSON_ORGANIZATION ( #213, #241, #170 ) ;
#110 = CYLINDRICAL_SURFACE ( 'NONE', #238, 3.399999999999995900 ) ;
#111 = DIRECTION ( 'NONE',  ( -0.0000000000000000000, -1.000000000000000000, -0.0000000000000000000 ) ) ;
#112 = CIRCLE ( 'NONE', #51, 3.399999999999997700 ) ;
#113 = CIRCLE ( 'NONE', #24, 3.743183179313636500 ) ;
#114 = APPROVAL_PERSON_ORGANIZATION ( #116, #171, #271 ) ;
#115 = CARTESIAN_POINT ( 'NONE',  ( 3.743183179313641000, 0.2818168206863668200, -4.584077299168662900E-016 ) ) ;
#116 = PERSON_AND_ORGANIZATION ( #144, #281 ) ;
#117 = DIRECTION ( 'NONE',  ( -1.000000000000000000, 0.0000000000000000000, 1.224646799147353200E-016 ) ) ;
#118 = DIRECTION ( 'NONE',  ( 0.0000000000000000000, 0.0000000000000000000, 1.000000000000000000 ) ) ;
#119 = DATE_AND_TIME ( #256, #259 ) ;
#120 = EDGE_CURVE ( 'NONE', #80, #215, #199, .T. ) ;
#121 = VECTOR ( 'NONE', #146, 1000.000000000000000 ) ;
#122 = EDGE_LOOP ( 'NONE', ( #184, #107, #140, #63 ) ) ;
#123 = DIRECTION ( 'NONE',  ( 1.000000000000000000, 0.0000000000000000000, 0.0000000000000000000 ) ) ;
#124 = LINE ( 'NONE', #274, #185 ) ;
#125 = CARTESIAN_POINT ( 'NONE',  ( 4.163799117100996100E-016, 0.0000000000000000000, 3.399999999999995900 ) ) ;
#126 = MANIFOLD_SOLID_BREP ( 'M8 Gewindebohrung3', #36 ) ;
#127 = DIRECTION ( 'NONE',  ( 0.0000000000000000000, -0.5150380749100560400, -0.8571673007021112200 ) ) ;
#128 = ORIENTED_EDGE ( 'NONE', *, *, #120, .F. ) ;
#129 = APPROVAL_STATUS ( 'not_yet_approved' ) ;
#130 = CARTESIAN_POINT ( 'NONE',  ( 4.163799117100994600E-016, 19.00000000000000000, 3.399999999999994600 ) ) ;
#131 = EDGE_CURVE ( 'NONE', #277, #200, #41, .T. ) ;
#132 = ORIENTED_EDGE ( 'NONE', *, *, #186, .F. ) ;
#133 = EDGE_LOOP ( 'NONE', ( #98, #97, #18 ) ) ;
#134 = CARTESIAN_POINT ( 'NONE',  ( 0.0000000000000000000, 19.00000000000000000, 0.0000000000000000000 ) ) ;
#135 = DIRECTION ( 'NONE',  ( -1.224646799147353200E-016, 0.0000000000000000000, -1.000000000000000000 ) ) ;
#136 = DIRECTION ( 'NONE',  ( -0.0000000000000000000, -1.000000000000000000, -0.0000000000000000000 ) ) ;
#137 = EDGE_CURVE ( 'NONE', #9, #291, #112, .T. ) ;
#138 = EDGE_CURVE ( 'NONE', #9, #215, #164, .T. ) ;
#139 = CARTESIAN_POINT ( 'NONE',  ( 0.0000000000000000000, 25.00000000000000000, 0.0000000000000000000 ) ) ;
#140 = ORIENTED_EDGE ( 'NONE', *, *, #54, .F. ) ;
#141 = DIRECTION ( 'NONE',  ( 0.0000000000000000000, 0.0000000000000000000, 1.000000000000000000 ) ) ;
#142 = PERSON_AND_ORGANIZATION ( #144, #281 ) ;
#143 = DIRECTION ( 'NONE',  ( -0.0000000000000000000, 0.0000000000000000000, 1.000000000000000000 ) ) ;
#144 = PERSON ( 'UNSPECIFIED', 'UNSPECIFIED', 'UNSPECIFIED', ('UNSPECIFIED'), ('UNSPECIFIED'), ('UNSPECIFIED') ) ;
#145 = VERTEX_POINT ( 'NONE', #158 ) ;
#146 = DIRECTION ( 'NONE',  ( -0.0000000000000000000, -1.000000000000000000, -0.0000000000000000000 ) ) ;
#147 = AXIS2_PLACEMENT_3D ( 'NONE', #161, #111, #154 ) ;
#148 = EDGE_CURVE ( 'NONE', #200, #9, #226, .T. ) ;
#149 = AXIS2_PLACEMENT_3D ( 'NONE', #139, #143, #81 ) ;
#150 = PERSON_AND_ORGANIZATION_ROLE ( 'classification_officer' ) ;
#151 = ADVANCED_FACE ( 'NONE', ( #228 ), #85, .F. ) ;
#152 = AXIS2_PLACEMENT_3D ( 'NONE', #276, #100, #74 ) ;
#153 = DIRECTION ( 'NONE',  ( 1.049727191138617300E-016, -0.5150380749100560400, 0.8571673007021112200 ) ) ;
#154 = DIRECTION ( 'NONE',  ( 0.0000000000000000000, 0.0000000000000000000, -1.000000000000000000 ) ) ;
#155 = CARTESIAN_POINT ( 'NONE',  ( 0.0000000000000000000, 0.6250000000000040000, -3.399999999999997700 ) ) ;
#156 = EDGE_CURVE ( 'NONE', #145, #279, #113, .T. ) ;
#157 = DIRECTION ( 'NONE',  ( -0.0000000000000000000, -1.000000000000000000, -0.0000000000000000000 ) ) ;
#158 = CARTESIAN_POINT ( 'NONE',  ( -3.743183179313641000, 0.2818168206863668200, 0.0000000000000000000 ) ) ;
#159 =( GEOMETRIC_REPRESENTATION_CONTEXT ( 3 ) GLOBAL_UNCERTAINTY_ASSIGNED_CONTEXT ( ( #88 ) ) GLOBAL_UNIT_ASSIGNED_CONTEXT ( ( #290, #287, #289 ) ) REPRESENTATION_CONTEXT ( 'NONE', 'WORKASPACE' ) );
#160 = PRODUCT ( '51050-240', '51050-240', '', ( #13 ) ) ;
#161 = CARTESIAN_POINT ( 'NONE',  ( 0.0000000000000000000, 19.00000000000000000, 0.0000000000000000000 ) ) ;
#162 = CARTESIAN_POINT ( 'NONE',  ( 4.584077299168654000E-016, 0.2818168206863668200, 3.743183179313633000 ) ) ;
#163 = ORIENTED_EDGE ( 'NONE', *, *, #79, .F. ) ;
#164 = LINE ( 'NONE', #82, #221 ) ;
#165 = DIRECTION ( 'NONE',  ( -0.0000000000000000000, -1.000000000000000000, -0.0000000000000000000 ) ) ;
#166 = ORIENTED_EDGE ( 'NONE', *, *, #156, .T. ) ;
#167 = EDGE_CURVE ( 'NONE', #56, #145, #261, .T. ) ;
#168 = DIRECTION ( 'NONE',  ( -0.0000000000000000000, -1.000000000000000000, -0.0000000000000000000 ) ) ;
#169 = EDGE_LOOP ( 'NONE', ( #29, #106, #233 ) ) ;
#170 = APPROVAL_ROLE ( '' ) ;
#171 = APPROVAL ( #129, 'UNSPECIFIED' ) ;
#172 = DIRECTION ( 'NONE',  ( -0.0000000000000000000, -1.000000000000000000, -0.0000000000000000000 ) ) ;
#173 = EDGE_CURVE ( 'NONE', #291, #9, #190, .T. ) ;
#174 = EDGE_CURVE ( 'NONE', #215, #145, #253, .T. ) ;
#175 = EDGE_LOOP ( 'NONE', ( #102, #254, #236, #166, #35 ) ) ;
#176 = FACE_OUTER_BOUND ( 'NONE', #72, .T. ) ;
#177 = APPLICATION_PROTOCOL_DEFINITION ( 'international standard', 'config_control_design', 1994, #206 ) ;
#178 = APPROVAL_PERSON_ORGANIZATION ( #251, #95, #210 ) ;
#179 = ORIENTED_EDGE ( 'NONE', *, *, #22, .F. ) ;
#180 = ORIENTED_EDGE ( 'NONE', *, *, #293, .F. ) ;
#181 = CIRCLE ( 'NONE', #192, 3.399999999999994600 ) ;
#182 = DIRECTION ( 'NONE',  ( -0.0000000000000000000, -1.000000000000000000, -0.0000000000000000000 ) ) ;
#183 = DIRECTION ( 'NONE',  ( 0.0000000000000000000, 0.0000000000000000000, -1.000000000000000000 ) ) ;
#184 = ORIENTED_EDGE ( 'NONE', *, *, #167, .F. ) ;
#185 = VECTOR ( 'NONE', #168, 1000.000000000000000 ) ;
#186 = EDGE_CURVE ( 'NONE', #200, #3, #181, .T. ) ;
#187 = DIRECTION ( 'NONE',  ( 0.0000000000000000000, 0.0000000000000000000, -1.000000000000000000 ) ) ;
#188 = ORIENTED_EDGE ( 'NONE', *, *, #120, .T. ) ;
#189 = CARTESIAN_POINT ( 'NONE',  ( 0.0000000000000000000, 25.00000000000000000, 0.0000000000000000000 ) ) ;
#190 = CIRCLE ( 'NONE', #220, 3.399999999999997700 ) ;
#191 = CARTESIAN_POINT ( 'NONE',  ( 4.163799117100997600E-016, 0.6250000000000040000, 3.399999999999997200 ) ) ;
#192 = AXIS2_PLACEMENT_3D ( 'NONE', #99, #182, #2 ) ;
#193 = AXIS2_PLACEMENT_3D ( 'NONE', #48, #219, #187 ) ;
#194 = DATE_TIME_ROLE ( 'creation_date' ) ;
#195 = DIRECTION ( 'NONE',  ( 0.0000000000000000000, 0.0000000000000000000, 1.000000000000000000 ) ) ;
#196 = LOCAL_TIME ( 10, 36, 6.000000000000000000, #30 ) ;
#197 = PRODUCT_DEFINITION_SHAPE ( 'NONE', 'NONE',  #272 ) ;
#198 = CIRCLE ( 'NONE', #76, 3.399999999999994600 ) ;
#199 = CIRCLE ( 'NONE', #260, 3.743183179313636500 ) ;
#200 = VERTEX_POINT ( 'NONE', #130 ) ;
#201 = ORIENTED_EDGE ( 'NONE', *, *, #138, .F. ) ;
#202 = CC_DESIGN_PERSON_AND_ORGANIZATION_ASSIGNMENT ( #46, #284, ( #270 ) ) ;
#203 = DIRECTION ( 'NONE',  ( 0.0000000000000000000, 0.0000000000000000000, -1.000000000000000000 ) ) ;
#204 = VECTOR ( 'NONE', #127, 1000.000000000000000 ) ;
#205 = DATE_AND_TIME ( #101, #196 ) ;
#206 = APPLICATION_CONTEXT ( 'configuration controlled 3d designs of mechanical parts and assemblies' ) ;
#207 = PERSON_AND_ORGANIZATION_ROLE ( 'creator' ) ;
#208 = EDGE_LOOP ( 'NONE', ( #201, #45, #75, #211, #188 ) ) ;
#209 = LINE ( 'NONE', #246, #96 ) ;
#210 = APPROVAL_ROLE ( '' ) ;
#211 = ORIENTED_EDGE ( 'NONE', *, *, #54, .T. ) ;
#212 = ORIENTED_EDGE ( 'NONE', *, *, #293, .T. ) ;
#213 = PERSON_AND_ORGANIZATION ( #144, #281 ) ;
#214 = COORDINATED_UNIVERSAL_TIME_OFFSET ( 1, 0, .AHEAD. ) ;
#215 = VERTEX_POINT ( 'NONE', #162 ) ;
#216 = APPLICATION_PROTOCOL_DEFINITION ( 'international standard', 'config_control_design', 1994, #26 ) ;
#217 = CC_DESIGN_APPROVAL ( #241, ( #84 ) ) ;
#218 = ORIENTED_EDGE ( 'NONE', *, *, #148, .F. ) ;
#219 = DIRECTION ( 'NONE',  ( -0.0000000000000000000, -1.000000000000000000, -0.0000000000000000000 ) ) ;
#220 = AXIS2_PLACEMENT_3D ( 'NONE', #44, #252, #8 ) ;
#221 = VECTOR ( 'NONE', #89, 1000.000000000000000 ) ;
#222 = DATE_AND_TIME ( #15, #263 ) ;
#223 = SECURITY_CLASSIFICATION_LEVEL ( 'unclassified' ) ;
#224 = PERSON_AND_ORGANIZATION_ROLE ( 'design_owner' ) ;
#225 = CARTESIAN_POINT ( 'NONE',  ( 0.0000000000000000000, 0.0000000000000000000, 0.0000000000000000000 ) ) ;
#226 = LINE ( 'NONE', #125, #121 ) ;
#227 = CARTESIAN_POINT ( 'NONE',  ( -5.154030419761486100E-015, 21.04292610469370900, 0.0000000000000000000 ) ) ;
#228 = FACE_OUTER_BOUND ( 'NONE', #133, .T. ) ;
#229 = CC_DESIGN_PERSON_AND_ORGANIZATION_ASSIGNMENT ( #231, #207, ( #270 ) ) ;
#230 = EDGE_LOOP ( 'NONE', ( #218, #163, #212, #10 ) ) ;
#231 = PERSON_AND_ORGANIZATION ( #144, #281 ) ;
#232 = CC_DESIGN_SECURITY_CLASSIFICATION ( #84, ( #270 ) ) ;
#233 = ORIENTED_EDGE ( 'NONE', *, *, #79, .T. ) ;
#234 = CARTESIAN_POINT ( 'NONE',  ( 0.0000000000000000000, -1.734723475976807100E-015, 0.0000000000000000000 ) ) ;
#235 = PRODUCT_RELATED_PRODUCT_CATEGORY ( 'detail', '', ( #160 ) ) ;
#236 = ORIENTED_EDGE ( 'NONE', *, *, #174, .T. ) ;
#237 = DIRECTION ( 'NONE',  ( -0.0000000000000000000, -1.000000000000000000, -0.0000000000000000000 ) ) ;
#238 = AXIS2_PLACEMENT_3D ( 'NONE', #239, #69, #203 ) ;
#239 = CARTESIAN_POINT ( 'NONE',  ( 0.0000000000000000000, 0.0000000000000000000, 0.0000000000000000000 ) ) ;
#240 = SPHERICAL_SURFACE ( 'NONE', #71, 25.00000000000000000 ) ;
#241 = APPROVAL ( #39, 'UNSPECIFIED' ) ;
#242 = CARTESIAN_POINT ( 'NONE',  ( 4.163799117100994600E-016, 19.00000000000000000, 3.399999999999994600 ) ) ;
#243 = CC_DESIGN_PERSON_AND_ORGANIZATION_ASSIGNMENT ( #7, #224, ( #160 ) ) ;
#244 = DIRECTION ( 'NONE',  ( 0.0000000000000000000, 0.0000000000000000000, -1.000000000000000000 ) ) ;
#245 = ADVANCED_FACE ( 'NONE', ( #50 ), #65, .F. ) ;
#246 = CARTESIAN_POINT ( 'NONE',  ( 0.0000000000000000000, -1.734723475976807100E-015, -4.025000000000000400 ) ) ;
#247 = DIRECTION ( 'NONE',  ( -0.0000000000000000000, -0.0000000000000000000, -1.000000000000000000 ) ) ;
#248 = CARTESIAN_POINT ( 'NONE',  ( 0.0000000000000000000, 0.2818168206863668200, 0.0000000000000000000 ) ) ;
#249 = CARTESIAN_POINT ( 'NONE',  ( 0.0000000000000000000, -1.734723475976807100E-015, 0.0000000000000000000 ) ) ;
#250 = CONICAL_SURFACE ( 'NONE', #4, 4.025000000000000400, 0.7853981633974463900 ) ;
#251 = PERSON_AND_ORGANIZATION ( #144, #281 ) ;
#252 = DIRECTION ( 'NONE',  ( -0.0000000000000000000, -1.000000000000000000, -0.0000000000000000000 ) ) ;
#253 = CIRCLE ( 'NONE', #11, 3.743183179313636500 ) ;
#254 = ORIENTED_EDGE ( 'NONE', *, *, #138, .T. ) ;
#255 = DIRECTION ( 'NONE',  ( 0.0000000000000000000, 0.0000000000000000000, -1.000000000000000000 ) ) ;
#256 = CALENDAR_DATE ( 2016, 20, 5 ) ;
#257 = CARTESIAN_POINT ( 'NONE',  ( 0.0000000000000000000, 0.2818168206863668200, 0.0000000000000000000 ) ) ;
#258 = APPROVAL_DATE_TIME ( #222, #95 ) ;
#259 = LOCAL_TIME ( 10, 36, 6.000000000000000000, #68 ) ;
#260 = AXIS2_PLACEMENT_3D ( 'NONE', #257, #157, #195 ) ;
#261 = CIRCLE ( 'NONE', #149, 25.00000000000000000 ) ;
#262 = DIRECTION ( 'NONE',  ( 0.0000000000000000000, -0.7071067811865489100, -0.7071067811865462400 ) ) ;
#263 = LOCAL_TIME ( 10, 36, 6.000000000000000000, #55 ) ;
#264 = DIRECTION ( 'NONE',  ( 0.0000000000000000000, 0.0000000000000000000, 1.000000000000000000 ) ) ;
#265 = ADVANCED_FACE ( 'NONE', ( #34 ), #250, .F. ) ;
#266 = CIRCLE ( 'NONE', #152, 3.743183179313636500 ) ;
#267 = APPROVAL_DATE_TIME ( #42, #241 ) ;
#268 = CARTESIAN_POINT ( 'NONE',  ( 0.0000000000000000000, 25.00000000000000000, 0.0000000000000000000 ) ) ;
#269 = CARTESIAN_POINT ( 'NONE',  ( -1.530808498934191500E-015, 50.00000000000000000, 0.0000000000000000000 ) ) ;
#270 = PRODUCT_DEFINITION_FORMATION_WITH_SPECIFIED_SOURCE ( 'ANY', '', #160, .NOT_KNOWN. ) ;
#271 = APPROVAL_ROLE ( '' ) ;
#272 = PRODUCT_DEFINITION ( 'UNKNOWN', '', #270, #23 ) ;
#273 = FACE_OUTER_BOUND ( 'NONE', #230, .T. ) ;
#274 = CARTESIAN_POINT ( 'NONE',  ( 0.0000000000000000000, 0.0000000000000000000, -3.399999999999995900 ) ) ;
#275 = CALENDAR_DATE ( 2016, 20, 5 ) ;
#276 = CARTESIAN_POINT ( 'NONE',  ( 0.0000000000000000000, 0.2818168206863668200, 0.0000000000000000000 ) ) ;
#277 = VERTEX_POINT ( 'NONE', #227 ) ;
#278 = DIRECTION ( 'NONE',  ( -0.0000000000000000000, -1.000000000000000000, -0.0000000000000000000 ) ) ;
#279 = VERTEX_POINT ( 'NONE', #83 ) ;
#280 = DIRECTION ( 'NONE',  ( -1.000000000000000000, 0.0000000000000000000, 0.0000000000000000000 ) ) ;
#281 = ORGANIZATION ( 'UNSPECIFIED', 'UNSPECIFIED', '' ) ;
#282 = CARTESIAN_POINT ( 'NONE',  ( 0.0000000000000000000, 0.0000000000000000000, 0.0000000000000000000 ) ) ;
#283 = CARTESIAN_POINT ( 'NONE',  ( 0.0000000000000000000, 19.00000000000000000, -3.399999999999994600 ) ) ;
#284 = PERSON_AND_ORGANIZATION_ROLE ( 'design_supplier' ) ;
#285 = ORIENTED_EDGE ( 'NONE', *, *, #148, .T. ) ;
#286 = EDGE_CURVE ( 'NONE', #291, #279, #209, .T. ) ;
#287 =( NAMED_UNIT ( * ) PLANE_ANGLE_UNIT ( ) SI_UNIT ( $, .RADIAN. ) );
#288 = CC_DESIGN_PERSON_AND_ORGANIZATION_ASSIGNMENT ( #142, #103, ( #272 ) ) ;
#289 =( NAMED_UNIT ( * ) SI_UNIT ( $, .STERADIAN. ) SOLID_ANGLE_UNIT ( ) );
#290 =( LENGTH_UNIT ( ) NAMED_UNIT ( * ) SI_UNIT ( .MILLI., .METRE. ) );
#291 = VERTEX_POINT ( 'NONE', #155 ) ;
#292 = ADVANCED_FACE ( 'NONE', ( #273 ), #110, .F. ) ;
#293 = EDGE_CURVE ( 'NONE', #3, #291, #124, .T. ) ;
#294 = CC_DESIGN_PERSON_AND_ORGANIZATION_ASSIGNMENT ( #66, #150, ( #84 ) ) ;
#295 = ADVANCED_BREP_SHAPE_REPRESENTATION ( '51050-240', ( #126, #1 ), #159 ) ;
ENDSEC;
END-ISO-10303-21;
