ISO-10303-21;
HEADER;
FILE_DESCRIPTION (( 'STEP AP203' ),
    '1' );
FILE_NAME ('51025-240M8.STEP',
    '2016-05-20T08:24:56',
    ( '' ),
    ( '' ),
    'SwSTEP 2.0',
    'SolidWorks 2015',
    '' );
FILE_SCHEMA (( 'CONFIG_CONTROL_DESIGN' ));
ENDSEC;

DATA;
#1 = PERSON_AND_ORGANIZATION_ROLE ( 'creator' ) ;
#2 = CC_DESIGN_PERSON_AND_ORGANIZATION_ASSIGNMENT ( #231, #30, ( #273 ) ) ;
#3 =( NAMED_UNIT ( * ) PLANE_ANGLE_UNIT ( ) SI_UNIT ( $, .RADIAN. ) );
#4 = CLOSED_SHELL ( 'NONE', ( #60, #262, #31, #209, #44, #122, #69, #210 ) ) ;
#5 = CARTESIAN_POINT ( 'NONE',  ( 3.519341738104498200, 0.5056582618955035600, -4.309950594675356600E-016 ) ) ;
#6 = EDGE_LOOP ( 'NONE', ( #102, #149, #101, #9, #288 ) ) ;
#7 = EDGE_CURVE ( 'NONE', #40, #113, #84, .T. ) ;
#8 = AXIS2_PLACEMENT_3D ( 'NONE', #42, #72, #131 ) ;
#9 = ORIENTED_EDGE ( 'NONE', *, *, #50, .T. ) ;
#10 = DIRECTION ( 'NONE',  ( -0.0000000000000000000, -1.000000000000000000, -0.0000000000000000000 ) ) ;
#11 = PERSON_AND_ORGANIZATION ( #13, #18 ) ;
#12 = SHAPE_DEFINITION_REPRESENTATION ( #236, #274 ) ;
#13 = PERSON ( 'UNSPECIFIED', 'UNSPECIFIED', 'UNSPECIFIED', ('UNSPECIFIED'), ('UNSPECIFIED'), ('UNSPECIFIED') ) ;
#14 = AXIS2_PLACEMENT_3D ( 'NONE', #200, #204, #106 ) ;
#15 = EDGE_CURVE ( 'NONE', #81, #17, #278, .T. ) ;
#16 = CC_DESIGN_APPROVAL ( #120, ( #273 ) ) ;
#17 = VERTEX_POINT ( 'NONE', #5 ) ;
#18 = ORGANIZATION ( 'UNSPECIFIED', 'UNSPECIFIED', '' ) ;
#19 = DIRECTION ( 'NONE',  ( -0.0000000000000000000, -1.000000000000000000, -0.0000000000000000000 ) ) ;
#20 = VERTEX_POINT ( 'NONE', #203 ) ;
#21 = UNCERTAINTY_MEASURE_WITH_UNIT (LENGTH_MEASURE( 1.000000000000000100E-005 ), #219, 'distance_accuracy_value', 'NONE');
#22 = FACE_OUTER_BOUND ( 'NONE', #228, .T. ) ;
#23 = DIRECTION ( 'NONE',  ( 1.000000000000000000, 0.0000000000000000000, 0.0000000000000000000 ) ) ;
#24 = PERSON_AND_ORGANIZATION_ROLE ( 'classification_officer' ) ;
#25 = CIRCLE ( 'NONE', #134, 3.519341738104498700 ) ;
#26 = ORIENTED_EDGE ( 'NONE', *, *, #187, .T. ) ;
#27 = DIRECTION ( 'NONE',  ( 0.0000000000000000000, 0.0000000000000000000, -1.000000000000000000 ) ) ;
#28 = APPROVAL_PERSON_ORGANIZATION ( #11, #175, #34 ) ;
#29 = DIRECTION ( 'NONE',  ( 0.0000000000000000000, 0.0000000000000000000, 1.000000000000000000 ) ) ;
#30 = PERSON_AND_ORGANIZATION_ROLE ( 'design_supplier' ) ;
#31 = ADVANCED_FACE ( 'NONE', ( #128 ), #229, .F. ) ;
#32 = AXIS2_PLACEMENT_3D ( 'NONE', #272, #270, #218 ) ;
#33 = APPROVAL_DATE_TIME ( #213, #120 ) ;
#34 = APPROVAL_ROLE ( '' ) ;
#35 = CARTESIAN_POINT ( 'NONE',  ( 0.0000000000000000000, 19.00000000000000000, 0.0000000000000000000 ) ) ;
#36 = PERSON_AND_ORGANIZATION ( #13, #18 ) ;
#37 = CIRCLE ( 'NONE', #249, 12.50000000000000000 ) ;
#38 = DATE_AND_TIME ( #109, #108 ) ;
#39 = LINE ( 'NONE', #54, #90 ) ;
#40 = VERTEX_POINT ( 'NONE', #124 ) ;
#41 = EDGE_CURVE ( 'NONE', #179, #17, #166, .T. ) ;
#42 = CARTESIAN_POINT ( 'NONE',  ( 0.0000000000000000000, 12.50000000000000000, 0.0000000000000000000 ) ) ;
#43 = ORIENTED_EDGE ( 'NONE', *, *, #41, .F. ) ;
#44 = ADVANCED_FACE ( 'NONE', ( #22 ), #242, .T. ) ;
#45 = ORIENTED_EDGE ( 'NONE', *, *, #230, .F. ) ;
#46 = CYLINDRICAL_SURFACE ( 'NONE', #32, 3.399999999999995900 ) ;
#47 = DIRECTION ( 'NONE',  ( 0.0000000000000000000, -0.7071067811865479100, -0.7071067811865472400 ) ) ;
#48 = ORIENTED_EDGE ( 'NONE', *, *, #174, .T. ) ;
#49 =( GEOMETRIC_REPRESENTATION_CONTEXT ( 3 ) GLOBAL_UNCERTAINTY_ASSIGNED_CONTEXT ( ( #21 ) ) GLOBAL_UNIT_ASSIGNED_CONTEXT ( ( #219, #3, #233 ) ) REPRESENTATION_CONTEXT ( 'NONE', 'WORKASPACE' ) );
#50 = EDGE_CURVE ( 'NONE', #167, #81, #151, .T. ) ;
#51 = EDGE_CURVE ( 'NONE', #113, #251, #135, .T. ) ;
#52 = APPROVAL_PERSON_ORGANIZATION ( #36, #162, #284 ) ;
#53 = AXIS2_PLACEMENT_3D ( 'NONE', #111, #67, #129 ) ;
#54 = CARTESIAN_POINT ( 'NONE',  ( 4.929203366568097200E-016, 0.0000000000000000000, 4.025000000000000400 ) ) ;
#55 = CIRCLE ( 'NONE', #103, 3.519341738104498700 ) ;
#56 = FACE_OUTER_BOUND ( 'NONE', #155, .T. ) ;
#57 = ORIENTED_EDGE ( 'NONE', *, *, #51, .F. ) ;
#58 = APPLICATION_PROTOCOL_DEFINITION ( 'international standard', 'config_control_design', 1994, #132 ) ;
#59 = FACE_OUTER_BOUND ( 'NONE', #77, .T. ) ;
#60 = ADVANCED_FACE ( 'NONE', ( #226 ), #221, .F. ) ;
#61 = CARTESIAN_POINT ( 'NONE',  ( 0.0000000000000000000, 0.5056582618955026700, 0.0000000000000000000 ) ) ;
#62 = VECTOR ( 'NONE', #47, 999.9999999999998900 ) ;
#63 = PERSON_AND_ORGANIZATION_ROLE ( 'design_owner' ) ;
#64 = PRODUCT ( '51025-240M8', '51025-240M8', '', ( #182 ) ) ;
#65 = PERSON_AND_ORGANIZATION ( #13, #18 ) ;
#66 = DIRECTION ( 'NONE',  ( -0.0000000000000000000, -1.000000000000000000, -0.0000000000000000000 ) ) ;
#67 = DIRECTION ( 'NONE',  ( -0.0000000000000000000, -1.000000000000000000, -0.0000000000000000000 ) ) ;
#68 = CALENDAR_DATE ( 2016, 20, 5 ) ;
#69 = ADVANCED_FACE ( 'NONE', ( #276 ), #133, .F. ) ;
#70 = EDGE_CURVE ( 'NONE', #17, #192, #25, .T. ) ;
#71 = EDGE_LOOP ( 'NONE', ( #154, #160, #48, #143 ) ) ;
#72 = DIRECTION ( 'NONE',  ( -0.0000000000000000000, -0.0000000000000000000, -1.000000000000000000 ) ) ;
#73 = COORDINATED_UNIVERSAL_TIME_OFFSET ( 1, 0, .AHEAD. ) ;
#74 = CARTESIAN_POINT ( 'NONE',  ( -5.154030419761486100E-015, 21.04292610469370900, 0.0000000000000000000 ) ) ;
#75 = ORIENTED_EDGE ( 'NONE', *, *, #51, .T. ) ;
#76 = CARTESIAN_POINT ( 'NONE',  ( -3.519341738104498200, 0.5056582618955035600, 0.0000000000000000000 ) ) ;
#77 = EDGE_LOOP ( 'NONE', ( #259, #57, #137, #180, #241 ) ) ;
#78 = LINE ( 'NONE', #176, #277 ) ;
#79 = DIRECTION ( 'NONE',  ( -0.0000000000000000000, -1.000000000000000000, -0.0000000000000000000 ) ) ;
#80 = DATE_AND_TIME ( #268, #146 ) ;
#81 = VERTEX_POINT ( 'NONE', #198 ) ;
#82 = EDGE_CURVE ( 'NONE', #113, #81, #207, .T. ) ;
#83 = CARTESIAN_POINT ( 'NONE',  ( 0.0000000000000000000, 0.0000000000000000000, -4.025000000000000400 ) ) ;
#84 = LINE ( 'NONE', #285, #254 ) ;
#85 = AXIS2_PLACEMENT_3D ( 'NONE', #181, #260, #223 ) ;
#86 = DATE_TIME_ROLE ( 'classification_date' ) ;
#87 = EDGE_CURVE ( 'NONE', #20, #251, #293, .T. ) ;
#88 = AXIS2_PLACEMENT_3D ( 'NONE', #290, #66, #104 ) ;
#89 = ORIENTED_EDGE ( 'NONE', *, *, #7, .T. ) ;
#90 = VECTOR ( 'NONE', #93, 999.9999999999998900 ) ;
#91 = DIRECTION ( 'NONE',  ( -1.000000000000000000, 0.0000000000000000000, 0.0000000000000000000 ) ) ;
#92 = ORIENTED_EDGE ( 'NONE', *, *, #70, .F. ) ;
#93 = DIRECTION ( 'NONE',  ( 8.659560562354930400E-017, -0.7071067811865479100, 0.7071067811865472400 ) ) ;
#94 = ORIENTED_EDGE ( 'NONE', *, *, #87, .F. ) ;
#95 = DESIGN_CONTEXT ( 'detailed design', #132, 'design' ) ;
#96 = LOCAL_TIME ( 10, 24, 56.00000000000000000, #188 ) ;
#97 = CARTESIAN_POINT ( 'NONE',  ( -7.654042494670957600E-016, 25.00000000000000000, 0.0000000000000000000 ) ) ;
#98 = CC_DESIGN_PERSON_AND_ORGANIZATION_ASSIGNMENT ( #177, #63, ( #64 ) ) ;
#99 = SPHERICAL_SURFACE ( 'NONE', #8, 12.50000000000000000 ) ;
#100 = CC_DESIGN_PERSON_AND_ORGANIZATION_ASSIGNMENT ( #145, #164, ( #273 ) ) ;
#101 = ORIENTED_EDGE ( 'NONE', *, *, #148, .T. ) ;
#102 = ORIENTED_EDGE ( 'NONE', *, *, #174, .F. ) ;
#103 = AXIS2_PLACEMENT_3D ( 'NONE', #286, #199, #29 ) ;
#104 = DIRECTION ( 'NONE',  ( 0.0000000000000000000, 0.0000000000000000000, -1.000000000000000000 ) ) ;
#105 = COORDINATED_UNIVERSAL_TIME_OFFSET ( 1, 0, .AHEAD. ) ;
#106 = DIRECTION ( 'NONE',  ( 0.0000000000000000000, 0.0000000000000000000, -1.000000000000000000 ) ) ;
#107 = AXIS2_PLACEMENT_3D ( 'NONE', #123, #206, #91 ) ;
#108 = LOCAL_TIME ( 10, 24, 56.00000000000000000, #171 ) ;
#109 = CALENDAR_DATE ( 2016, 20, 5 ) ;
#110 = AXIS2_PLACEMENT_3D ( 'NONE', #191, #263, #208 ) ;
#111 = CARTESIAN_POINT ( 'NONE',  ( 0.0000000000000000000, 0.5056582618955026700, 0.0000000000000000000 ) ) ;
#112 = ORIENTED_EDGE ( 'NONE', *, *, #183, .F. ) ;
#113 = VERTEX_POINT ( 'NONE', #196 ) ;
#114 = DIRECTION ( 'NONE',  ( -0.0000000000000000000, -1.000000000000000000, -0.0000000000000000000 ) ) ;
#115 = CC_DESIGN_PERSON_AND_ORGANIZATION_ASSIGNMENT ( #256, #24, ( #216 ) ) ;
#116 = LINE ( 'NONE', #240, #214 ) ;
#117 = CIRCLE ( 'NONE', #247, 3.399999999999997200 ) ;
#118 = CC_DESIGN_APPROVAL ( #162, ( #140 ) ) ;
#119 = ORIENTED_EDGE ( 'NONE', *, *, #291, .T. ) ;
#120 = APPROVAL ( #185, 'UNSPECIFIED' ) ;
#121 = LOCAL_TIME ( 10, 24, 56.00000000000000000, #170 ) ;
#122 = ADVANCED_FACE ( 'NONE', ( #56 ), #172, .F. ) ;
#123 = CARTESIAN_POINT ( 'NONE',  ( 0.0000000000000000000, 12.50000000000000000, 0.0000000000000000000 ) ) ;
#124 = CARTESIAN_POINT ( 'NONE',  ( 0.0000000000000000000, 19.00000000000000000, -3.399999999999995000 ) ) ;
#125 = APPROVAL_STATUS ( 'not_yet_approved' ) ;
#126 = CARTESIAN_POINT ( 'NONE',  ( 0.0000000000000000000, 0.6250000000000040000, 0.0000000000000000000 ) ) ;
#127 = EDGE_LOOP ( 'NONE', ( #94, #153, #89, #75 ) ) ;
#128 = FACE_OUTER_BOUND ( 'NONE', #202, .T. ) ;
#129 = DIRECTION ( 'NONE',  ( 0.0000000000000000000, 0.0000000000000000000, 1.000000000000000000 ) ) ;
#130 = ORIENTED_EDGE ( 'NONE', *, *, #148, .F. ) ;
#131 = DIRECTION ( 'NONE',  ( -1.000000000000000000, 0.0000000000000000000, 0.0000000000000000000 ) ) ;
#132 = APPLICATION_CONTEXT ( 'configuration controlled 3d designs of mechanical parts and assemblies' ) ;
#133 = CYLINDRICAL_SURFACE ( 'NONE', #88, 3.399999999999995900 ) ;
#134 = AXIS2_PLACEMENT_3D ( 'NONE', #266, #10, #194 ) ;
#135 = CIRCLE ( 'NONE', #295, 3.399999999999997200 ) ;
#136 = DIRECTION ( 'NONE',  ( 0.0000000000000000000, 0.0000000000000000000, -1.000000000000000000 ) ) ;
#137 = ORIENTED_EDGE ( 'NONE', *, *, #82, .T. ) ;
#138 = CALENDAR_DATE ( 2016, 20, 5 ) ;
#139 = APPLICATION_PROTOCOL_DEFINITION ( 'international standard', 'config_control_design', 1994, #197 ) ;
#140 = PRODUCT_DEFINITION ( 'UNKNOWN', '', #273, #95 ) ;
#141 = ORIENTED_EDGE ( 'NONE', *, *, #183, .T. ) ;
#142 = CONICAL_SURFACE ( 'NONE', #14, 4.025000000000000400, 0.7853981633974479500 ) ;
#143 = ORIENTED_EDGE ( 'NONE', *, *, #7, .F. ) ;
#144 = DIRECTION ( 'NONE',  ( -0.0000000000000000000, 0.0000000000000000000, 1.000000000000000000 ) ) ;
#145 = PERSON_AND_ORGANIZATION ( #13, #18 ) ;
#146 = LOCAL_TIME ( 10, 24, 56.00000000000000000, #105 ) ;
#147 = CARTESIAN_POINT ( 'NONE',  ( 4.163799117100996100E-016, 0.0000000000000000000, 3.399999999999995900 ) ) ;
#148 = EDGE_CURVE ( 'NONE', #192, #167, #55, .T. ) ;
#149 = ORIENTED_EDGE ( 'NONE', *, *, #186, .T. ) ;
#150 = APPROVAL_STATUS ( 'not_yet_approved' ) ;
#151 = CIRCLE ( 'NONE', #53, 3.519341738104498700 ) ;
#152 = CARTESIAN_POINT ( 'NONE',  ( 0.0000000000000000000, 19.00000000000000000, 0.0000000000000000000 ) ) ;
#153 = ORIENTED_EDGE ( 'NONE', *, *, #245, .F. ) ;
#154 = ORIENTED_EDGE ( 'NONE', *, *, #291, .F. ) ;
#155 = EDGE_LOOP ( 'NONE', ( #112, #26, #225 ) ) ;
#156 = CARTESIAN_POINT ( 'NONE',  ( 4.163799117100997600E-016, 0.6250000000000040000, 3.399999999999997200 ) ) ;
#157 = DIRECTION ( 'NONE',  ( 0.0000000000000000000, 0.0000000000000000000, 1.000000000000000000 ) ) ;
#158 = DIRECTION ( 'NONE',  ( -0.0000000000000000000, -1.000000000000000000, -0.0000000000000000000 ) ) ;
#159 = CARTESIAN_POINT ( 'NONE',  ( 0.0000000000000000000, 19.00000000000000000, 0.0000000000000000000 ) ) ;
#160 = ORIENTED_EDGE ( 'NONE', *, *, #87, .T. ) ;
#161 = VECTOR ( 'NONE', #224, 1000.000000000000000 ) ;
#162 = APPROVAL ( #125, 'UNSPECIFIED' ) ;
#163 = DIRECTION ( 'NONE',  ( -0.0000000000000000000, -1.000000000000000000, -0.0000000000000000000 ) ) ;
#164 = PERSON_AND_ORGANIZATION_ROLE ( 'creator' ) ;
#165 = AXIS2_PLACEMENT_3D ( 'NONE', #35, #79, #27 ) ;
#166 = CIRCLE ( 'NONE', #222, 12.50000000000000000 ) ;
#167 = VERTEX_POINT ( 'NONE', #76 ) ;
#168 = CC_DESIGN_DATE_AND_TIME_ASSIGNMENT ( #294, #227, ( #140 ) ) ;
#169 = FACE_OUTER_BOUND ( 'NONE', #184, .T. ) ;
#170 = COORDINATED_UNIVERSAL_TIME_OFFSET ( 1, 0, .AHEAD. ) ;
#171 = COORDINATED_UNIVERSAL_TIME_OFFSET ( 1, 0, .AHEAD. ) ;
#172 = CONICAL_SURFACE ( 'NONE', #165, 3.399999999999995000, 1.029744258676652300 ) ;
#173 = DIRECTION ( 'NONE',  ( 0.0000000000000000000, 0.0000000000000000000, -1.000000000000000000 ) ) ;
#174 = EDGE_CURVE ( 'NONE', #251, #113, #117, .T. ) ;
#175 = APPROVAL ( #150, 'UNSPECIFIED' ) ;
#176 = CARTESIAN_POINT ( 'NONE',  ( 0.0000000000000000000, 19.00000000000000000, -3.399999999999995000 ) ) ;
#177 = PERSON_AND_ORGANIZATION ( #13, #18 ) ;
#178 = APPROVAL_PERSON_ORGANIZATION ( #257, #120, #289 ) ;
#179 = VERTEX_POINT ( 'NONE', #97 ) ;
#180 = ORIENTED_EDGE ( 'NONE', *, *, #15, .T. ) ;
#181 = CARTESIAN_POINT ( 'NONE',  ( 0.0000000000000000000, 19.00000000000000000, 0.0000000000000000000 ) ) ;
#182 = MECHANICAL_CONTEXT ( 'NONE', #197, 'mechanical' ) ;
#183 = EDGE_CURVE ( 'NONE', #193, #20, #116, .T. ) ;
#184 = EDGE_LOOP ( 'NONE', ( #45, #246, #244, #205 ) ) ;
#185 = APPROVAL_STATUS ( 'not_yet_approved' ) ;
#186 = EDGE_CURVE ( 'NONE', #251, #192, #39, .T. ) ;
#187 = EDGE_CURVE ( 'NONE', #193, #40, #78, .T. ) ;
#188 = COORDINATED_UNIVERSAL_TIME_OFFSET ( 1, 0, .AHEAD. ) ;
#189 = CC_DESIGN_SECURITY_CLASSIFICATION ( #216, ( #273 ) ) ;
#190 = AXIS2_PLACEMENT_3D ( 'NONE', #61, #239, #157 ) ;
#191 = CARTESIAN_POINT ( 'NONE',  ( 0.0000000000000000000, 0.0000000000000000000, 0.0000000000000000000 ) ) ;
#192 = VERTEX_POINT ( 'NONE', #201 ) ;
#193 = VERTEX_POINT ( 'NONE', #74 ) ;
#194 = DIRECTION ( 'NONE',  ( 0.0000000000000000000, 0.0000000000000000000, 1.000000000000000000 ) ) ;
#195 = ORIENTED_EDGE ( 'NONE', *, *, #187, .F. ) ;
#196 = CARTESIAN_POINT ( 'NONE',  ( 0.0000000000000000000, 0.6250000000000040000, -3.399999999999997200 ) ) ;
#197 = APPLICATION_CONTEXT ( 'configuration controlled 3d designs of mechanical parts and assemblies' ) ;
#198 = CARTESIAN_POINT ( 'NONE',  ( 0.0000000000000000000, 0.5056582618955026700, -3.519341738104498700 ) ) ;
#199 = DIRECTION ( 'NONE',  ( -0.0000000000000000000, -1.000000000000000000, -0.0000000000000000000 ) ) ;
#200 = CARTESIAN_POINT ( 'NONE',  ( 0.0000000000000000000, 0.0000000000000000000, 0.0000000000000000000 ) ) ;
#201 = CARTESIAN_POINT ( 'NONE',  ( 4.309950594675357100E-016, 0.5056582618955026700, 3.519341738104498700 ) ) ;
#202 = EDGE_LOOP ( 'NONE', ( #195, #141, #119 ) ) ;
#203 = CARTESIAN_POINT ( 'NONE',  ( 4.163799117100995100E-016, 19.00000000000000000, 3.399999999999995000 ) ) ;
#204 = DIRECTION ( 'NONE',  ( -0.0000000000000000000, -1.000000000000000000, -0.0000000000000000000 ) ) ;
#205 = ORIENTED_EDGE ( 'NONE', *, *, #50, .F. ) ;
#206 = DIRECTION ( 'NONE',  ( -0.0000000000000000000, -0.0000000000000000000, -1.000000000000000000 ) ) ;
#207 = LINE ( 'NONE', #83, #62 ) ;
#208 = DIRECTION ( 'NONE',  ( 0.0000000000000000000, 0.0000000000000000000, -1.000000000000000000 ) ) ;
#209 = ADVANCED_FACE ( 'NONE', ( #169 ), #99, .T. ) ;
#210 = ADVANCED_FACE ( 'NONE', ( #59 ), #142, .F. ) ;
#211 = DIRECTION ( 'NONE',  ( 0.0000000000000000000, 0.0000000000000000000, -1.000000000000000000 ) ) ;
#212 = CC_DESIGN_PERSON_AND_ORGANIZATION_ASSIGNMENT ( #65, #1, ( #140 ) ) ;
#213 = DATE_AND_TIME ( #215, #96 ) ;
#214 = VECTOR ( 'NONE', #238, 1000.000000000000000 ) ;
#215 = CALENDAR_DATE ( 2016, 20, 5 ) ;
#216 = SECURITY_CLASSIFICATION ( '', '', #250 ) ;
#217 = CIRCLE ( 'NONE', #269, 3.399999999999995000 ) ;
#218 = DIRECTION ( 'NONE',  ( 0.0000000000000000000, 0.0000000000000000000, -1.000000000000000000 ) ) ;
#219 =( LENGTH_UNIT ( ) NAMED_UNIT ( * ) SI_UNIT ( .MILLI., .METRE. ) );
#220 = APPROVAL_DATE_TIME ( #38, #162 ) ;
#221 = CONICAL_SURFACE ( 'NONE', #110, 4.025000000000000400, 0.7853981633974479500 ) ;
#222 = AXIS2_PLACEMENT_3D ( 'NONE', #237, #281, #253 ) ;
#223 = DIRECTION ( 'NONE',  ( 0.0000000000000000000, 0.0000000000000000000, -1.000000000000000000 ) ) ;
#224 = DIRECTION ( 'NONE',  ( -0.0000000000000000000, -1.000000000000000000, -0.0000000000000000000 ) ) ;
#225 = ORIENTED_EDGE ( 'NONE', *, *, #245, .T. ) ;
#226 = FACE_OUTER_BOUND ( 'NONE', #6, .T. ) ;
#227 = DATE_TIME_ROLE ( 'creation_date' ) ;
#228 = EDGE_LOOP ( 'NONE', ( #43, #258, #130, #92 ) ) ;
#229 = CONICAL_SURFACE ( 'NONE', #85, 3.399999999999995000, 1.029744258676652300 ) ;
#230 = EDGE_CURVE ( 'NONE', #179, #167, #37, .T. ) ;
#231 = PERSON_AND_ORGANIZATION ( #13, #18 ) ;
#232 = APPROVAL_DATE_TIME ( #287, #175 ) ;
#233 =( NAMED_UNIT ( * ) SI_UNIT ( $, .STERADIAN. ) SOLID_ANGLE_UNIT ( ) );
#234 = DIRECTION ( 'NONE',  ( 0.0000000000000000000, 0.0000000000000000000, 1.000000000000000000 ) ) ;
#235 = CC_DESIGN_DATE_AND_TIME_ASSIGNMENT ( #80, #86, ( #216 ) ) ;
#236 = PRODUCT_DEFINITION_SHAPE ( 'NONE', 'NONE',  #140 ) ;
#237 = CARTESIAN_POINT ( 'NONE',  ( 0.0000000000000000000, 12.50000000000000000, 0.0000000000000000000 ) ) ;
#238 = DIRECTION ( 'NONE',  ( 1.049727191138617300E-016, -0.5150380749100560400, 0.8571673007021112200 ) ) ;
#239 = DIRECTION ( 'NONE',  ( -0.0000000000000000000, -1.000000000000000000, -0.0000000000000000000 ) ) ;
#240 = CARTESIAN_POINT ( 'NONE',  ( 4.163799117100995100E-016, 19.00000000000000000, 3.399999999999995000 ) ) ;
#241 = ORIENTED_EDGE ( 'NONE', *, *, #70, .T. ) ;
#242 = SPHERICAL_SURFACE ( 'NONE', #107, 12.50000000000000000 ) ;
#243 = AXIS2_PLACEMENT_3D ( 'NONE', #152, #19, #211 ) ;
#244 = ORIENTED_EDGE ( 'NONE', *, *, #15, .F. ) ;
#245 = EDGE_CURVE ( 'NONE', #40, #20, #217, .T. ) ;
#246 = ORIENTED_EDGE ( 'NONE', *, *, #41, .T. ) ;
#247 = AXIS2_PLACEMENT_3D ( 'NONE', #126, #163, #173 ) ;
#248 = FACE_OUTER_BOUND ( 'NONE', #71, .T. ) ;
#249 = AXIS2_PLACEMENT_3D ( 'NONE', #255, #144, #23 ) ;
#250 = SECURITY_CLASSIFICATION_LEVEL ( 'unclassified' ) ;
#251 = VERTEX_POINT ( 'NONE', #156 ) ;
#252 = CARTESIAN_POINT ( 'NONE',  ( 0.0000000000000000000, 0.0000000000000000000, 0.0000000000000000000 ) ) ;
#253 = DIRECTION ( 'NONE',  ( -1.000000000000000000, 0.0000000000000000000, 1.224646799147353200E-016 ) ) ;
#254 = VECTOR ( 'NONE', #114, 1000.000000000000000 ) ;
#255 = CARTESIAN_POINT ( 'NONE',  ( 0.0000000000000000000, 12.50000000000000000, 0.0000000000000000000 ) ) ;
#256 = PERSON_AND_ORGANIZATION ( #13, #18 ) ;
#257 = PERSON_AND_ORGANIZATION ( #13, #18 ) ;
#258 = ORIENTED_EDGE ( 'NONE', *, *, #230, .T. ) ;
#259 = ORIENTED_EDGE ( 'NONE', *, *, #186, .F. ) ;
#260 = DIRECTION ( 'NONE',  ( -0.0000000000000000000, -1.000000000000000000, -0.0000000000000000000 ) ) ;
#261 = DIRECTION ( 'NONE',  ( -0.0000000000000000000, -1.000000000000000000, -0.0000000000000000000 ) ) ;
#262 = ADVANCED_FACE ( 'NONE', ( #248 ), #46, .F. ) ;
#263 = DIRECTION ( 'NONE',  ( -0.0000000000000000000, -1.000000000000000000, -0.0000000000000000000 ) ) ;
#264 = CC_DESIGN_APPROVAL ( #175, ( #216 ) ) ;
#265 = LOCAL_TIME ( 10, 24, 56.00000000000000000, #73 ) ;
#266 = CARTESIAN_POINT ( 'NONE',  ( 0.0000000000000000000, 0.5056582618955026700, 0.0000000000000000000 ) ) ;
#267 = AXIS2_PLACEMENT_3D ( 'NONE', #252, #234, #292 ) ;
#268 = CALENDAR_DATE ( 2016, 20, 5 ) ;
#269 = AXIS2_PLACEMENT_3D ( 'NONE', #159, #158, #279 ) ;
#270 = DIRECTION ( 'NONE',  ( -0.0000000000000000000, -1.000000000000000000, -0.0000000000000000000 ) ) ;
#271 = CIRCLE ( 'NONE', #243, 3.399999999999995000 ) ;
#272 = CARTESIAN_POINT ( 'NONE',  ( 0.0000000000000000000, 0.0000000000000000000, 0.0000000000000000000 ) ) ;
#273 = PRODUCT_DEFINITION_FORMATION_WITH_SPECIFIED_SOURCE ( 'ANY', '', #64, .NOT_KNOWN. ) ;
#274 = ADVANCED_BREP_SHAPE_REPRESENTATION ( '51025-240M8', ( #282, #267 ), #49 ) ;
#275 = PRODUCT_RELATED_PRODUCT_CATEGORY ( 'detail', '', ( #64 ) ) ;
#276 = FACE_OUTER_BOUND ( 'NONE', #127, .T. ) ;
#277 = VECTOR ( 'NONE', #283, 1000.000000000000000 ) ;
#278 = CIRCLE ( 'NONE', #190, 3.519341738104498700 ) ;
#279 = DIRECTION ( 'NONE',  ( 0.0000000000000000000, 0.0000000000000000000, -1.000000000000000000 ) ) ;
#280 = CARTESIAN_POINT ( 'NONE',  ( 0.0000000000000000000, 0.6250000000000040000, 0.0000000000000000000 ) ) ;
#281 = DIRECTION ( 'NONE',  ( -1.224646799147353200E-016, 0.0000000000000000000, -1.000000000000000000 ) ) ;
#282 = MANIFOLD_SOLID_BREP ( 'M8 Gewindebohrung1', #4 ) ;
#283 = DIRECTION ( 'NONE',  ( 0.0000000000000000000, -0.5150380749100560400, -0.8571673007021112200 ) ) ;
#284 = APPROVAL_ROLE ( '' ) ;
#285 = CARTESIAN_POINT ( 'NONE',  ( 0.0000000000000000000, 0.0000000000000000000, -3.399999999999995900 ) ) ;
#286 = CARTESIAN_POINT ( 'NONE',  ( 0.0000000000000000000, 0.5056582618955026700, 0.0000000000000000000 ) ) ;
#287 = DATE_AND_TIME ( #138, #121 ) ;
#288 = ORIENTED_EDGE ( 'NONE', *, *, #82, .F. ) ;
#289 = APPROVAL_ROLE ( '' ) ;
#290 = CARTESIAN_POINT ( 'NONE',  ( 0.0000000000000000000, 0.0000000000000000000, 0.0000000000000000000 ) ) ;
#291 = EDGE_CURVE ( 'NONE', #20, #40, #271, .T. ) ;
#292 = DIRECTION ( 'NONE',  ( 1.000000000000000000, 0.0000000000000000000, 0.0000000000000000000 ) ) ;
#293 = LINE ( 'NONE', #147, #161 ) ;
#294 = DATE_AND_TIME ( #68, #265 ) ;
#295 = AXIS2_PLACEMENT_3D ( 'NONE', #280, #261, #136 ) ;
ENDSEC;
END-ISO-10303-21;
