  0
SECTION
  2
HEADER
  9
$ACADVER
  1
AC1015
  9
$ACADMAINTVER
 70
     6
  9
$DWGCODEPAGE
  3
ANSI_1252
  9
$INSBASE
 10
0.0
 20
0.0
 30
0.0
  9
$EXTMIN
 10
0.0
 20
0.0
 30
0.0
  9
$EXTMAX
 10
297.0
 20
210.0
 30
0.0
  9
$LIMMIN
 10
0.0
 20
0.0
  9
$LIMMAX
 10
297.0
 20
210.0
  9
$ORTHOMODE
 70
     0
  9
$REGENMODE
 70
     1
  9
$FILLMODE
 70
     1
  9
$QTEXTMODE
 70
     0
  9
$MIRRTEXT
 70
     1
  9
$LTSCALE
 40
1.0
  9
$ATTMODE
 70
     1
  9
$TEXTSIZE
 40
3.5
  9
$TRACEWID
 40
1.0
  9
$TEXTSTYLE
  7
Standard
  9
$CLAYER
  8
0
  9
$CELTYPE
  6
ByLayer
  9
$CECOLOR
 62
   256
  9
$CELTSCALE
 40
1.0
  9
$DISPSILH
 70
     0
  9
$DIMSCALE
 40
1.0
  9
$DIMASZ
 40
3.302
  9
$DIMEXO
 40
1.0
  9
$DIMDLI
 40
3.75
  9
$DIMRND
 40
0.0
  9
$DIMDLE
 40
0.0
  9
$DIMEXE
 40
1.0
  9
$DIMTP
 40
0.0
  9
$DIMTM
 40
0.0
  9
$DIMTXT
 40
3.5
  9
$DIMCEN
 40
2.5
  9
$DIMTSZ
 40
0.0
  9
$DIMTOL
 70
     0
  9
$DIMLIM
 70
     0
  9
$DIMTIH
 70
     1
  9
$DIMTOH
 70
     1
  9
$DIMSE1
 70
     0
  9
$DIMSE2
 70
     0
  9
$DIMTAD
 70
     1
  9
$DIMZIN
 70
     0
  9
$DIMBLK
  1

  9
$DIMASO
 70
     1
  9
$DIMSHO
 70
     1
  9
$DIMPOST
  1

  9
$DIMAPOST
  1

  9
$DIMALT
 70
     0
  9
$DIMALTD
 70
     3
  9
$DIMALTF
 40
0.0393700787
  9
$DIMLFAC
 40
1.0
  9
$DIMTOFL
 70
     1
  9
$DIMTVP
 40
0.0
  9
$DIMTIX
 70
     0
  9
$DIMSOXD
 70
     0
  9
$DIMSAH
 70
     0
  9
$DIMBLK1
  1

  9
$DIMBLK2
  1

  9
$DIMSTYLE
  2
ISO-25
  9
$DIMCLRD
 70
     0
  9
$DIMCLRE
 70
     0
  9
$DIMCLRT
 70
     0
  9
$DIMTFAC
 40
1.0
  9
$DIMGAP
 40
1.524
  9
$DIMJUST
 70
     0
  9
$DIMSD1
 70
     0
  9
$DIMSD2
 70
     0
  9
$DIMTOLJ
 70
     0
  9
$DIMTZIN
 70
     0
  9
$DIMALTZ
 70
     0
  9
$DIMALTTZ
 70
     0
  9
$DIMUPT
 70
     0
  9
$DIMDEC
 70
     2
  9
$DIMTDEC
 70
     2
  9
$DIMALTU
 70
     2
  9
$DIMALTTD
 70
     3
  9
$DIMTXSTY
  7
Standard
  9
$DIMAUNIT
 70
     0
  9
$DIMADEC
 70
     2
  9
$DIMALTRND
 40
0.0
  9
$DIMAZIN
 70
     0
  9
$DIMDSEP
 70
    44
  9
$DIMATFIT
 70
     3
  9
$DIMFRAC
 70
     0
  9
$DIMLDRBLK
  1

  9
$DIMLUNIT
 70
     2
  9
$DIMLWD
 70
    -2
  9
$DIMLWE
 70
    -2
  9
$DIMTMOVE
 70
     0
  9
$LUNITS
 70
     2
  9
$LUPREC
 70
     2
  9
$SKETCHINC
 40
1.0
  9
$FILLETRAD
 40
10.0
  9
$AUNITS
 70
     0
  9
$AUPREC
 70
     2
  9
$MENU
  1
.
  9
$ELEVATION
 40
0.0
  9
$PELEVATION
 40
0.0
  9
$THICKNESS
 40
0.0
  9
$LIMCHECK
 70
     0
  9
$CHAMFERA
 40
0.0
  9
$CHAMFERB
 40
0.0
  9
$CHAMFERC
 40
0.0
  9
$CHAMFERD
 40
0.0
  9
$SKPOLY
 70
     0
  9
$TDCREATE
 40
2456919.360730347
  9
$TDUCREATE
 40
2456919.277397014
  9
$TDUPDATE
 40
2456919.360732014
  9
$TDUUPDATE
 40
2456919.27739868
  9
$TDINDWG
 40
0.0000000116
  9
$TDUSRTIMER
 40
0.0000000116
  9
$USRTIMER
 70
     1
  9
$ANGBASE
 50
0.0
  9
$ANGDIR
 70
     0
  9
$PDMODE
 70
     0
  9
$PDSIZE
 40
-1.0
  9
$PLINEWID
 40
0.0
  9
$SPLFRAME
 70
     0
  9
$SPLINETYPE
 70
     6
  9
$SPLINESEGS
 70
     8
  9
$HANDSEED
  5
1A8
  9
$SURFTAB1
 70
     6
  9
$SURFTAB2
 70
     6
  9
$SURFTYPE
 70
     6
  9
$SURFU
 70
     6
  9
$SURFV
 70
     6
  9
$UCSBASE
  2

  9
$UCSNAME
  2

  9
$UCSORG
 10
0.0
 20
0.0
 30
0.0
  9
$UCSXDIR
 10
1.0
 20
0.0
 30
0.0
  9
$UCSYDIR
 10
0.0
 20
1.0
 30
0.0
  9
$UCSORTHOREF
  2

  9
$UCSORTHOVIEW
 70
     0
  9
$UCSORGTOP
 10
0.0
 20
0.0
 30
0.0
  9
$UCSORGBOTTOM
 10
0.0
 20
0.0
 30
0.0
  9
$UCSORGLEFT
 10
0.0
 20
0.0
 30
0.0
  9
$UCSORGRIGHT
 10
0.0
 20
0.0
 30
0.0
  9
$UCSORGFRONT
 10
0.0
 20
0.0
 30
0.0
  9
$UCSORGBACK
 10
0.0
 20
0.0
 30
0.0
  9
$PUCSBASE
  2

  9
$PUCSNAME
  2

  9
$PUCSORG
 10
0.0
 20
0.0
 30
0.0
  9
$PUCSXDIR
 10
1.0
 20
0.0
 30
0.0
  9
$PUCSYDIR
 10
0.0
 20
1.0
 30
0.0
  9
$PUCSORTHOREF
  2

  9
$PUCSORTHOVIEW
 70
     0
  9
$PUCSORGTOP
 10
0.0
 20
0.0
 30
0.0
  9
$PUCSORGBOTTOM
 10
0.0
 20
0.0
 30
0.0
  9
$PUCSORGLEFT
 10
0.0
 20
0.0
 30
0.0
  9
$PUCSORGRIGHT
 10
0.0
 20
0.0
 30
0.0
  9
$PUCSORGFRONT
 10
0.0
 20
0.0
 30
0.0
  9
$PUCSORGBACK
 10
0.0
 20
0.0
 30
0.0
  9
$USERI1
 70
     0
  9
$USERI2
 70
     0
  9
$USERI3
 70
     0
  9
$USERI4
 70
     0
  9
$USERI5
 70
     0
  9
$USERR1
 40
0.0
  9
$USERR2
 40
0.0
  9
$USERR3
 40
0.0
  9
$USERR4
 40
0.0
  9
$USERR5
 40
0.0
  9
$WORLDVIEW
 70
     1
  9
$SHADEDGE
 70
     3
  9
$SHADEDIF
 70
    70
  9
$TILEMODE
 70
     1
  9
$MAXACTVP
 70
    64
  9
$PINSBASE
 10
0.0
 20
0.0
 30
0.0
  9
$PLIMCHECK
 70
     0
  9
$PEXTMIN
 10
1.0000000000E+20
 20
1.0000000000E+20
 30
1.0000000000E+20
  9
$PEXTMAX
 10
-1.0000000000E+20
 20
-1.0000000000E+20
 30
-1.0000000000E+20
  9
$PLIMMIN
 10
0.0
 20
0.0
  9
$PLIMMAX
 10
420.0
 20
297.0
  9
$UNITMODE
 70
     0
  9
$VISRETAIN
 70
     1
  9
$PLINEGEN
 70
     0
  9
$PSLTSCALE
 70
     1
  9
$TREEDEPTH
 70
  3020
  9
$CMLSTYLE
  2
Standard
  9
$CMLJUST
 70
     0
  9
$CMLSCALE
 40
20.0
  9
$PROXYGRAPHICS
 70
     1
  9
$MEASUREMENT
 70
     1
  9
$CELWEIGHT
370
    -1
  9
$ENDCAPS
280
     0
  9
$JOINSTYLE
280
     0
  9
$LWDISPLAY
290
     1
  9
$INSUNITS
 70
     4
  9
$HYPERLINKBASE
  1

  9
$STYLESHEET
  1

  9
$XEDIT
290
     1
  9
$CEPSNTYPE
380
     0
  9
$PSTYLEMODE
290
     1
  9
$FINGERPRINTGUID
  2
{33EAE7AF-0116-46B3-B73C-042C0FD58B5F}
  9
$VERSIONGUID
  2
{FAEB1C32-E019-11D5-929B-00C0DF256EC4}
  9
$EXTNAMES
290
     1
  9
$PSVPSCALE
 40
0.0
  9
$OLESTARTUP
290
     0
  0
ENDSEC
  0
SECTION
  2
CLASSES
  0
CLASS
  1
ACDBDICTIONARYWDFLT
  2
AcDbDictionaryWithDefault
  3
ObjectDBX Classes
 90
        0
280
     0
281
     0
  0
CLASS
  1
VISUALSTYLE
  2
AcDbVisualStyle
  3
ObjectDBX Classes
 90
     4095
280
     0
281
     0
  0
CLASS
  1
MATERIAL
  2
AcDbMaterial
  3
ObjectDBX Classes
 90
     1153
280
     0
281
     0
  0
CLASS
  1
SCALE
  2
AcDbScale
  3
ObjectDBX Classes
 90
     1153
280
     0
281
     0
  0
CLASS
  1
SUN
  2
AcDbSun
  3
SCENEOE
 90
     1153
280
     0
281
     0
  0
CLASS
  1
ACDBPLACEHOLDER
  2
AcDbPlaceHolder
  3
ObjectDBX Classes
 90
        0
280
     0
281
     0
  0
CLASS
  1
LAYOUT
  2
AcDbLayout
  3
ObjectDBX Classes
 90
        0
280
     0
281
     0
  0
ENDSEC
  0
SECTION
  2
TABLES
  0
TABLE
  2
VPORT
  5
8
330
0
100
AcDbSymbolTable
 70
     1
  0
VPORT
  5
29
330
8
100
AcDbSymbolTableRecord
100
AcDbViewportTableRecord
  2
*Active
 70
     0
 10
0.0
 20
0.0
 11
1.0
 21
1.0
 12
148.5
 22
105.0
 13
0.0
 23
0.0
 14
10.0
 24
10.0
 15
10.0
 25
10.0
 16
0.0
 26
0.0
 36
1.0
 17
0.0
 27
0.0
 37
0.0
 40
210.0
 41
1.4142857143
 42
50.0
 43
0.0
 44
0.0
 50
0.0
 51
0.0
 71
     0
 72
  2000
 73
     1
 74
     3
 75
     0
 76
     0
 77
     0
 78
     0
281
     0
 65
     1
110
0.0
120
0.0
130
0.0
111
1.0
121
0.0
131
0.0
112
0.0
122
1.0
132
0.0
 79
     0
146
0.0
  0
ENDTAB
  0
TABLE
  2
LTYPE
  5
5
330
0
100
AcDbSymbolTable
 70
     6
  0
LTYPE
  5
14
330
5
100
AcDbSymbolTableRecord
100
AcDbLinetypeTableRecord
  2
ByBlock
 70
     0
  3

 72
    65
 73
     0
 40
0.0
  0
LTYPE
  5
15
330
5
100
AcDbSymbolTableRecord
100
AcDbLinetypeTableRecord
  2
ByLayer
 70
     0
  3

 72
    65
 73
     0
 40
0.0
  0
LTYPE
  5
16
330
5
100
AcDbSymbolTableRecord
100
AcDbLinetypeTableRecord
  2
Continuous
 70
     0
  3
Solid line
 72
    65
 73
     0
 40
0.0
  0
LTYPE
  5
6A
330
5
100
AcDbSymbolTableRecord
100
AcDbLinetypeTableRecord
  2
HIDDEN
 70
     0
  3
Hidden __ __ __ __ __ __ __ __ __ __ __ __ __ __
 72
    65
 73
     2
 40
1.905
 49
1.27
 74
     0
 49
-0.635
 74
     0
  0
LTYPE
  5
6B
330
5
100
AcDbSymbolTableRecord
100
AcDbLinetypeTableRecord
  2
PHANTOM
 70
     0
  3
Phantom ______  __  __  ______  __  __  ______
 72
    65
 73
     6
 40
12.7
 49
6.35
 74
     0
 49
-1.27
 74
     0
 49
1.27
 74
     0
 49
-1.27
 74
     0
 49
1.27
 74
     0
 49
-1.27
 74
     0
  0
LTYPE
  5
6C
330
5
100
AcDbSymbolTableRecord
100
AcDbLinetypeTableRecord
  2
CENTER
 70
     0
  3
Center ____ _ ____ _ ____ _ ____ _ ____ _ ____
 72
    65
 73
     4
 40
10.16
 49
6.35
 74
     0
 49
-1.27
 74
     0
 49
1.27
 74
     0
 49
-1.27
 74
     0
  0
LTYPE
  5
6D
330
5
100
AcDbSymbolTableRecord
100
AcDbLinetypeTableRecord
  2
CENTERX2
 70
     0
  3
Center (2x) ________  __  ________  __  _____
 72
    65
 73
     4
 40
20.32
 49
12.7
 74
     0
 49
-2.54
 74
     0
 49
2.54
 74
     0
 49
-2.54
 74
     0
  0
LTYPE
  5
6E
330
5
100
AcDbSymbolTableRecord
100
AcDbLinetypeTableRecord
  2
DOT2
 70
     0
  3
Dot (.5x) ........................................
 72
    65
 73
     2
 40
0.635
 49
0.0
 74
     0
 49
-0.635
 74
     0
  0
ENDTAB
  0
TABLE
  2
LAYER
  5
2
330
0
100
AcDbSymbolTable
 70
     2
  0
LAYER
  5
10
330
2
100
AcDbSymbolTableRecord
100
AcDbLayerTableRecord
  2
0
 70
     0
 62
     7
  6
Continuous
370
    -3
390
F
  0
LAYER
  5
6F
330
2
100
AcDbSymbolTableRecord
100
AcDbLayerTableRecord
  2
FORMAT
 70
     0
 62
     7
  6
Continuous
370
    -3
390
F
  0
ENDTAB
  0
TABLE
  2
STYLE
  5
3
330
0
100
AcDbSymbolTable
 70
     3
  0
STYLE
  5
11
330
3
100
AcDbSymbolTableRecord
100
AcDbTextStyleTableRecord
  2
Standard
 70
     0
 40
0.0
 41
1.0
 50
0.0
 71
     0
 42
3.5
  3
txt
  4

  0
STYLE
  5
8C
330
3
100
AcDbSymbolTableRecord
100
AcDbTextStyleTableRecord
  2
SLDTEXTSTYLE0
 70
     0
 40
0.0
 41
0.75
 50
0.0
 71
     0
 42
3.5
  3
TXT
  4

  0
STYLE
  5
94
330
3
100
AcDbSymbolTableRecord
100
AcDbTextStyleTableRecord
  2
SLDTEXTSTYLE1
 70
     0
 40
0.0
 41
0.6923076923
 50
0.0
 71
     0
 42
3.5
  3
TXT
  4

  0
ENDTAB
  0
TABLE
  2
VIEW
  5
6
330
0
100
AcDbSymbolTable
 70
     0
  0
ENDTAB
  0
TABLE
  2
UCS
  5
7
330
0
100
AcDbSymbolTable
 70
     0
  0
ENDTAB
  0
TABLE
  2
APPID
  5
9
330
0
100
AcDbSymbolTable
 70
     1
  0
APPID
  5
12
330
9
100
AcDbSymbolTableRecord
100
AcDbRegAppTableRecord
  2
ACAD
 70
     0
  0
ENDTAB
  0
TABLE
  2
DIMSTYLE
  5
A
330
0
100
AcDbSymbolTable
 70
     1
100
AcDbDimStyleTable
  0
DIMSTYLE
105
27
330
A
100
AcDbSymbolTableRecord
100
AcDbDimStyleTableRecord
  2
ISO-25
 70
     0
 41
2.5
 42
0.625
 43
3.75
 44
1.25
 73
     0
 74
     0
 77
     1
 78
     8
140
2.5
141
2.5
143
0.0393700787
147
0.625
171
     3
172
     1
178
     0
271
     2
272
     2
274
     3
278
    44
283
     0
284
     8
340
11
  0
ENDTAB
  0
TABLE
  2
BLOCK_RECORD
  5
1
330
0
100
AcDbSymbolTable
 70
     1
  0
BLOCK_RECORD
  5
1F
330
1
100
AcDbSymbolTableRecord
100
AcDbBlockTableRecord
  2
*Model_Space
340
22
  0
BLOCK_RECORD
  5
1B
330
1
100
AcDbSymbolTableRecord
100
AcDbBlockTableRecord
  2
*Paper_Space
340
1E
  0
BLOCK_RECORD
  5
23
330
1
100
AcDbSymbolTableRecord
100
AcDbBlockTableRecord
  2
*Paper_Space0
340
26
  0
ENDTAB
  0
ENDSEC
  0
SECTION
  2
BLOCKS
  0
BLOCK
  5
20
330
1F
100
AcDbEntity
  8
0
100
AcDbBlockBegin
  2
*Model_Space
 70
     0
 10
0.0
 20
0.0
 30
0.0
  3
*Model_Space
  1
*Model_Space
  0
ENDBLK
  5
21
330
1F
100
AcDbEntity
  8
0
100
AcDbBlockEnd
  0
BLOCK
  5
1C
330
1B
100
AcDbEntity
 67
     1
  8
0
100
AcDbBlockBegin
  2
*Paper_Space
 70
     0
 10
0.0
 20
0.0
 30
0.0
  3
*Paper_Space
  1
*Paper_Space
  0
ENDBLK
  5
1D
330
1B
100
AcDbEntity
 67
     1
  8
0
100
AcDbBlockEnd
  0
BLOCK
  5
24
330
23
100
AcDbEntity
  8
0
100
AcDbBlockBegin
  2
*Paper_Space0
 70
     0
 10
0.0
 20
0.0
 30
0.0
  3
*Paper_Space0
  1
*Paper_Space0
  0
ENDBLK
  5
25
330
23
100
AcDbEntity
  8
0
100
AcDbBlockEnd
  0
ENDSEC
  0
SECTION
  2
ENTITIES
  0
LINE
  5
70
330
1F
100
AcDbEntity
  8
0
  6
Continuous
 62
     7
370
     0
100
AcDbLine
 10
146.0
 20
102.5
 30
0.0
 11
146.0
 21
2.5
 31
0.0
  0
LINE
  5
71
330
1F
100
AcDbEntity
  8
0
  6
Continuous
 62
     7
370
     0
100
AcDbLine
 10
79.7
 20
17.375
 30
0.0
 11
87.065
 21
17.375
 31
0.0
  0
LINE
  5
72
330
1F
100
AcDbEntity
  8
0
  6
Continuous
 62
     7
370
     0
100
AcDbLine
 10
101.8
 20
17.375
 30
0.0
 11
146.0
 21
17.375
 31
0.0
  0
LINE
  5
73
330
1F
100
AcDbEntity
  8
0
  6
Continuous
 62
     7
370
     0
100
AcDbLine
 10
79.7
 20
4.625
 30
0.0
 11
146.0
 21
4.625
 31
0.0
  0
LINE
  5
74
330
1F
100
AcDbEntity
  8
0
  6
Continuous
 62
     7
370
     0
100
AcDbLine
 10
79.7
 20
17.375
 30
0.0
 11
79.7
 21
14.1875
 31
0.0
  0
LINE
  5
75
330
1F
100
AcDbEntity
  8
0
  6
Continuous
 62
     7
370
     0
100
AcDbLine
 10
146.0
 20
11.0
 30
0.0
 11
139.5
 21
11.0
 31
0.0
  0
LINE
  5
76
330
1F
100
AcDbEntity
  8
0
  6
Continuous
 62
     7
370
     0
100
AcDbLine
 10
94.43
 20
11.0
 30
0.0
 11
101.8
 21
11.0
 31
0.0
  0
LINE
  5
77
330
1F
100
AcDbEntity
  8
0
  6
Continuous
 62
     7
370
     0
100
AcDbLine
 10
101.8
 20
17.375
 30
0.0
 11
101.8
 21
2.5
 31
0.0
  0
LINE
  5
78
330
1F
100
AcDbEntity
  8
0
  6
Continuous
 62
     7
370
     0
100
AcDbLine
 10
123.9
 20
2.5
 30
0.0
 11
123.9
 21
4.625
 31
0.0
  0
LINE
  5
79
330
1F
100
AcDbEntity
  8
0
  6
Continuous
 62
     7
370
     0
100
AcDbLine
 10
87.065
 20
17.375
 30
0.0
 11
94.43
 21
17.375
 31
0.0
  0
LINE
  5
7A
330
1F
100
AcDbEntity
  8
0
  6
Continuous
 62
     7
370
     0
100
AcDbLine
 10
139.5
 20
4.625
 30
0.0
 11
139.5
 21
7.7474846801
 31
0.0
  0
LINE
  5
7B
330
1F
100
AcDbEntity
  8
0
  6
Continuous
 62
     7
370
     0
100
AcDbLine
 10
94.43
 20
17.375
 30
0.0
 11
101.8
 21
17.375
 31
0.0
  0
LINE
  5
7C
330
1F
100
AcDbEntity
  8
0
  6
Continuous
 62
     7
370
     0
100
AcDbLine
 10
146.0
 20
7.7474846801
 30
0.0
 11
139.5
 21
7.7474846801
 31
0.0
  0
LINE
  5
7D
330
1F
100
AcDbEntity
  8
0
  6
Continuous
 62
     7
370
     0
100
AcDbLine
 10
101.8
 20
11.0
 30
0.0
 11
139.5
 21
11.0
 31
0.0
  0
LINE
  5
7E
330
1F
100
AcDbEntity
  8
0
  6
Continuous
 62
     7
370
     0
100
AcDbLine
 10
94.43
 20
17.375
 30
0.0
 11
94.43
 21
11.0
 31
0.0
  0
LINE
  5
7F
330
1F
100
AcDbEntity
  8
0
  6
Continuous
 62
     7
370
     0
100
AcDbLine
 10
94.43
 20
11.0
 30
0.0
 11
87.065
 21
11.0
 31
0.0
  0
LINE
  5
80
330
1F
100
AcDbEntity
  8
0
  6
Continuous
 62
     7
370
     0
100
AcDbLine
 10
146.0
 20
102.5
 30
0.0
 11
2.5
 21
102.5
 31
0.0
  0
LINE
  5
81
330
1F
100
AcDbEntity
  8
0
  6
Continuous
 62
     7
370
     0
100
AcDbLine
 10
2.5
 20
102.5
 30
0.0
 11
2.5
 21
2.5
 31
0.0
  0
LINE
  5
82
330
1F
100
AcDbEntity
  8
0
  6
Continuous
 62
     7
370
     0
100
AcDbLine
 10
2.5
 20
2.5
 30
0.0
 11
146.0
 21
2.5
 31
0.0
  0
LINE
  5
83
330
1F
100
AcDbEntity
  8
0
  6
Continuous
 62
     7
370
     0
100
AcDbLine
 10
87.065
 20
11.0
 30
0.0
 11
87.065
 21
17.375
 31
0.0
  0
LINE
  5
84
330
1F
100
AcDbEntity
  8
0
  6
Continuous
 62
     7
370
     0
100
AcDbLine
 10
87.065
 20
11.0
 30
0.0
 11
79.7
 21
11.0
 31
0.0
  0
LINE
  5
85
330
1F
100
AcDbEntity
  8
0
  6
Continuous
 62
     7
370
     0
100
AcDbLine
 10
139.5
 20
7.7474846801
 30
0.0
 11
139.5
 21
11.0
 31
0.0
  0
LINE
  5
86
330
1F
100
AcDbEntity
  8
0
  6
Continuous
 62
     7
370
     0
100
AcDbLine
 10
79.7
 20
14.1875
 30
0.0
 11
87.065
 21
14.1875
 31
0.0
  0
LINE
  5
87
330
1F
100
AcDbEntity
  8
0
  6
Continuous
 62
     7
370
     0
100
AcDbLine
 10
87.065
 20
14.1875
 30
0.0
 11
94.43
 21
14.1875
 31
0.0
  0
LINE
  5
88
330
1F
100
AcDbEntity
  8
0
  6
Continuous
 62
     7
370
     0
100
AcDbLine
 10
94.43
 20
14.1875
 30
0.0
 11
101.8
 21
14.1875
 31
0.0
  0
LINE
  5
89
330
1F
100
AcDbEntity
  8
0
  6
Continuous
 62
     7
370
     0
100
AcDbLine
 10
79.7
 20
11.0
 30
0.0
 11
79.7
 21
14.1875
 31
0.0
  0
LINE
  5
8A
330
1F
100
AcDbEntity
  8
0
  6
Continuous
 62
     7
370
     0
100
AcDbLine
 10
79.7
 20
11.0
 30
0.0
 11
79.7
 21
4.625
 31
0.0
  0
LINE
  5
8B
330
1F
100
AcDbEntity
  8
0
  6
Continuous
 62
     7
370
     0
100
AcDbLine
 10
79.7
 20
2.5
 30
0.0
 11
79.7
 21
4.625
 31
0.0
  0
MTEXT
  5
8D
330
1F
100
AcDbEntity
  8
0
  6
Continuous
 62
     7
370
     0
100
AcDbMText
 10
280.2769372799
 20
19.4324449477
 30
0.0
 40
1.5
 41
0.0
 71
     1
 72
     1
  1
Blattformat
  7
SLDTEXTSTYLE0
 73
     1
 44
1.0
  0
MTEXT
  5
8E
330
1F
100
AcDbEntity
  8
0
  6
Continuous
 62
     7
370
     0
100
AcDbMText
 10
162.3642408927
 20
25.8749304694
 30
0.0
 40
1.5
 41
0.0
 71
     1
 72
     1
  1
Ch. Höfig
  7
SLDTEXTSTYLE0
 73
     1
 44
1.0
  0
MTEXT
  5
8F
330
1F
100
AcDbEntity
  8
0
  6
Continuous
 62
     7
370
     0
100
AcDbMText
 10
166.7761978259
 20
32.2182056354
 30
0.0
 40
1.5
 41
0.0
 71
     2
 72
     1
  1
Name
  7
SLDTEXTSTYLE0
 73
     1
 44
1.0
  0
MTEXT
  5
90
330
1F
100
AcDbEntity
  8
0
  6
Continuous
 62
     7
370
     0
100
AcDbMText
 10
160.4458623088
 20
20.9860562892
 30
0.0
 40
1.5
 41
0.0
 71
     1
 72
     1
  1
Werkstoff:
  7
SLDTEXTSTYLE0
 73
     1
 44
1.0
  0
MTEXT
  5
91
330
1F
100
AcDbEntity
  8
0
  6
Continuous
 62
     7
370
     0
100
AcDbMText
 10
204.8649859034
 20
32.246101463
 30
0.0
 40
1.5
 41
0.0
 71
     1
 72
     1
  1
Artikelnummer
  7
SLDTEXTSTYLE0
 73
     1
 44
1.0
  0
MTEXT
  5
92
330
1F
100
AcDbEntity
  8
0
  6
Continuous
 62
     7
370
     0
100
AcDbMText
 10
204.8739661175
 20
19.868637827
 30
0.0
 40
1.5
 41
0.0
 71
     1
 72
     1
  1
Hersteller
  7
SLDTEXTSTYLE0
 73
     1
 44
1.0
  0
MTEXT
  5
93
330
1F
100
AcDbEntity
  8
0
  6
Continuous
 62
     7
370
     0
100
AcDbMText
 10
204.8739661175
 20
7.9000872745
 30
0.0
 40
1.5
 41
0.0
 71
     1
 72
     1
  1
Massstab: 1:1
  7
SLDTEXTSTYLE0
 73
     1
 44
1.0
  0
MTEXT
  5
95
330
1F
100
AcDbEntity
  8
0
  6
Continuous
 62
     7
370
     0
100
AcDbMText
 10
249.2782944278
 20
7.9000872745
 30
0.0
 40
1.5
 41
0.0
 71
     1
 72
     1
  1
Blatt 1 von 1
  7
SLDTEXTSTYLE1
 73
     1
 44
1.0
  0
MTEXT
  5
96
330
1F
100
AcDbEntity
  8
0
  6
Continuous
 62
     7
370
     0
100
AcDbMText
 10
283.018201252
 20
14.214493588
 30
0.0
 40
2.9104166667
 41
0.0
 71
     1
 72
     1
  1
A4
  7
SLDTEXTSTYLE0
 73
     1
 44
1.0
  0
MTEXT
  5
97
330
1F
100
AcDbEntity
  8
0
  6
Continuous
 62
     7
370
     0
100
AcDbMText
 10
244.7857210818
 20
18.2877193736
 30
0.0
 40
5.2916666667
 41
0.0
 71
     2
 72
     1
  1
Feldmann GmbH
  7
SLDTEXTSTYLE0
 73
     1
 44
1.0
  0
MTEXT
  5
98
330
1F
100
AcDbEntity
  8
0
  6
Continuous
 62
     7
370
     0
100
AcDbMText
 10
196.2543489966
 20
32.2182056354
 30
0.0
 40
1.5
 41
0.0
 71
     2
 72
     1
  1
Datum
  7
SLDTEXTSTYLE0
 73
     1
 44
1.0
  0
MTEXT
  5
99
330
1F
100
AcDbEntity
  8
0
  6
Continuous
 62
     7
370
     0
100
AcDbMText
 10
180.0267509503
 20
25.8749304694
 30
0.0
 40
1.5
 41
0.0
 71
     1
 72
     1
  1
CH
  7
SLDTEXTSTYLE0
 73
     1
 44
1.0
  0
MTEXT
  5
9A
330
1F
100
AcDbEntity
  8
0
  6
Continuous
 62
     7
370
     0
100
AcDbMText
 10
191.3972993064
 20
25.8769670829
 30
0.0
 40
1.5
 41
0.0
 71
     1
 72
     1
  1
18.09.2014
  7
SLDTEXTSTYLE0
 73
     1
 44
1.0
  0
MTEXT
  5
9B
330
1F
100
AcDbEntity
  8
0
  6
Continuous
 62
     7
370
     0
100
AcDbMText
 10
181.6136457524
 20
7.872191447
 30
0.0
 40
1.5
 41
0.0
 71
     2
 72
     1
  1
Gewicht 0.105 kg
  7
SLDTEXTSTYLE0
 73
     1
 44
1.0
  0
MTEXT
  5
9C
330
1F
100
AcDbEntity
  8
0
  6
Continuous
 62
     7
370
     0
100
AcDbMText
 10
181.5546561779
 20
15.6001115494
 30
0.0
 40
2.38125
 41
0.0
 71
     2
 72
     1
  1
Aluminium 3.3206 (EN AW 6060)
  7
SLDTEXTSTYLE0
 73
     1
 44
1.0
  0
MTEXT
  5
9D
330
1F
100
AcDbEntity
  8
0
  6
Continuous
 62
     7
370
     0
100
AcDbMText
 10
230.5992613427
 20
29.393250804
 30
0.0
 40
4.2333333333
 41
0.0
 71
     2
 72
     1
  1
15347
  7
SLDTEXTSTYLE0
 73
     1
 44
1.0
  0
MTEXT
  5
9E
330
1F
100
AcDbEntity
  8
0
  6
Continuous
 62
     7
370
     0
100
AcDbMText
 10
181.7530017825
 20
32.0187940875
 30
0.0
 40
1.5
 41
0.0
 71
     2
 72
     1
  1
Signatur
  7
SLDTEXTSTYLE0
 73
     1
 44
1.0
  0
ARC
  5
9F
330
1F
100
AcDbEntity
  8
0
  6
Continuous
 62
     7
370
    15
100
AcDbCircle
 10
125.3581288457
 20
182.1806065329
 30
0.0
 40
2.0
100
AcDbArc
 50
90.0
 51
180.0
  0
ARC
  5
A0
330
1F
100
AcDbEntity
  8
0
  6
Continuous
 62
     7
370
    15
100
AcDbCircle
 10
138.8581288457
 20
182.1806065329
 30
0.0
 40
2.0
100
AcDbArc
 50
0.0
 51
90.0
  0
LINE
  5
A1
330
1F
100
AcDbEntity
  8
0
  6
Continuous
 62
     7
370
    15
100
AcDbLine
 10
140.8581288457
 20
177.6806065329
 30
0.0
 11
140.8581288457
 21
182.1806065329
 31
0.0
  0
LINE
  5
A2
330
1F
100
AcDbEntity
  8
0
  6
Continuous
 62
     7
370
    15
100
AcDbLine
 10
123.3581288457
 20
182.1806065329
 30
0.0
 11
123.3581288457
 21
177.6806065329
 31
0.0
  0
LINE
  5
A3
330
1F
100
AcDbEntity
  8
0
  6
Continuous
 62
     7
370
    15
100
AcDbLine
 10
143.1672471486
 20
172.1495452426
 30
0.0
 11
143.6081288457
 21
177.6806065329
 31
0.0
  0
LINE
  5
A4
330
1F
100
AcDbEntity
  8
0
  6
Continuous
 62
     7
370
    15
100
AcDbLine
 10
140.8581288457
 20
143.1806065329
 30
0.0
 11
142.7711723239
 21
167.1806065329
 31
0.0
  0
LINE
  5
A5
330
1F
100
AcDbEntity
  8
0
  6
Continuous
 62
     7
370
    15
100
AcDbLine
 10
120.6081288457
 20
177.6806065329
 30
0.0
 11
122.4925292379
 21
154.0399470669
 31
0.0
  0
SPLINE
  5
A6
330
1F
100
AcDbEntity
  8
0
  6
Continuous
 62
     7
370
    15
100
AcDbSpline
210
0.0
220
0.0
230
1.0
 70
     8
 71
     3
 72
    31
 73
    27
 74
     0
 42
0.000000001
 43
0.00000001
 40
0.0
 40
0.0
 40
0.0
 40
0.0
 40
0.0302138092907757
 40
0.087514081505254
 40
0.1438256287573741
 40
0.1992025832717886
 40
0.25367837375136
 40
0.307269367189425
 40
0.3599768879158692
 40
0.4117880412628634
 40
0.4626756845521934
 40
0.5125974565460006
 40
0.5614939005693491
 40
0.6092855992062817
 40
0.655868918234583
 40
0.701110083568902
 40
0.7448369497481311
 40
0.7868276491076222
 40
0.8267951618146132
 40
0.8643667108520541
 40
0.8990577118043325
 40
0.930243101306692
 40
0.9571387819383735
 40
0.9788323555414449
 40
0.9944525612979609
 40
1.0
 40
1.0
 40
1.0
 40
1.0
 10
122.4838567003981
 20
154.0396191722681
 30
0.0
 10
122.4988521874462
 20
153.8763456152489
 30
0.0
 10
122.5422865079289
 20
153.4034249305676
 30
0.0
 10
122.5182489208663
 20
152.6214193176753
 30
0.0
 10
122.4217438903702
 20
151.7092600846106
 30
0.0
 10
122.2415358926328
 20
150.8246771471339
 30
0.0
 10
121.9884314091922
 20
149.9739250594212
 30
0.0
 10
121.666634491826
 20
149.1622035399807
 30
0.0
 10
121.2824733535998
 20
148.3942971157921
 30
0.0
 10
120.8421180052323
 20
147.6743592485165
 30
0.0
 10
120.3521661294725
 20
147.0059262998989
 30
0.0
 10
119.8194771800383
 20
146.3918755576708
 30
0.0
 10
119.2512070153975
 20
145.8344001976592
 30
0.0
 10
118.654800565938
 20
145.3349801922566
 30
0.0
 10
118.0380129092577
 20
144.894352064097
 30
0.0
 10
117.4089497873137
 20
144.512474036249
 30
0.0
 10
116.77614152949
 20
144.1884833410637
 30
0.0
 10
116.1486622039506
 20
143.9206430745361
 30
0.0
 10
115.5363084479524
 20
143.7062712013107
 30
0.0
 10
114.9498524149314
 20
143.5416625593503
 30
0.0
 10
114.4013526485839
 20
143.4219641049614
 30
0.0
 10
113.9044717483278
 20
143.341173216316
 30
0.0
 10
113.4744237383323
 20
143.2918575158687
 30
0.0
 10
113.1270865205067
 20
143.2661815549111
 30
0.0
 10
112.8947125649939
 20
143.2554420118496
 30
0.0
 10
112.7800583686852
 20
143.252922160592
 30
0.0
 10
112.7500107586547
 20
143.2522617791113
 30
0.0
  0
SPLINE
  5
A7
330
1F
100
AcDbEntity
  8
0
  6
Continuous
 62
     7
370
    15
100
AcDbSpline
210
0.0
220
0.0
230
1.0
 70
     8
 71
     3
 72
    10
 73
     6
 74
     0
 42
0.000000001
 43
0.00000001
 40
0.0
 40
0.0
 40
0.0
 40
0.0
 40
0.5
 40
0.5
 40
1.0
 40
1.0
 40
1.0
 40
1.0
 10
123.4379844298927
 20
177.6806065328747
 30
0.0
 10
123.5609645498935
 20
173.6444884410205
 30
0.0
 10
123.7368188806966
 20
169.609859560557
 30
0.0
 10
124.1586502926229
 20
161.5405629254602
 30
0.0
 10
124.4020314162238
 20
157.5062065810276
 30
0.0
 10
124.661030497248
 20
153.4737539834936
 30
0.0
  0
LINE
  5
A8
330
1F
100
AcDbEntity
  8
0
  6
Continuous
 62
     7
370
    15
100
AcDbLine
 10
140.8397241173
 20
177.6806065329
 30
0.0
 11
123.4379844299
 21
177.6806065329
 31
0.0
  0
SPLINE
  5
A9
330
1F
100
AcDbEntity
  8
0
  6
Continuous
 62
     7
370
    15
100
AcDbSpline
210
0.0
220
0.0
230
1.0
 70
     8
 71
     3
 72
    12
 73
     8
 74
     0
 42
0.000000001
 43
0.00000001
 40
0.0
 40
0.0
 40
0.0
 40
0.0
 40
0.4999999999999998
 40
0.4999999999999998
 40
0.7499999999999999
 40
0.7499999999999999
 40
1.0
 40
1.0
 40
1.0
 40
1.0
 10
139.3810749898354
 20
143.1806065328742
 30
0.0
 10
139.7006831621216
 20
148.9258321665536
 30
0.0
 10
139.9947353586452
 20
154.6747216016884
 30
0.0
 10
140.3763731715188
 20
163.3011895878011
 30
0.0
 10
140.4925344678373
 20
166.1766761231914
 30
0.0
 10
140.692240017625
 20
171.9281387082914
 30
0.0
 10
140.7754346926037
 20
174.8041603475046
 30
0.0
 10
140.8397241172721
 20
177.6806065328753
 30
0.0
  0
SPLINE
  5
AA
330
1F
100
AcDbEntity
  8
0
  6
Continuous
 62
     7
370
    15
100
AcDbSpline
210
0.0
220
0.0
230
1.0
 70
    24
 71
     3
 72
     8
 73
     4
 74
     0
 42
0.000000001
 43
0.00000001
 40
0.0689044836022219
 40
0.0689044836022219
 40
0.0689044836022219
 40
0.0689044836022219
 40
0.2023653647821435
 40
0.2023653647821435
 40
0.2023653647821435
 40
0.2023653647821435
 10
139.3807383719129
 20
143.1806065328742
 30
0.0
 10
134.0382289083283
 20
143.1806065328742
 30
0.0
 10
128.6976701317914
 20
143.1806065328742
 30
0.0
 10
123.3581288456798
 20
143.1806065328742
 30
0.0
  0
LINE
  5
AB
330
1F
100
AcDbEntity
  8
0
  6
Continuous
 62
     7
370
    15
100
AcDbLine
 10
123.3581288457
 20
143.1806065329
 30
0.0
 11
123.3584049957
 21
143.2999115882
 31
0.0
  0
SPLINE
  5
AC
330
1F
100
AcDbEntity
  8
0
  6
Continuous
 62
     7
370
    15
100
AcDbSpline
210
0.0
220
0.0
230
1.0
 70
     8
 71
     3
 72
     8
 73
     4
 74
     0
 42
0.000000001
 43
0.00000001
 40
0.0000000000000001
 40
0.0000000000000001
 40
0.0000000000000001
 40
0.0000000000000001
 40
0.0000928089804336
 40
0.0000928089804336
 40
0.0000928089804336
 40
0.0000928089804336
 10
123.4510714202353
 20
143.3050417299088
 30
0.0
 10
123.4201864414247
 20
143.3032640017469
 30
0.0
 10
123.389297348087
 20
143.3015565069708
 30
0.0
 10
123.3584049956767
 20
143.2999115882212
 30
0.0
  0
SPLINE
  5
AD
330
1F
100
AcDbEntity
  8
0
  6
Continuous
 62
     7
370
    15
100
AcDbSpline
210
0.0
220
0.0
230
1.0
 70
     8
 71
     3
 72
     8
 73
     4
 74
     0
 42
0.000000001
 43
0.00000001
 40
0.0
 40
0.0
 40
0.0
 40
0.0
 40
1.0
 40
1.0
 40
1.0
 40
1.0
 10
119.4890661660327
 20
143.3598242373147
 30
0.0
 10
119.5084125008058
 20
143.3301358026072
 30
0.0
 10
119.5375811587777
 20
143.3089983899867
 30
0.0
 10
119.5699354336996
 20
143.2946931577834
 30
0.0
  0
SPLINE
  5
AE
330
1F
100
AcDbEntity
  8
0
  6
Continuous
 62
     7
370
    15
100
AcDbSpline
210
0.0
220
0.0
230
1.0
 70
     8
 71
     3
 72
    20
 73
    16
 74
     0
 42
0.000000001
 43
0.00000001
 40
0.0
 40
0.0
 40
0.0
 40
0.0
 40
0.2499999999999986
 40
0.2499999999999986
 40
0.3749999999999975
 40
0.3749999999999975
 40
0.4999999999999964
 40
0.4999999999999964
 40
0.6249999999999954
 40
0.6249999999999954
 40
0.6874999999999958
 40
0.6874999999999958
 40
0.7499999999999962
 40
0.7499999999999962
 40
1.0
 40
1.0
 40
1.0
 40
1.0
 10
124.6610304972479
 20
153.4737539834936
 30
0.0
 10
124.7255139271277
 20
152.4697875860523
 30
0.0
 10
124.6512281469657
 20
151.483451764071
 30
0.0
 10
124.3459045668604
 20
150.0269258136764
 30
0.0
 10
124.2098810668715
 20
149.5416740011371
 30
0.0
 10
123.8774492897782
 20
148.6018630348169
 30
0.0
 10
123.6815663442776
 20
148.1466919967156
 30
0.0
 10
123.2314936039885
 20
147.2650898934322
 30
0.0
 10
122.9803295553527
 20
146.8371208663552
 30
0.0
 10
122.5548734182557
 20
146.2190664786706
 30
0.0
 10
122.4047994243726
 20
146.0163830049188
 30
0.0
 10
122.09395789839
 20
145.6254765393246
 30
0.0
 10
121.9326876664454
 20
145.4364414174551
 30
0.0
 10
121.0977863682844
 20
144.5225944726978
 30
0.0
 10
120.3399736216341
 20
143.8901743948609
 30
0.0
 10
119.4890661660329
 20
143.3598242373148
 30
0.0
  0
LINE
  5
AF
330
1F
100
AcDbEntity
  8
0
  6
Continuous
 62
     7
370
    15
100
AcDbLine
 10
125.3581288457
 20
184.1806065329
 30
0.0
 11
138.8581288064
 21
184.1806065329
 31
0.0
  0
ARC
  5
B0
330
1F
100
AcDbEntity
  8
0
  6
Continuous
 62
     7
370
    15
100
AcDbCircle
 10
124.0590856308
 20
175.2805554778
 30
0.0
 40
21.81510781628372
100
AcDbArc
 50
267.5560086419
 51
271.5811646973
  0
SPLINE
  5
B1
330
1F
100
AcDbEntity
  8
0
  6
Continuous
 62
     7
370
    15
100
AcDbSpline
210
0.0
220
0.0
230
1.0
 70
     8
 71
     3
 72
    18
 73
    14
 74
     0
 42
0.000000001
 43
0.00000001
 40
0.0
 40
0.0
 40
0.0
 40
0.0
 40
0.250000000000002
 40
0.250000000000002
 40
0.500000000000004
 40
0.500000000000004
 40
0.625000000000003
 40
0.625000000000003
 40
0.750000000000002
 40
0.750000000000002
 40
0.875000000000001
 40
0.875000000000001
 40
1.0
 40
1.0
 40
1.0
 40
1.0
 10
119.4890661660327
 20
143.3598242373147
 30
0.0
 10
119.3595222490179
 20
143.558619314891
 30
0.0
 10
119.2346360213074
 20
143.7497641370904
 30
0.0
 10
118.9980693777738
 20
144.1108128570171
 30
0.0
 10
118.8911172239853
 20
144.2734954123767
 30
0.0
 10
118.752365065443
 20
144.4836665077572
 30
0.0
 10
118.7106410135213
 20
144.5466965778972
 30
0.0
 10
118.636018804308
 20
144.6590604694911
 30
0.0
 10
118.6028664262037
 20
144.708772178122
 30
0.0
 10
118.547407414702
 20
144.7914597322309
 30
0.0
 10
118.5250814949225
 20
144.8244709893335
 30
0.0
 10
118.4910568194494
 20
144.8741095453043
 30
0.0
 10
118.4792961266433
 20
144.8908099711913
 30
0.0
 10
118.4734541021804
 20
144.8984464323982
 30
0.0
  0
SPLINE
  5
B2
330
1F
100
AcDbEntity
  8
0
  6
Continuous
 62
     7
370
    15
100
AcDbSpline
210
0.0
220
0.0
230
1.0
 70
     8
 71
     3
 72
    20
 73
    16
 74
     0
 42
0.000000001
 43
0.00000001
 40
0.0
 40
0.0
 40
0.0
 40
0.0
 40
0.1249999999999998
 40
0.1249999999999998
 40
0.2499999999999996
 40
0.2499999999999996
 40
0.3749999999999993
 40
0.3749999999999993
 40
0.4999999999999991
 40
0.4999999999999991
 40
0.6249999999999989
 40
0.6249999999999989
 40
0.7499999999999987
 40
0.7499999999999987
 40
1.0
 40
1.0
 40
1.0
 40
1.0
 10
118.4734541021953
 20
144.8984464324081
 30
0.0
 10
118.8323557958338
 20
145.1327597910226
 30
0.0
 10
119.1745067161268
 20
145.3883429935482
 30
0.0
 10
119.8211947002339
 20
145.9359980453664
 30
0.0
 10
120.1267018879941
 20
146.2287049752408
 30
0.0
 10
120.7022243743547
 20
146.8516703546272
 30
0.0
 10
120.9737908700508
 20
147.1841626786867
 30
0.0
 10
121.4719370393153
 20
147.8771596325312
 30
0.0
 10
121.6976079786514
 20
148.2357016005693
 30
0.0
 10
122.103280966103
 20
148.9765703143607
 30
0.0
 10
122.2832578830949
 20
149.3589380669725
 30
0.0
 10
122.5959107509514
 20
150.1487740974283
 30
0.0
 10
122.7284085690234
 20
150.5572675031491
 30
0.0
 10
123.0413936423359
 20
151.7879823429085
 30
0.0
 10
123.1440645761009
 20
152.6259171049051
 30
0.0
 10
123.128829183069
 20
153.4852910385727
 30
0.0
  0
SPLINE
  5
B3
330
1F
100
AcDbEntity
  8
0
  6
Continuous
 62
     7
370
    15
100
AcDbSpline
210
0.0
220
0.0
230
1.0
 70
     8
 71
     3
 72
    10
 73
     6
 74
     0
 42
0.000000001
 43
0.00000001
 40
0.0
 40
0.0
 40
0.0
 40
0.0
 40
0.5
 40
0.5
 40
1.0
 40
1.0
 40
1.0
 40
1.0
 10
123.128829183069
 20
153.4852910385727
 30
0.0
 10
123.0806547871093
 20
157.5160753441286
 30
0.0
 10
123.082773470593
 20
161.5484505640609
 30
0.0
 10
123.1901380755764
 20
169.613849806828
 30
0.0
 10
123.296409156041
 20
173.6468267155549
 30
0.0
 10
123.4379844298928
 20
177.6806065328746
 30
0.0
  0
SPLINE
  5
B4
330
1F
100
AcDbEntity
  8
0
  6
Continuous
 62
     7
370
    15
100
AcDbSpline
210
0.0
220
0.0
230
1.0
 70
     8
 71
     3
 72
    14
 73
    10
 74
     0
 42
0.000000001
 43
0.00000001
 40
0.0
 40
0.0
 40
0.0
 40
0.0
 40
0.25
 40
0.25
 40
0.5
 40
0.5
 40
0.75
 40
0.75
 40
1.0
 40
1.0
 40
1.0
 40
1.0
 10
140.8581288456798
 20
143.1806065328742
 30
0.0
 10
140.8579979996734
 20
143.1755021821789
 30
0.0
 10
140.8214434427553
 20
143.1713340942691
 30
0.0
 10
140.680659004377
 20
143.1655375000154
 30
0.0
 10
140.5764777197281
 20
143.163911361652
 30
0.0
 10
140.315238632658
 20
143.1635118669656
 30
0.0
 10
140.1582706965806
 20
143.164739024088
 30
0.0
 10
139.8137726326281
 20
143.169953396476
 30
0.0
 10
139.6263608244438
 20
143.1739391995239
 30
0.0
 10
139.4369939368102
 20
143.1790624424311
 30
0.0
  0
LINE
  5
B5
330
1F
100
AcDbEntity
  8
0
  6
Continuous
 62
     7
370
    15
100
AcDbLine
 10
139.3807307763
 20
143.1806065329
 30
0.0
 11
139.4370009553
 21
143.1806065329
 31
0.0
  0
SPLINE
  5
B6
330
1F
100
AcDbEntity
  8
0
  6
Continuous
 62
     7
370
    15
100
AcDbSpline
210
0.0
220
0.0
230
1.0
 70
     8
 71
     3
 72
    10
 73
     6
 74
     0
 42
0.000000001
 43
0.00000001
 40
0.0
 40
0.0
 40
0.0
 40
0.0
 40
0.5
 40
0.5
 40
1.0
 40
1.0
 40
1.0
 40
1.0
 10
140.839724117272
 20
177.6806065328753
 30
0.0
 10
140.9744139071887
 20
171.9285591556903
 30
0.0
 10
141.0621552112578
 20
166.1769930537724
 30
0.0
 10
141.0758253751806
 20
154.6754401377919
 30
0.0
 10
141.0054163811052
 20
148.9263473040712
 30
0.0
 10
140.8581288456798
 20
143.1806065328742
 30
0.0
  0
SPLINE
  5
B7
330
1F
100
AcDbEntity
  8
0
  6
Continuous
 62
     7
370
    15
100
AcDbSpline
210
0.0
220
0.0
230
1.0
 70
     8
 71
     3
 72
     8
 73
     4
 74
     0
 42
0.000000001
 43
0.00000001
 40
0.0
 40
0.0
 40
0.0
 40
0.0
 40
1.0
 40
1.0
 40
1.0
 40
1.0
 10
22.80225674215475
 20
126.0324642780051
 30
0.0
 10
49.46560437249644
 20
125.2212655435475
 30
0.0
 10
76.13422719763365
 20
124.4689654752008
 30
0.0
 10
102.8155598575358
 20
124.123030806659
 30
0.0
  0
LINE
  5
B8
330
1F
100
AcDbEntity
  8
0
  6
Continuous
 62
     7
370
    15
100
AcDbLine
 10
22.8011900723
 20
134.3004976005
 30
0.0
 11
22.8022567422
 21
126.032464278
 31
0.0
  0
SPLINE
  5
B9
330
1F
100
AcDbEntity
  8
0
  6
Continuous
 62
     7
370
    15
100
AcDbSpline
210
0.0
220
0.0
230
1.0
 70
     8
 71
     3
 72
    22
 73
    18
 74
     0
 42
0.000000001
 43
0.00000001
 40
0.0
 40
0.0
 40
0.0
 40
0.0
 40
0.1250000000000001
 40
0.1250000000000001
 40
0.2500000000000002
 40
0.2500000000000002
 40
0.3750000000000002
 40
0.3750000000000002
 40
0.5000000000000003
 40
0.5000000000000003
 40
0.6250000000000003
 40
0.6250000000000003
 40
0.7500000000000002
 40
0.7500000000000002
 40
0.8750000000000001
 40
0.8750000000000001
 40
1.0
 40
1.0
 40
1.0
 40
1.0
 10
27.65129236567598
 20
139.2976395664722
 30
0.0
 10
27.32740016298722
 20
139.287968137367
 30
0.0
 10
27.00979538408641
 20
139.247277678588
 30
0.0
 10
26.38663444338483
 20
139.1064524233228
 30
0.0
 10
26.07806503727136
 20
139.0048662561212
 30
0.0
 10
25.48947125081662
 20
138.7454415942707
 30
0.0
 10
25.21102443619669
 20
138.5891132974273
 30
0.0
 10
24.68536258567219
 20
138.224010228738
 30
0.0
 10
24.43652061295057
 20
138.0128879725972
 30
0.0
 10
23.9906588170755
 20
137.5537224453084
 30
0.0
 10
23.7911405487513
 20
137.3045410573996
 30
0.0
 10
23.43953510285833
 20
136.7664736939547
 30
0.0
 10
23.28902740266581
 20
136.4785969430435
 30
0.0
 10
23.04867767151633
 20
135.8870537238619
 30
0.0
 10
22.95686757182764
 20
135.5806028557594
 30
0.0
 10
22.83233132766117
 20
134.9454565566122
 30
0.0
 10
22.8011482909396
 20
134.6243566195677
 30
0.0
 10
22.8011900723286
 20
134.3004976005357
 30
0.0
  0
SPLINE
  5
BA
330
1F
100
AcDbEntity
  8
0
  6
Continuous
 62
     7
370
    15
100
AcDbSpline
210
0.0
220
0.0
230
1.0
 70
     8
 71
     3
 72
    13
 73
     9
 74
     0
 42
0.000000001
 43
0.00000001
 40
0.0
 40
0.0
 40
0.0
 40
0.0
 40
0.1249999999999999
 40
0.1249999999999999
 40
0.2499999999999999
 40
0.4999999999999998
 40
0.4999999999999998
 40
1.0
 40
1.0
 40
1.0
 40
1.0
 10
112.967823881656
 20
141.1576116515446
 30
0.0
 10
109.411216146551
 20
141.1279703832798
 30
0.0
 10
105.8549623766878
 20
141.0879792825034
 30
0.0
 10
98.74290230003066
 20
140.9949145967442
 30
0.0
 10
88.07554450097713
 20
140.8339090769497
 30
0.0
 10
77.41012975274656
 20
140.6160939516165
 30
0.0
 10
56.08121504504383
 20
140.1244645907614
 30
0.0
 10
41.86553563820421
 20
139.7220772187264
 30
0.0
 10
27.65129236567597
 20
139.2976395664722
 30
0.0
  0
SPLINE
  5
BB
330
1F
100
AcDbEntity
  8
0
  6
Continuous
 62
     7
370
    15
100
AcDbSpline
210
0.0
220
0.0
230
1.0
 70
     8
 71
     3
 72
    14
 73
    10
 74
     0
 42
0.000000001
 43
0.00000001
 40
0.0
 40
0.0
 40
0.0
 40
0.0
 40
0.2500000000000022
 40
0.2500000000000022
 40
0.3750000000000009
 40
0.3750000000000009
 40
0.4999999999999996
 40
0.4999999999999996
 40
1.0
 40
1.0
 40
1.0
 40
1.0
 10
119.7990871287472
 20
143.2956197419126
 30
0.0
 10
119.2949865722508
 20
142.9525735614178
 30
0.0
 10
118.7702776581871
 20
142.6498509549274
 30
0.0
 10
117.9530338436945
 20
142.2548246888785
 30
0.0
 10
117.6755675713302
 20
142.1330344403545
 30
0.0
 10
117.11039599595
 20
141.9094903990305
 30
0.0
 10
116.8221827046635
 20
141.8076642643989
 30
0.0
 10
115.3759809649598
 20
141.355933827259
 30
0.0
 10
114.1878929315541
 20
141.1677798783221
 30
0.0
 10
112.967823881656
 20
141.1576116515446
 30
0.0
  0
SPLINE
  5
BC
330
1F
100
AcDbEntity
  8
0
  6
Continuous
 62
     7
370
    15
100
AcDbSpline
210
0.0
220
0.0
230
1.0
 70
     8
 71
     3
 72
     8
 73
     4
 74
     0
 42
0.000000001
 43
0.00000001
 40
0.8245836328126249
 40
0.8245836328126249
 40
0.8245836328126249
 40
0.8245836328126249
 40
0.8550117006680655
 40
0.8550117006680655
 40
0.8550117006680655
 40
0.8550117006680655
 10
119.7990871287472
 20
143.2956197419126
 30
0.0
 10
121.0163694277385
 20
143.3004407512716
 30
0.0
 10
122.2336938384112
 20
143.3036463592358
 30
0.0
 10
123.4510714202354
 20
143.3050417299088
 30
0.0
  0
SPLINE
  5
BD
330
1F
100
AcDbEntity
  8
0
  6
Continuous
 62
     7
370
    15
100
AcDbSpline
210
0.0
220
0.0
230
1.0
 70
     8
 71
     3
 72
    20
 73
    16
 74
     0
 42
0.000000001
 43
0.00000001
 40
0.0
 40
0.0
 40
0.0
 40
0.0
 40
0.4999999999999992
 40
0.4999999999999992
 40
0.7499999999999989
 40
0.7499999999999989
 40
0.8749999999999989
 40
0.8749999999999989
 40
0.9374999999999994
 40
0.9374999999999994
 40
0.9687499999999993
 40
0.9687499999999993
 40
0.9843749999999997
 40
0.9843749999999997
 40
1.0
 40
1.0
 40
1.0
 40
1.0
 10
140.0303512675351
 20
134.4074317592258
 30
0.0
 10
139.9800987576963
 20
135.8730063636657
 30
0.0
 10
139.9238554890646
 20
137.338605742188
 30
0.0
 10
139.8122825720986
 20
139.5348527908422
 30
0.0
 10
139.7709258310873
 20
140.2665882717778
 30
0.0
 10
139.6903510567009
 20
141.3626479503442
 30
0.0
 10
139.6606342451041
 20
141.7277631819978
 30
0.0
 10
139.6036272485291
 20
142.2744010605815
 30
0.0
 10
139.5826818103313
 20
142.4564519189679
 30
0.0
 10
139.543197485878
 20
142.7288567004961
 30
0.0
 10
139.528747420148
 20
142.8195510166097
 30
0.0
 10
139.5021642208382
 20
142.9551838980286
 30
0.0
 10
139.492497703029
 20
143.0003278057428
 30
0.0
 10
139.4695908654901
 20
143.0903181088377
 30
0.0
 10
139.457286929991
 20
143.1352424558477
 30
0.0
 10
139.4375037349651
 20
143.1795441718236
 30
0.0
  0
SPLINE
  5
BE
330
1F
100
AcDbEntity
  8
0
  6
Continuous
 62
     7
370
    15
100
AcDbSpline
210
0.0
220
0.0
230
1.0
 70
     8
 71
     3
 72
     8
 73
     4
 74
     0
 42
0.000000001
 43
0.00000001
 40
0.0
 40
0.0
 40
0.0
 40
0.0
 40
1.0
 40
1.0
 40
1.0
 40
1.0
 10
108.2246578717546
 20
124.8804677430591
 30
0.0
 10
118.8244079875625
 20
128.057455804673
 30
0.0
 10
129.4265699561711
 20
131.2330836816585
 30
0.0
 10
140.0303512675275
 20
134.4074317592234
 30
0.0
  0
SPLINE
  5
BF
330
1F
100
AcDbEntity
  8
0
  6
Continuous
 62
     7
370
    15
100
AcDbSpline
210
0.0
220
0.0
230
1.0
 70
     8
 71
     3
 72
    10
 73
     6
 74
     0
 42
0.000000001
 43
0.00000001
 40
0.0
 40
0.0
 40
0.0
 40
0.0
 40
0.5
 40
0.5
 40
1.0
 40
1.0
 40
1.0
 40
1.0
 10
108.2246578717546
 20
124.8804677430591
 30
0.0
 10
107.3469478068431
 20
124.6173979190239
 30
0.0
 10
106.4488876906602
 20
124.4215250047454
 30
0.0
 10
104.6418695739838
 20
124.1688504875718
 30
0.0
 10
103.7319593603648
 20
124.1111493027513
 30
0.0
 10
102.8155598575187
 20
124.1230308066593
 30
0.0
  0
ARC
  5
C0
330
1F
100
AcDbEntity
  8
0
  6
Continuous
 62
     7
370
    15
100
AcDbCircle
 10
157.3416877927
 20
168.5361702256
 30
0.0
 40
14.63343684685742
100
AcDbArc
 50
165.7024705919
 51
185.3151963603
  0
LINE
  5
C1
330
1F
100
AcDbEntity
  8
0
  6
Continuous
 62
     7
370
    15
100
AcDbLine
 10
143.6081288371
 20
177.6806065329
 30
0.0
 11
140.8397241173
 21
177.6806065329
 31
0.0
  0
SPLINE
  5
C2
330
1F
100
AcDbEntity
  8
0
  6
Continuous
 62
     7
370
    15
100
AcDbSpline
210
0.0
220
0.0
230
1.0
 70
     8
 71
     3
 72
     8
 73
     4
 74
     0
 42
0.000000001
 43
0.00000001
 40
0.0
 40
0.0
 40
0.0
 40
0.0
 40
0.0002292068399381
 40
0.0002292068399381
 40
0.0002292068399381
 40
0.0002292068399381
 10
119.5699354336926
 20
143.2946931577735
 30
0.0
 10
119.6462797859794
 20
143.295008185231
 30
0.0
 10
119.7226860471337
 20
143.2953171577628
 30
0.0
 10
119.7990871287471
 20
143.2956197419126
 30
0.0
  0
ARC
  5
C3
330
1F
100
AcDbEntity
  8
0
  6
Continuous
 62
     7
370
    15
100
AcDbCircle
 10
176.7560168804
 20
142.231618291
 30
0.0
 40
63.79723392364062
100
AcDbArc
 50
179.0827814924
 51
180.9646022377
  0
SPLINE
  5
C4
330
1F
100
AcDbEntity
  8
0
  6
Continuous
 62
     7
370
    15
100
AcDbSpline
210
0.0
220
0.0
230
1.0
 70
     8
 71
     3
 72
    12
 73
     8
 74
     0
 42
0.000000001
 43
0.00000001
 40
0.0
 40
0.0
 40
0.0
 40
0.0
 40
0.5000000000000033
 40
0.5000000000000033
 40
0.7500000000000017
 40
0.7500000000000017
 40
1.0
 40
1.0
 40
1.0
 40
1.0
 10
112.966957489416
 20
143.2528715994668
 30
0.0
 10
113.9455195748617
 20
143.2610589966665
 30
0.0
 10
114.8992590367333
 20
143.4062234273178
 30
0.0
 10
116.2939086128159
 20
143.822285081122
 30
0.0
 10
116.753465292896
 20
143.9954335035789
 30
0.0
 10
117.6362087383591
 20
144.4010794729777
 30
0.0
 10
118.0625035861625
 20
144.634295624501
 30
0.0
 10
118.4734541021953
 20
144.8984464324079
 30
0.0
  0
SPLINE
  5
C5
330
1F
100
AcDbEntity
  8
0
  6
Continuous
 62
     7
370
    15
100
AcDbSpline
210
0.0
220
0.0
230
1.0
 70
     8
 71
     3
 72
    10
 73
     6
 74
     0
 42
0.000000001
 43
0.00000001
 40
0.0
 40
0.0
 40
0.0
 40
0.0
 40
0.5
 40
0.5
 40
1.0
 40
1.0
 40
1.0
 40
1.0
 10
140.1833127445775
 20
133.883281358279
 30
0.0
 10
140.1416934629693
 20
133.96222657992
 30
0.0
 10
140.1048880894338
 20
134.0446128149707
 30
0.0
 10
140.0504188383644
 20
134.2199996351384
 30
0.0
 10
140.0335859380912
 20
134.3130951569807
 30
0.0
 10
140.0303512675274
 20
134.407431759224
 30
0.0
  0
SPLINE
  5
C6
330
1F
100
AcDbEntity
  8
0
  6
Continuous
 62
     7
370
    15
100
AcDbSpline
210
0.0
220
0.0
230
1.0
 70
    24
 71
     3
 72
     8
 73
     4
 74
     0
 42
0.000000001
 43
0.00000001
 40
0.0
 40
0.0
 40
0.0
 40
0.0
 40
0.0067920090468176
 40
0.0067920090468176
 40
0.0067920090468176
 40
0.0067920090468176
 10
140.8581288456798
 20
143.1806416364203
 30
0.0
 10
140.8581288456798
 20
140.9176791984603
 30
0.0
 10
140.8581288456798
 20
138.6547469642453
 30
0.0
 10
140.8581288456798
 20
136.391823612401
 30
0.0
  0
SPLINE
  5
C7
330
1F
100
AcDbEntity
  8
0
  6
Continuous
 62
     7
370
    15
100
AcDbSpline
210
0.0
220
0.0
230
1.0
 70
     8
 71
     3
 72
    12
 73
     8
 74
     0
 42
0.000000001
 43
0.00000001
 40
0.0
 40
0.0
 40
0.0
 40
0.0
 40
0.4999999999999983
 40
0.4999999999999983
 40
0.7499999999999991
 40
0.7499999999999991
 40
1.0
 40
1.0
 40
1.0
 40
1.0
 10
140.1833127445775
 20
133.883281358279
 30
0.0
 10
140.4157824827792
 20
134.2841015425906
 30
0.0
 10
140.5809783004569
 20
134.6931611811493
 30
0.0
 10
140.7482193906216
 20
135.3265984159147
 30
0.0
 10
140.7895425239712
 20
135.539129788139
 30
0.0
 10
140.8444180715166
 20
135.9642170400969
 30
0.0
 10
140.8581288456797
 20
136.1794527515626
 30
0.0
 10
140.8581288456798
 20
136.391823612401
 30
0.0
  0
SPLINE
  5
C8
330
1F
100
AcDbEntity
  8
0
  6
Continuous
 62
     7
370
    15
100
AcDbSpline
210
0.0
220
0.0
230
1.0
 70
     8
 71
     3
 72
    14
 73
    10
 74
     0
 42
0.000000001
 43
0.00000001
 40
0.0
 40
0.0
 40
0.0
 40
0.0
 40
0.5000000000000002
 40
0.5000000000000002
 40
0.7500000000000003
 40
0.7500000000000003
 40
0.8750000000000001
 40
0.8750000000000001
 40
1.0
 40
1.0
 40
1.0
 40
1.0
 10
27.6483090021447
 20
141.3857186401885
 30
0.0
 10
41.86287784471011
 20
141.8119814025527
 30
0.0
 10
56.07889637529735
 20
142.2159140055424
 30
0.0
 10
77.40834289026641
 20
142.7093749660359
 30
0.0
 10
84.51879923358041
 20
142.8551141952027
 30
0.0
 10
95.18578354256674
 20
143.0357102181658
 30
0.0
 10
98.74166161748948
 20
143.0895731857877
 30
0.0
 10
105.8539075583944
 20
143.1829757404245
 30
0.0
 10
109.4102549921996
 20
143.2231135120652
 30
0.0
 10
112.966957489416
 20
143.2528715994668
 30
0.0
  0
ARC
  5
C9
330
1F
100
AcDbEntity
  8
0
  6
Continuous
 62
     7
370
    15
100
AcDbCircle
 10
45.4153341893
 20
140.3670617842
 30
0.0
 40
17.79620312851858
100
AcDbArc
 50
176.7185889806
 51
183.445134726
  0
LINE
  5
CA
330
1F
100
AcDbEntity
  8
0
  6
Continuous
 62
     7
370
    15
100
AcDbLine
 10
123.4379844299
 20
177.6806065329
 30
0.0
 11
120.60812885
 21
177.6806065329
 31
0.0
  0
SPLINE
  5
CB
330
1F
100
AcDbEntity
  8
0
  6
Continuous
 62
     7
370
    15
100
AcDbSpline
210
0.0
220
0.0
230
1.0
 70
    24
 71
     3
 72
     8
 73
     4
 74
     0
 42
0.000000001
 43
0.00000001
 40
0.0
 40
0.0
 40
0.0
 40
0.0
 40
1.0
 40
1.0
 40
1.0
 40
1.0
 10
137.2948682735114
 20
131.6026921862952
 30
0.0
 10
127.8018767206612
 20
128.7547947204401
 30
0.0
 10
118.3098229903209
 20
125.9071786013381
 30
0.0
 10
108.8192806716027
 20
123.0600159057226
 30
0.0
  0
ARC
  5
CC
330
1F
100
AcDbEntity
  8
0
  6
Continuous
 62
     7
370
    15
100
AcDbCircle
 10
127.8188662992
 20
130.2732786329
 30
0.0
 40
20.3227806462044
100
AcDbArc
 50
195.3882218013
 51
200.7894504166
  0
SPLINE
  5
CD
330
1F
100
AcDbEntity
  8
0
  6
Continuous
 62
     7
370
    15
100
AcDbSpline
210
0.0
220
0.0
230
1.0
 70
     8
 71
     3
 72
    18
 73
    14
 74
     0
 42
0.000000001
 43
0.00000001
 40
0.0
 40
0.0
 40
0.0
 40
0.0
 40
0.1250000000000034
 40
0.1250000000000034
 40
0.2500000000000067
 40
0.2500000000000067
 40
0.5000000000000071
 40
0.5000000000000071
 40
0.7500000000000074
 40
0.7500000000000074
 40
0.8750000000000038
 40
0.8750000000000038
 40
1.0
 40
1.0
 40
1.0
 40
1.0
 10
140.1833127445885
 20
133.8832813582978
 30
0.0
 10
140.0967492965271
 20
133.7340302021028
 30
0.0
 10
140.0025349824888
 20
133.5896837021592
 30
0.0
 10
139.8055855905708
 20
133.3184418348465
 30
0.0
 10
139.7023834768952
 20
133.1905780367335
 30
0.0
 10
139.3793088943717
 20
132.8272256426288
 30
0.0
 10
139.1435564398651
 20
132.6100197906804
 30
0.0
 10
138.6513146680676
 20
132.2331955232079
 30
0.0
 10
138.3949797478969
 20
132.0727766322042
 30
0.0
 10
137.9945151149502
 20
131.8687385438024
 30
0.0
 10
137.8583488811432
 20
131.8068968022189
 30
0.0
 10
137.5803164205397
 20
131.6953883683043
 30
0.0
 10
137.4376781843681
 20
131.6455351595522
 30
0.0
 10
137.2948682735115
 20
131.6026921862953
 30
0.0
  0
SPLINE
  5
CE
330
1F
100
AcDbEntity
  8
0
  6
Continuous
 62
     7
370
    15
100
AcDbSpline
210
0.0
220
0.0
230
1.0
 70
     8
 71
     3
 72
    10
 73
     6
 74
     0
 42
0.000000001
 43
0.00000001
 40
0.0
 40
0.0
 40
0.0
 40
0.0
 40
0.5
 40
0.5
 40
1.0
 40
1.0
 40
1.0
 40
1.0
 10
102.813598662043
 20
122.2182151367253
 30
0.0
 10
103.8310806613862
 20
122.2050516694425
 30
0.0
 10
104.841354285746
 20
122.2691964915662
 30
0.0
 10
106.8476802656211
 20
122.5500033706083
 30
0.0
 10
107.8447917947725
 20
122.7676692426735
 30
0.0
 10
108.8192806716028
 20
123.0600159057226
 30
0.0
  0
ARC
  5
CF
330
1F
100
AcDbEntity
  8
0
  6
Continuous
 62
     7
370
    15
100
AcDbCircle
 10
144.0564407851
 20
123.12816041
 30
0.0
 40
41.25287901209327
100
AcDbArc
 50
178.6180988312
 51
181.263917905
  0
SPLINE
  5
D0
330
1F
100
AcDbEntity
  8
0
  6
Continuous
 62
     7
370
    15
100
AcDbSpline
210
0.0
220
0.0
230
1.0
 70
     8
 71
     3
 72
     9
 73
     5
 74
     0
 42
0.000000001
 43
0.00000001
 40
0.0
 40
0.0
 40
0.0
 40
0.0
 40
0.6913417281914908
 40
1.0
 40
1.0
 40
1.0
 40
1.0
 10
112.9669574894164
 20
143.2528715994668
 30
0.0
 10
112.8187602862324
 20
143.251617978142
 30
0.0
 10
112.6043985644663
 20
143.2498046616969
 30
0.0
 10
112.6428109054272
 20
143.2501307222423
 30
0.0
 10
112.6546671922044
 20
143.2502313635268
 30
0.0
  0
ARC
  5
D1
330
1F
100
AcDbEntity
  8
0
  6
Continuous
 62
     7
370
    15
100
AcDbCircle
 10
40.4774303062
 20
125.0336644981
 30
0.0
 40
17.7033714732438
100
AcDbArc
 50
176.7657338531
 51
182.9526590311
  0
SPLINE
  5
D2
330
1F
100
AcDbEntity
  8
0
  6
Continuous
 62
     7
370
    15
100
AcDbSpline
210
0.0
220
0.0
230
1.0
 70
     8
 71
     3
 72
     8
 73
     4
 74
     0
 42
0.000000001
 43
0.00000001
 40
0.0
 40
0.0
 40
0.0
 40
0.0
 40
1.0
 40
1.0
 40
1.0
 40
1.0
 10
102.813598662043
 20
122.2182151367253
 30
0.0
 10
76.13140783411606
 20
122.563410576276
 30
0.0
 10
49.46186725928114
 20
123.3138814559443
 30
0.0
 10
22.79756117825465
 20
124.1217494044616
 30
0.0
  0
SPLINE
  5
D3
330
1F
100
AcDbEntity
  8
0
  6
Continuous
 62
     7
370
    15
100
AcDbSpline
210
0.0
220
0.0
230
1.0
 70
     8
 71
     3
 72
    26
 73
    22
 74
     0
 42
0.000000001
 43
0.00000001
 40
0.0
 40
0.0
 40
0.0
 40
0.0
 40
0.1250000000000002
 40
0.1250000000000002
 40
0.2500000000000005
 40
0.2500000000000005
 40
0.3125000000000005
 40
0.3125000000000005
 40
0.3750000000000005
 40
0.3750000000000005
 40
0.5000000000000006
 40
0.5000000000000006
 40
0.6250000000000004
 40
0.6250000000000004
 40
0.7500000000000003
 40
0.7500000000000003
 40
0.8125000000000003
 40
0.8125000000000003
 40
0.8750000000000002
 40
0.8750000000000002
 40
1.0
 40
1.0
 40
1.0
 40
1.0
 10
20.85812884567979
 20
134.3888639444513
 30
0.0
 10
20.85812884567979
 20
134.8422475282644
 30
0.0
 10
20.90183493588679
 20
135.2917883995874
 30
0.0
 10
21.07628367109763
 20
136.1810340142557
 30
0.0
 10
21.20486339942054
 20
136.6100974175363
 30
0.0
 10
21.45729932943725
 20
137.231281280819
 30
0.0
 10
21.5514432617508
 20
137.4345806880131
 30
0.0
 10
21.7601614941141
 20
137.8334927656437
 30
0.0
 10
21.87528867839877
 20
138.0297771670698
 30
0.0
 10
22.24454114299066
 20
138.5948282038921
 30
0.0
 10
22.52390580617227
 20
138.9437331216942
 30
0.0
 10
23.14817715736595
 20
139.5866638396724
 30
0.0
 10
23.49658190888017
 20
139.8822822097005
 30
0.0
 10
24.23251596728203
 20
140.3935010837693
 30
0.0
 10
24.6223274546348
 20
140.6123923607495
 30
0.0
 10
25.24029779846677
 20
140.8848349847145
 30
0.0
 10
25.45277147554623
 20
140.9664718583249
 30
0.0
 10
25.88033789443435
 20
141.1074212970293
 30
0.0
 10
26.09628237597314
 20
141.1672029038767
 30
0.0
 10
26.75046810658858
 20
141.3151194850591
 30
0.0
 10
27.19500125824582
 20
141.3721249664545
 30
0.0
 10
27.6483090021447
 20
141.3857186401885
 30
0.0
  0
ARC
  5
D4
330
1F
100
AcDbEntity
  8
0
  6
Continuous
 62
     7
370
    15
100
AcDbCircle
 10
22.3255205885
 20
145.2480235143
 30
0.0
 40
10.95785494932691
100
AcDbArc
 50
262.3042708512
 51
272.4879340452
  0
LINE
  5
D5
330
1F
100
AcDbEntity
  8
0
  6
Continuous
 62
     7
370
    15
100
AcDbLine
 10
20.8581288457
 20
126.1208320835
 30
0.0
 11
20.8581288457
 21
134.3888639445
 31
0.0
  0
ARC
  5
D6
330
1F
100
AcDbEntity
  8
0
  6
Continuous
 62
     7
370
    15
100
AcDbCircle
 10
22.3261553625
 20
136.9880277234
 30
0.0
 40
10.96590365309597
100
AcDbArc
 50
262.3066067592
 51
272.4883655571
  0
ARC
  5
D7
330
1F
100
AcDbEntity
  8
0
  6
Continuous
 62
     7
370
    15
100
AcDbCircle
 10
22.8581288457
 20
126.1208320835
 30
0.0
 40
2.000000000000004
100
AcDbArc
 50
180.0
 51
268.2645988127
  0
SPLINE
  5
D8
330
1F
100
AcDbEntity
  8
0
  6
Continuous
 62
     7
370
    15
100
AcDbSpline
210
0.0
220
0.0
230
1.0
 70
     8
 71
     3
 72
    26
 73
    22
 74
     0
 42
0.000000001
 43
0.00000001
 40
0.0
 40
0.0
 40
0.0
 40
0.0
 40
0.1249999999999998
 40
0.1249999999999998
 40
0.2499999999999996
 40
0.2499999999999996
 40
0.3124999999999995
 40
0.3124999999999995
 40
0.3749999999999995
 40
0.3749999999999995
 40
0.4999999999999997
 40
0.4999999999999997
 40
0.6249999999999997
 40
0.6249999999999997
 40
0.7499999999999997
 40
0.7499999999999997
 40
0.8124999999999998
 40
0.8124999999999998
 40
0.8749999999999999
 40
0.8749999999999999
 40
1.0
 40
1.0
 40
1.0
 40
1.0
 10
27.6483090021447
 20
141.3857186401885
 30
0.0
 10
27.19499691537433
 20
141.3721248362216
 30
0.0
 10
26.74670454452627
 20
141.3149067923374
 30
0.0
 10
25.86302265933328
 20
141.1138089117467
 30
0.0
 10
25.43795050168283
 20
140.9723768845663
 30
0.0
 10
24.82450432642514
 20
140.7013197849725
 30
0.0
 10
24.62407802307697
 20
140.6010791615799
 30
0.0
 10
24.23151432233751
 20
140.3803887692505
 30
0.0
 10
24.03876262553666
 20
140.2593890548586
 30
0.0
 10
23.48509496882172
 20
139.8733026845434
 30
0.0
 10
23.14475064098575
 20
139.5835589295259
 30
0.0
 10
22.52087215368971
 20
138.940180357562
 30
0.0
 10
22.23589356185392
 20
138.5830436088269
 30
0.0
 10
21.74713231237667
 20
137.8321754339503
 30
0.0
 10
21.5400962846201
 20
137.4360141959912
 30
0.0
 10
21.28639342299232
 20
136.8102186393922
 30
0.0
 10
21.2111964652356
 20
136.5954300054533
 30
0.0
 10
21.08319152764887
 20
136.1639324469366
 30
0.0
 10
21.02993671687532
 20
135.9463454769473
 30
0.0
 10
20.90176104103066
 20
135.2881819383634
 30
0.0
 10
20.85812884567974
 20
134.8422540604381
 30
0.0
 10
20.85812884567979
 20
134.3888639444507
 30
0.0
  0
LWPOLYLINE
  5
D9
330
1F
100
AcDbEntity
  8
0
  6
Continuous
 62
     7
370
    15
100
AcDbPolyline
 90
        2
 70
   128
 43
0.0
 10
27.6483090021
 20
141.3857186402
 10
27.6483090021
 20
141.3857186402
  0
LINE
  5
DA
330
1F
100
AcDbEntity
  8
0
  6
Continuous
 62
     8
370
    15
100
AcDbLine
 10
140.8581288457
 20
182.1806065329
 30
0.0
 11
123.3581288457
 21
182.1806065329
 31
0.0
  0
SPLINE
  5
DB
330
1F
100
AcDbEntity
  8
0
  6
Continuous
 62
     8
370
    15
100
AcDbSpline
210
0.0
220
0.0
230
1.0
 70
     8
 71
     3
 72
    11
 73
     7
 74
     0
 42
0.000000001
 43
0.00000001
 40
0.0
 40
0.0
 40
0.0
 40
0.0
 40
0.1979171083597696
 40
0.4333090584621887
 40
0.6696368737930795
 40
1.0
 40
1.0
 40
1.0
 40
1.0
 10
122.4968921732173
 20
154.0402948371089
 30
0.0
 10
122.5003063895222
 20
154.0376078280356
 30
0.0
 10
122.5077812908319
 20
154.0317250350759
 30
0.0
 10
122.6120652509073
 20
153.9469543304414
 30
0.0
 10
122.8043245255346
 20
153.7871113072329
 30
0.0
 10
123.0093220351874
 20
153.5964440795013
 30
0.0
 10
123.128829183069
 20
153.4852910385727
 30
0.0
  0
SPLINE
  5
DC
330
1F
100
AcDbEntity
  8
0
  6
Continuous
 62
     7
370
    15
100
AcDbSpline
210
0.0
220
0.0
230
1.0
 70
     8
 71
     3
 72
    11
 73
     7
 74
     0
 42
0.000000001
 43
0.00000001
 40
0.0
 40
0.0
 40
0.0
 40
0.0
 40
0.1693428886524569
 40
0.5392047109481837
 40
0.9073094484699474
 40
0.9999999999999999
 40
0.9999999999999999
 40
0.9999999999999999
 40
0.9999999999999999
 10
23.91149971783148
 20
71.01610704210796
 30
0.0
 10
24.00606183719746
 20
71.01156459651051
 30
0.0
 10
24.30715709218645
 20
70.99710099496887
 30
0.0
 10
24.84546122314302
 20
70.97607167060697
 30
0.0
 10
25.34542624108468
 20
70.95805786044446
 30
0.0
 10
25.62521910416354
 20
70.95026756167667
 30
0.0
 10
25.68150039741703
 20
70.9487005163823
 30
0.0
  0
SPLINE
  5
DD
330
1F
100
AcDbEntity
  8
0
  6
Continuous
 62
     7
370
    15
100
AcDbSpline
210
0.0
220
0.0
230
1.0
 70
     8
 71
     3
 72
    21
 73
    17
 74
     0
 42
0.000000001
 43
0.00000001
 40
0.0
 40
0.0
 40
0.0
 40
0.0
 40
0.0303875153981656
 40
0.0744720112915378
 40
0.1150320504069254
 40
0.1536319937375749
 40
0.1944959661928819
 40
0.2423468546825918
 40
0.307465149666678
 40
0.4194986986528197
 40
0.5267442684956348
 40
0.628483635567856
 40
0.7356740593913303
 40
0.8413042810143047
 40
0.9444673179298455
 40
1.0
 40
1.0
 40
1.0
 40
1.0
 10
19.50148827900308
 20
71.87108421295375
 30
0.0
 10
19.54760682885018
 20
71.82563441600908
 30
0.0
 10
19.6606315733862
 20
71.71424861342169
 30
0.0
 10
19.85901957366656
 20
71.58094240174519
 30
0.0
 10
20.07128386847042
 20
71.46769182983753
 30
0.0
 10
20.26343741013878
 20
71.39070837152616
 30
0.0
 10
20.43602968753835
 20
71.33702552616694
 30
0.0
 10
20.60879663110153
 20
71.29515470342794
 30
0.0
 10
20.83157734482877
 20
71.2532267084461
 30
0.0
 10
21.11742092601347
 20
71.21364038168048
 30
0.0
 10
21.49389978068717
 20
71.17315504123083
 30
0.0
 10
21.92798444485251
 20
71.1350564703099
 30
0.0
 10
22.4213697699338
 20
71.09865211023357
 30
0.0
 10
22.97506997805344
 20
71.0638968643537
 30
0.0
 10
23.47483961596662
 20
71.0362022091392
 30
0.0
 10
23.79830787916737
 20
71.02131614844677
 30
0.0
 10
23.91149971783148
 20
71.01610704210796
 30
0.0
  0
SPLINE
  5
DE
330
1F
100
AcDbEntity
  8
0
  6
Continuous
 62
     7
370
    15
100
AcDbSpline
210
0.0
220
0.0
230
1.0
 70
     8
 71
     3
 72
    26
 73
    22
 74
     0
 42
0.000000001
 43
0.00000001
 40
0.0
 40
0.0
 40
0.0
 40
0.0
 40
0.0072946189015884
 40
0.0794099557985916
 40
0.1518754710395972
 40
0.2246486466398682
 40
0.2973618448808075
 40
0.3707124107836866
 40
0.4447080605020873
 40
0.5190962773603423
 40
0.5962234799034232
 40
0.6785775461304253
 40
0.7283654285368264
 40
0.7778053178945099
 40
0.8081404616005051
 40
0.8390161547069315
 40
0.8724213776513291
 40
0.909408309330186
 40
0.948781545372288
 40
0.9899548480002867
 40
1.0
 40
1.0
 40
1.0
 40
1.0
 10
25.681422100453
 20
82.17630809856793
 30
0.0
 10
25.65903300483126
 20
82.1756987620092
 30
0.0
 10
25.41530305571683
 20
82.16906546288173
 30
0.0
 10
24.95057397254356
 20
82.15265736291067
 30
0.0
 10
24.30003225624066
 20
82.12736165379307
 30
0.0
 10
23.67318729408448
 20
82.09850618635369
 30
0.0
 10
23.08011636935526
 20
82.06705603261544
 30
0.0
 10
22.52803496181015
 20
82.0332989358236
 30
0.0
 10
22.02687964621475
 20
81.99749053236224
 30
0.0
 10
21.57812612626524
 20
81.95970295516055
 30
0.0
 10
21.17773682087798
 20
81.91848415296934
 30
0.0
 10
20.87771762523949
 20
81.87865614656877
 30
0.0
 10
20.62935090374048
 20
81.83446144301776
 30
0.0
 10
20.4245301864313
 20
81.78647851436034
 30
0.0
 10
20.20063811334906
 20
81.711921121526
 30
0.0
 10
19.97760565138037
 20
81.61266397645403
 30
0.0
 10
19.73051288208261
 20
81.46262650962876
 30
0.0
 10
19.47849542253109
 20
81.25319737128878
 30
0.0
 10
19.25166622752372
 20
80.98010431953526
 30
0.0
 10
19.10137680977642
 20
80.74487255840859
 30
0.0
 10
19.05274072350311
 20
80.59636946787411
 30
0.0
 10
19.04320203509797
 20
80.56724449470403
 30
0.0
  0
SPLINE
  5
DF
330
1F
100
AcDbEntity
  8
0
  6
Continuous
 62
     7
370
    15
100
AcDbSpline
210
0.0
220
0.0
230
1.0
 70
     8
 71
     3
 72
    12
 73
     8
 74
     0
 42
0.000000001
 43
0.00000001
 40
0.0
 40
0.0
 40
0.0
 40
0.0
 40
0.0446030112570176
 40
0.2602840605611008
 40
0.4935393098306321
 40
0.7513839697960354
 40
1.0
 40
1.0
 40
1.0
 40
1.0
 10
84.0531999358189
 20
83.65133229838568
 30
0.0
 10
83.18498050274506
 20
83.63786222973425
 30
0.0
 10
78.11842393784588
 20
83.55925668123379
 30
0.0
 10
68.51333959656507
 20
83.3550204557057
 30
0.0
 10
54.75996424259615
 20
83.0288655414962
 30
0.0
 10
40.36816233526625
 20
82.63762015960204
 30
0.0
 10
30.51618602586349
 20
82.34204838106947
 30
0.0
 10
25.67995828449995
 20
82.19695541799169
 30
0.0
  0
SPLINE
  5
E0
330
1F
100
AcDbEntity
  8
0
  6
Continuous
 62
     7
370
    15
100
AcDbSpline
210
0.0
220
0.0
230
1.0
 70
     8
 71
     3
 72
     9
 73
     5
 74
     0
 42
0.000000001
 43
0.00000001
 40
0.0
 40
0.0
 40
0.0
 40
0.0
 40
0.4142737084973261
 40
1.0
 40
1.0
 40
1.0
 40
1.0
 10
25.68079792386607
 20
70.9420203403535
 30
0.0
 10
28.01938899134224
 20
70.87131973653918
 30
0.0
 10
33.66442757213662
 20
70.70065816095729
 30
0.0
 10
39.31045190314899
 20
70.54695931595964
 30
0.0
 10
42.61747679628672
 20
70.45693386147092
 30
0.0
  0
LINE
  5
E1
330
1F
100
AcDbEntity
  8
0
  6
Continuous
 62
     7
370
    15
100
AcDbLine
 10
111.2959772378
 20
84.0399248931
 30
0.0
 11
110.9993870961
 21
84.0373887776
 31
0.0
  0
LINE
  5
E2
330
1F
100
AcDbEntity
  8
0
  6
Continuous
 62
     7
370
    15
100
AcDbLine
 10
117.6039961269
 20
84.1730169103
 30
0.0
 11
117.3684813448
 21
84.1644578815
 31
0.0
  0
SPLINE
  5
E3
330
1F
100
AcDbEntity
  8
0
  6
Continuous
 62
     7
370
    15
100
AcDbSpline
210
0.0
220
0.0
230
1.0
 70
     8
 71
     3
 72
    10
 73
     6
 74
     0
 42
0.000000001
 43
0.00000001
 40
0.0
 40
0.0
 40
0.0
 40
0.0
 40
0.442056763879226
 40
0.9472746825429034
 40
0.9999999999999999
 40
0.9999999999999999
 40
0.9999999999999999
 40
0.9999999999999999
 10
115.841537203187
 20
69.00587886889883
 30
0.0
 10
116.1116605805266
 20
68.99852773396464
 30
0.0
 10
116.6905026149098
 20
68.98277513253393
 30
0.0
 10
117.2797262001354
 20
68.96428303167417
 30
0.0
 10
117.5851076465432
 20
68.95277308724624
 30
0.0
 10
117.6139660189814
 20
68.95168540406526
 30
0.0
  0
LINE
  5
E4
330
1F
100
AcDbEntity
  8
0
  6
Continuous
 62
     7
370
    15
100
AcDbLine
 10
110.999362984
 20
69.0875179496
 30
0.0
 11
111.3375402009
 21
69.0844389191
 31
0.0
  0
LINE
  5
E5
330
1F
100
AcDbEntity
  8
0
  6
Continuous
 62
     7
370
    15
100
AcDbLine
 10
138.8917153617
 20
84.0138315766
 30
0.0
 11
138.8438030481
 21
84.0637452702
 31
0.0
  0
LINE
  5
E6
330
1F
100
AcDbEntity
  8
0
  6
Continuous
 62
     7
370
    15
100
AcDbLine
 10
138.8468511809
 20
69.0581960596
 30
0.0
 11
138.8939875615
 21
69.1088049227
 31
0.0
  0
LINE
  5
E7
330
1F
100
AcDbEntity
  8
0
  6
Continuous
 62
     7
370
    15
100
AcDbLine
 10
121.4838307889
 20
84.1869130246
 30
0.0
 11
121.4835040552
 21
84.1868438908
 31
0.0
  0
LINE
  5
E8
330
1F
100
AcDbEntity
  8
0
  6
Continuous
 62
     7
370
    15
100
AcDbLine
 10
121.5634632741
 20
84.2227161839
 30
0.0
 11
121.5582087011
 21
84.2187313723
 31
0.0
  0
LINE
  5
E9
330
1F
100
AcDbEntity
  8
0
  6
Continuous
 62
     7
370
    15
100
AcDbLine
 10
139.0876806596
 20
69.4831100242
 30
0.0
 11
139.1812407459
 21
69.4547658213
 31
0.0
  0
LINE
  5
EA
330
1F
100
AcDbEntity
  8
0
  6
Continuous
 62
     7
370
    15
100
AcDbLine
 10
139.1812407459
 20
83.670051964
 30
0.0
 11
139.0876127163
 21
83.6416871776
 31
0.0
  0
LINE
  5
EB
330
1F
100
AcDbEntity
  8
0
  6
Continuous
 62
     7
370
    15
100
AcDbLine
 10
121.5581813708
 20
68.9060981514
 30
0.0
 11
121.5634632741
 21
68.9021016015
 31
0.0
  0
LINE
  5
EC
330
1F
100
AcDbEntity
  8
0
  6
Continuous
 62
     7
370
    15
100
AcDbLine
 10
121.4944451103
 20
68.9356699364
 30
0.0
 11
121.4953876299
 21
68.9354714614
 31
0.0
  0
LINE
  5
ED
330
1F
100
AcDbEntity
  8
0
  6
Continuous
 62
     7
370
    15
100
AcDbLine
 10
121.4835040552
 20
68.9379738946
 30
0.0
 11
121.4838294259
 21
68.9379053783
 31
0.0
  0
SPLINE
  5
EE
330
1F
100
AcDbEntity
  8
0
  6
Continuous
 62
     7
370
    15
100
AcDbSpline
210
0.0
220
0.0
230
1.0
 70
     8
 71
     3
 72
    13
 73
     9
 74
     0
 42
0.000000001
 43
0.00000001
 40
0.0
 40
0.0
 40
0.0
 40
0.0
 40
0.023882021098991
 40
0.2032932713038626
 40
0.4220460225759282
 40
0.6736139277201976
 40
0.9463097912030961
 40
1.0
 40
1.0
 40
1.0
 40
1.0
 10
122.2894396846979
 20
84.32817975333575
 30
0.0
 10
122.2904172884972
 20
84.32853844437754
 30
0.0
 10
122.2987390412321
 20
84.33159176532435
 30
0.0
 10
122.256364485407
 20
84.31764239280233
 30
0.0
 10
122.1561281323279
 20
84.29200505759604
 30
0.0
 10
121.9605982929348
 20
84.25264345289341
 30
0.0
 10
121.7752362838099
 20
84.21968727759159
 30
0.0
 10
121.6313498294252
 20
84.20451880645217
 30
0.0
 10
121.6076806399742
 20
84.20202360689629
 30
0.0
  0
SPLINE
  5
EF
330
1F
100
AcDbEntity
  8
0
  6
Continuous
 62
     7
370
    15
100
AcDbSpline
210
0.0
220
0.0
230
1.0
 70
     8
 71
     3
 72
    11
 73
     7
 74
     0
 42
0.000000001
 43
0.00000001
 40
0.0
 40
0.0
 40
0.0
 40
0.0
 40
0.3088218519215737
 40
0.6642211160491363
 40
0.9622253930512837
 40
1.0
 40
1.0
 40
1.0
 40
1.0
 10
121.9504219017094
 20
68.87189654396153
 30
0.0
 10
122.0120805371673
 20
68.86054777691453
 30
0.0
 10
122.1446973432744
 20
68.83613858868242
 30
0.0
 10
122.2476131916647
 20
68.80966024442272
 30
0.0
 10
122.3003024025589
 20
68.79263243730578
 30
0.0
 10
122.2900475868882
 20
68.79642138330122
 30
0.0
 10
122.2888939359298
 20
68.79684763388626
 30
0.0
  0
SPLINE
  5
F0
330
1F
100
AcDbEntity
  8
0
  6
Continuous
 62
     7
370
    15
100
AcDbSpline
210
0.0
220
0.0
230
1.0
 70
     8
 71
     3
 72
    10
 73
     6
 74
     0
 42
0.000000001
 43
0.00000001
 40
0.0
 40
0.0
 40
0.0
 40
0.0
 40
0.5
 40
0.5
 40
1.0
 40
1.0
 40
1.0
 40
1.0
 10
106.257264071525
 20
83.21569572180513
 30
0.0
 10
105.3795540066134
 20
83.19440323093463
 30
0.0
 10
104.4814938904305
 20
83.17563493621603
 30
0.0
 10
102.6744757737541
 20
83.14372616242174
 30
0.0
 10
101.7645655601352
 20
83.13053261664064
 30
0.0
 10
100.8481660572891
 20
83.12012847486545
 30
0.0
  0
ARC
  5
F1
330
1F
100
AcDbEntity
  8
0
  6
Continuous
 62
     7
370
    15
100
AcDbCircle
 10
104.4660950117
 20
81.5952143316
 30
0.0
 40
2.415418501424862
100
AcDbArc
 50
351.0168726114
 51
42.1358333228
  0
SPLINE
  5
F2
330
1F
100
AcDbEntity
  8
0
  6
Continuous
 62
     7
370
    15
100
AcDbSpline
210
0.0
220
0.0
230
1.0
 70
     8
 71
     3
 72
    10
 73
     6
 74
     0
 42
0.000000001
 43
0.00000001
 40
0.0
 40
0.0
 40
0.0
 40
0.0
 40
0.5
 40
0.5
 40
1.0
 40
1.0
 40
1.0
 40
1.0
 10
100.8462048618134
 20
81.12252990986892
 30
0.0
 10
101.8636868611566
 20
81.13292771864567
 30
0.0
 10
102.8739604855164
 20
81.14611503692687
 30
0.0
 10
104.8802864653915
 20
81.17801173419858
 30
0.0
 10
105.8773979945428
 20
81.19677437189395
 30
0.0
 10
106.8518868713731
 20
81.21806218836046
 30
0.0
  0
ARC
  5
F3
330
1F
100
AcDbEntity
  8
0
  6
Continuous
 62
     7
370
    15
100
AcDbCircle
 10
143.8703039868
 20
82.0790901021
 30
0.0
 40
43.03473147257249
100
AcDbArc
 50
178.6138423078
 51
181.2736544192
  0
LINE
  5
F4
330
1F
100
AcDbEntity
  8
0
  6
Continuous
 62
     7
370
    15
100
AcDbLine
 10
100.8462048618
 20
72.0022878755
 30
0.0
 11
100.8462048618
 21
81.1225299099
 31
0.0
  0
LINE
  5
F5
330
1F
100
AcDbEntity
  8
0
  6
Continuous
 62
     7
370
    15
100
AcDbLine
 10
106.8518868714
 20
81.2180621884
 30
0.0
 11
106.8518868714
 21
71.906755597
 31
0.0
  0
SPLINE
  5
F6
330
1F
100
AcDbEntity
  8
0
  6
Continuous
 62
     7
370
    15
100
AcDbSpline
210
0.0
220
0.0
230
1.0
 70
     8
 71
     3
 72
    10
 73
     6
 74
     0
 42
0.000000001
 43
0.00000001
 40
0.0
 40
0.0
 40
0.0
 40
0.0
 40
0.5
 40
0.5
 40
1.0
 40
1.0
 40
1.0
 40
1.0
 10
106.8518868713732
 20
71.90675559702886
 30
0.0
 10
105.8774236927552
 20
71.92804285211511
 30
0.0
 10
104.8885267083778
 20
71.94665910256417
 30
0.0
 10
102.8822364682315
 20
71.97858699036838
 30
0.0
 10
101.8636602300443
 20
71.99189033889118
 30
0.0
 10
100.8462048618134
 20
72.00228787552041
 30
0.0
  0
ARC
  5
F7
330
1F
100
AcDbEntity
  8
0
  6
Continuous
 62
     7
370
    15
100
AcDbCircle
 10
143.8703040432
 20
71.0457276836
 30
0.0
 40
43.03473152892175
100
AcDbArc
 50
178.7263455828
 51
181.3861576908
  0
ARC
  5
F8
330
1F
100
AcDbEntity
  8
0
  6
Continuous
 62
     7
370
    15
100
AcDbCircle
 10
104.4660950117
 20
71.5296034538
 30
0.0
 40
2.415418501419865
100
AcDbArc
 50
317.8641666771
 51
8.9831273886
  0
SPLINE
  5
F9
330
1F
100
AcDbEntity
  8
0
  6
Continuous
 62
     7
370
    15
100
AcDbSpline
210
0.0
220
0.0
230
1.0
 70
     8
 71
     3
 72
    10
 73
     6
 74
     0
 42
0.000000001
 43
0.00000001
 40
0.0
 40
0.0
 40
0.0
 40
0.0
 40
0.5
 40
0.5
 40
1.0
 40
1.0
 40
1.0
 40
1.0
 10
100.8481660572891
 20
70.00468931052387
 30
0.0
 10
101.7645413920314
 20
69.99428544313598
 30
0.0
 10
102.6819209666948
 20
69.98097594835406
 30
0.0
 10
104.4889067737677
 20
69.94903602579029
 30
0.0
 10
105.3795779085219
 20
69.93041397461496
 30
0.0
 10
106.257264071525
 20
69.90912206358418
 30
0.0
  0
LINE
  5
FA
330
1F
100
AcDbEntity
  8
0
  6
Continuous
 62
     7
370
    15
100
AcDbLine
 10
20.830167378
 20
79.4513125904
 30
0.0
 11
20.830167378
 21
73.673505195
 31
0.0
  0
SPLINE
  5
FB
330
1F
100
AcDbEntity
  8
0
  6
Continuous
 62
     7
370
    15
100
AcDbSpline
210
0.0
220
0.0
230
1.0
 70
     8
 71
     3
 72
     8
 73
     4
 74
     0
 42
0.000000001
 43
0.00000001
 40
0.0
 40
0.0
 40
0.0
 40
0.0
 40
1.0
 40
1.0
 40
1.0
 40
1.0
 10
100.8462048618134
 20
81.12252990986892
 30
0.0
 10
74.16401403388642
 20
80.81979386713104
 30
0.0
 10
47.4944734590515
 20
80.16140756341782
 30
0.0
 10
20.830167378025
 20
79.45131259043542
 30
0.0
  0
SPLINE
  5
FC
330
1F
100
AcDbEntity
  8
0
  6
Continuous
 62
     7
370
    15
100
AcDbSpline
210
0.0
220
0.0
230
1.0
 70
     8
 71
     3
 72
     8
 73
     4
 74
     0
 42
0.000000001
 43
0.00000001
 40
0.0
 40
0.0
 40
0.0
 40
0.0
 40
1.0
 40
1.0
 40
1.0
 40
1.0
 10
20.83016737802525
 20
73.6735051949539
 30
0.0
 10
47.49447345905167
 20
72.96341022197149
 30
0.0
 10
74.1640140338865
 20
72.30502391825829
 30
0.0
 10
100.8462048618134
 20
72.00228787552041
 30
0.0
  0
ARC
  5
FD
330
1F
100
AcDbEntity
  8
0
  6
Continuous
 62
     7
370
    15
100
AcDbCircle
 10
39.0872615758
 20
80.4070284932
 30
0.0
 40
18.28209182320853
100
AcDbArc
 50
176.7340321191
 51
182.996564039
  0
SPLINE
  5
FE
330
1F
100
AcDbEntity
  8
0
  6
Continuous
 62
     7
370
    15
100
AcDbSpline
210
0.0
220
0.0
230
1.0
 70
     8
 71
     3
 72
     8
 73
     4
 74
     0
 42
0.000000001
 43
0.00000001
 40
0.0
 40
0.0
 40
0.0
 40
0.0
 40
1.0
 40
1.0
 40
1.0
 40
1.0
 10
20.83486294192511
 20
81.44857808079927
 30
0.0
 10
47.4982105722668
 20
82.1585755618465
 30
0.0
 10
74.166833397404
 20
82.817207787019
 30
0.0
 10
100.8481660573062
 20
83.12012847486565
 30
0.0
  0
ARC
  5
FF
330
1F
100
AcDbEntity
  8
0
  6
Continuous
 62
     7
370
    15
100
AcDbCircle
 10
39.0872615759
 20
72.7177892922
 30
0.0
 40
18.28209182329461
100
AcDbArc
 50
177.003435961
 51
183.2659678809
  0
SPLINE
  5
100
330
1F
100
AcDbEntity
  8
0
  6
Continuous
 62
     7
370
    15
100
AcDbSpline
210
0.0
220
0.0
230
1.0
 70
     8
 71
     3
 72
     8
 73
     4
 74
     0
 42
0.000000001
 43
0.00000001
 40
0.0
 40
0.0
 40
0.0
 40
0.0
 40
1.0
 40
1.0
 40
1.0
 40
1.0
 10
100.8481660573152
 20
70.00468931052357
 30
0.0
 10
74.16683339740996
 20
70.30760999837018
 30
0.0
 10
47.49821057226966
 20
70.96624222354275
 30
0.0
 10
20.83486294192493
 20
71.67623970459007
 30
0.0
  0
SPLINE
  5
101
330
1F
100
AcDbEntity
  8
0
  6
Continuous
 62
     7
370
    15
100
AcDbSpline
210
0.0
220
0.0
230
1.0
 70
     8
 71
     3
 72
    10
 73
     6
 74
     0
 42
0.000000001
 43
0.00000001
 40
0.0
 40
0.0
 40
0.0
 40
0.0
 40
0.5
 40
0.5
 40
1.0
 40
1.0
 40
1.0
 40
1.0
 10
138.2159189443479
 20
83.55262223875367
 30
0.0
 10
138.1742996627397
 20
83.58249600782476
 30
0.0
 10
138.1374942892041
 20
83.6062868824084
 30
0.0
 10
138.0830250381348
 20
83.6415064643707
 30
0.0
 10
138.0661921378615
 20
83.65265725634694
 30
0.0
 10
138.0629574672977
 20
83.65719880227942
 30
0.0
  0
SPLINE
  5
102
330
1F
100
AcDbEntity
  8
0
  6
Continuous
 62
     7
370
    15
100
AcDbSpline
210
0.0
220
0.0
230
1.0
 70
     8
 71
     3
 72
    18
 73
    14
 74
     0
 42
0.000000001
 43
0.00000001
 40
0.0
 40
0.0
 40
0.0
 40
0.0
 40
0.1250000000000034
 40
0.1250000000000034
 40
0.2500000000000067
 40
0.2500000000000067
 40
0.5000000000000071
 40
0.5000000000000071
 40
0.7500000000000074
 40
0.7500000000000074
 40
0.8750000000000038
 40
0.8750000000000038
 40
1.0
 40
1.0
 40
1.0
 40
1.0
 10
138.2159189443588
 20
83.55262223875877
 30
0.0
 10
138.1293554962974
 20
83.51239923424227
 30
0.0
 10
138.0351411822592
 20
83.46202940651638
 30
0.0
 10
137.8381917903412
 20
83.34834067911756
 30
0.0
 10
137.7349896766656
 20
83.28483223178345
 30
0.0
 10
137.4119150941421
 20
83.07872739697368
 30
0.0
 10
137.1761626396354
 20
82.91901910397155
 30
0.0
 10
136.683920867838
 20
82.58109727280753
 30
0.0
 10
136.4275859476672
 20
82.40293492920135
 30
0.0
 10
136.0271213147205
 20
82.12747173158304
 30
0.0
 10
135.8909550809135
 20
82.0342439791597
 30
0.0
 10
135.6129226203101
 20
81.84562022127317
 30
0.0
 10
135.4702843841385
 20
81.74971546217314
 30
0.0
 10
135.3274744732818
 20
81.65495464329517
 30
0.0
  0
SPLINE
  5
103
330
1F
100
AcDbEntity
  8
0
  6
Continuous
 62
     7
370
    15
100
AcDbSpline
210
0.0
220
0.0
230
1.0
 70
     8
 71
     3
 72
     8
 73
     4
 74
     0
 42
0.000000001
 43
0.00000001
 40
0.0
 40
0.0
 40
0.0
 40
0.0
 40
1.0
 40
1.0
 40
1.0
 40
1.0
 10
135.3274744732818
 20
81.65495464329517
 30
0.0
 10
125.8344829204316
 20
81.62414195063303
 30
0.0
 10
116.3424291900912
 20
81.44841989787035
 30
0.0
 10
106.8518868713731
 20
81.21806218836046
 30
0.0
  0
SPLINE
  5
104
330
1F
100
AcDbEntity
  8
0
  6
Continuous
 62
     7
370
    15
100
AcDbSpline
210
0.0
220
0.0
230
1.0
 70
     8
 71
     3
 72
     8
 73
     4
 74
     0
 42
0.000000001
 43
0.00000001
 40
0.0
 40
0.0
 40
0.0
 40
0.0
 40
1.0
 40
1.0
 40
1.0
 40
1.0
 10
106.257264071525
 20
83.21569572180513
 30
0.0
 10
116.8570141873329
 20
83.47283653811026
 30
0.0
 10
127.4591761559414
 20
83.66185470843936
 30
0.0
 10
138.0629574672978
 20
83.6571988022794
 30
0.0
  0
SPLINE
  5
105
330
1F
100
AcDbEntity
  8
0
  6
Continuous
 62
     7
370
    15
100
AcDbSpline
210
0.0
220
0.0
230
1.0
 70
     8
 71
     3
 72
    18
 73
    14
 74
     0
 42
0.000000001
 43
0.00000001
 40
0.0
 40
0.0
 40
0.0
 40
0.0
 40
0.125
 40
0.125
 40
0.2499999999999999
 40
0.2499999999999999
 40
0.5
 40
0.5
 40
0.75
 40
0.75
 40
0.875
 40
0.875
 40
1.0
 40
1.0
 40
1.0
 40
1.0
 10
138.2159189443588
 20
69.57219554663058
 30
0.0
 10
138.1293554962975
 20
69.61241855114703
 30
0.0
 10
138.0351411822593
 20
69.6627883788729
 30
0.0
 10
137.8381917903411
 20
69.77647710627177
 30
0.0
 10
137.7349896766655
 20
69.8399855536059
 30
0.0
 10
137.4119150941421
 20
70.04609038841569
 30
0.0
 10
137.1761626396355
 20
70.20579868141775
 30
0.0
 10
136.6839208678379
 20
70.54372051258191
 30
0.0
 10
136.427585947667
 20
70.72188285618807
 30
0.0
 10
136.0271213147204
 20
70.99734605380638
 30
0.0
 10
135.8909550809135
 20
71.09057380622966
 30
0.0
 10
135.6129226203102
 20
71.2791975641161
 30
0.0
 10
135.4702843841281
 20
71.37510232319939
 30
0.0
 10
135.327474473282
 20
71.46986314209417
 30
0.0
  0
SPLINE
  5
106
330
1F
100
AcDbEntity
  8
0
  6
Continuous
 62
     7
370
    15
100
AcDbSpline
210
0.0
220
0.0
230
1.0
 70
     8
 71
     3
 72
    10
 73
     6
 74
     0
 42
0.000000001
 43
0.00000001
 40
0.0
 40
0.0
 40
0.0
 40
0.0
 40
0.5
 40
0.5
 40
1.0
 40
1.0
 40
1.0
 40
1.0
 10
138.0629574673163
 20
69.46761898310993
 30
0.0
 10
138.0661992150698
 20
69.4721704655661
 30
0.0
 10
138.0825778906029
 20
69.48302152759507
 30
0.0
 10
138.1367028905025
 20
69.51801984398237
 30
0.0
 10
138.1741699984227
 20
69.5422287062224
 30
0.0
 10
138.2159189443534
 20
69.57219554662684
 30
0.0
  0
SPLINE
  5
107
330
1F
100
AcDbEntity
  8
0
  6
Continuous
 62
     7
370
    15
100
AcDbSpline
210
0.0
220
0.0
230
1.0
 70
     8
 71
     3
 72
     8
 73
     4
 74
     0
 42
0.000000001
 43
0.00000001
 40
0.0
 40
0.0
 40
0.0
 40
0.0
 40
1.0
 40
1.0
 40
1.0
 40
1.0
 10
138.0629574672977
 20
69.46761898310992
 30
0.0
 10
127.4591761559413
 20
69.46296307694996
 30
0.0
 10
116.8570141873329
 20
69.65198124727905
 30
0.0
 10
106.257264071525
 20
69.90912206358418
 30
0.0
  0
SPLINE
  5
108
330
1F
100
AcDbEntity
  8
0
  6
Continuous
 62
     7
370
    15
100
AcDbSpline
210
0.0
220
0.0
230
1.0
 70
     8
 71
     3
 72
     8
 73
     4
 74
     0
 42
0.000000001
 43
0.00000001
 40
0.0
 40
0.0
 40
0.0
 40
0.0
 40
1.0
 40
1.0
 40
1.0
 40
1.0
 10
106.8518868713748
 20
71.90675559702883
 30
0.0
 10
116.3424291900923
 20
71.67639788751895
 30
0.0
 10
125.8344829204321
 20
71.50067583475631
 30
0.0
 10
135.3274744732817
 20
71.46986314209417
 30
0.0
  0
LINE
  5
109
330
1F
100
AcDbEntity
  8
0
  6
Continuous
 62
     7
370
    15
100
AcDbLine
 10
135.3274744733
 20
71.4698631421
 30
0.0
 11
135.3274744733
 21
81.6549546433
 31
0.0
  0
LINE
  5
10A
330
1F
100
AcDbEntity
  8
0
  6
Continuous
 62
     7
370
    15
100
AcDbLine
 10
20.8337962721
 20
81.8143618254
 30
0.0
 11
20.8348629419
 21
81.4485780808
 31
0.0
  0
SPLINE
  5
10B
330
1F
100
AcDbEntity
  8
0
  6
Continuous
 62
     7
370
    15
100
AcDbSpline
210
0.0
220
0.0
230
1.0
 70
     8
 71
     3
 72
    22
 73
    18
 74
     0
 42
0.000000001
 43
0.00000001
 40
0.0
 40
0.0
 40
0.0
 40
0.0
 40
0.1250000000000001
 40
0.1250000000000001
 40
0.2500000000000002
 40
0.2500000000000002
 40
0.3750000000000002
 40
0.3750000000000002
 40
0.5000000000000003
 40
0.5000000000000003
 40
0.6250000000000003
 40
0.6250000000000003
 40
0.7500000000000002
 40
0.7500000000000002
 40
0.8750000000000001
 40
0.8750000000000001
 40
1.0
 40
1.0
 40
1.0
 40
1.0
 10
25.68389856544633
 20
82.17458031966567
 30
0.0
 10
25.36000636275758
 20
82.16491126240282
 30
0.0
 10
25.04240158385676
 20
82.15402876290277
 30
0.0
 10
24.41924064315518
 20
82.12995151552867
 30
0.0
 10
24.11067123704171
 20
82.11660593916838
 30
0.0
 10
23.52207745058698
 20
82.08822965792244
 30
0.0
 10
23.24363063596704
 20
82.07331137062268
 30
0.0
 10
22.71796878544255
 20
82.04204751940325
 30
0.0
 10
22.46912681272092
 20
82.0255513030998
 30
0.0
 10
22.02326501684586
 20
81.99241829690342
 30
0.0
 10
21.82374674852165
 20
81.97565931564353
 30
0.0
 10
21.47214130262869
 20
81.94175434080266
 30
0.0
 10
21.32163360243617
 20
81.92469844623837
 30
0.0
 10
21.08128387128669
 20
81.89163537246044
 30
0.0
 10
20.989473771598
 20
81.87544847295565
 30
0.0
 10
20.86493752743152
 20
81.84378549935508
 30
0.0
 10
20.83375449070995
 20
81.82868955963784
 30
0.0
 10
20.83379627209895
 20
81.81436182539274
 30
0.0
  0
SPLINE
  5
10C
330
1F
100
AcDbEntity
  8
0
  6
Continuous
 62
     7
370
    15
100
AcDbSpline
210
0.0
220
0.0
230
1.0
 70
     8
 71
     3
 72
     9
 73
     5
 74
     0
 42
0.000000001
 43
0.00000001
 40
0.0
 40
0.0
 40
0.0
 40
0.0
 40
0.8619125932662642
 40
0.9999999999999999
 40
0.9999999999999999
 40
0.9999999999999999
 40
0.9999999999999999
 10
111.0004300814264
 20
84.03469355407964
 30
0.0
 10
103.2578255714798
 20
83.95708006321554
 30
0.0
 10
94.27477488810874
 20
83.86703207984641
 30
0.0
 10
85.29522765989958
 20
83.67456522161034
 30
0.0
 10
84.0552652695131
 20
83.64798797227434
 30
0.0
  0
SPLINE
  5
10D
330
1F
100
AcDbEntity
  8
0
  6
Continuous
 62
     7
370
    15
100
AcDbSpline
210
0.0
220
0.0
230
1.0
 70
     8
 71
     3
 72
    11
 73
     7
 74
     0
 42
0.000000001
 43
0.00000001
 40
0.0
 40
0.0
 40
0.0
 40
0.0
 40
0.1639916667790359
 40
0.4063181935868813
 40
0.7222266893062717
 40
0.9999999999999999
 40
0.9999999999999999
 40
0.9999999999999999
 40
0.9999999999999999
 10
117.417203528423
 20
84.16393536232391
 30
0.0
 10
117.1167846099511
 20
84.15377691304029
 30
0.0
 10
116.3724439085586
 20
84.12860756850208
 30
0.0
 10
114.9292076265976
 20
84.09250861971299
 30
0.0
 10
113.1855345995609
 20
84.05797099725278
 30
0.0
 10
111.904394671471
 20
84.04457632800766
 30
0.0
 10
111.3049717559576
 20
84.03830919706029
 30
0.0
  0
SPLINE
  5
10E
330
1F
100
AcDbEntity
  8
0
  6
Continuous
 62
     7
370
    15
100
AcDbSpline
210
0.0
220
0.0
230
1.0
 70
     8
 71
     3
 72
     8
 73
     4
 74
     0
 42
0.000000001
 43
0.00000001
 40
0.8245836328126249
 40
0.8245836328126249
 40
0.8245836328126249
 40
0.8245836328126249
 40
0.8550117006680655
 40
0.8550117006680655
 40
0.8550117006680655
 40
0.8550117006680655
 10
117.8316933285175
 20
84.17742210173313
 30
0.0
 10
119.0489756275089
 20
84.18224311109212
 30
0.0
 10
120.2663000381815
 20
84.18544871905634
 30
0.0
 10
121.4836776200058
 20
84.18684408972926
 30
0.0
  0
LINE
  5
10F
330
1F
100
AcDbEntity
  8
0
  6
Continuous
 62
     7
370
    15
100
AcDbLine
 10
121.48367762
 20
84.1868440897
 30
0.0
 11
121.4336170078
 21
84.1866552006
 31
0.0
  0
SPLINE
  5
110
330
1F
100
AcDbEntity
  8
0
  6
Continuous
 62
     7
370
    15
100
AcDbSpline
210
0.0
220
0.0
230
1.0
 70
     8
 71
     3
 72
     8
 73
     4
 74
     0
 42
0.000000001
 43
0.00000001
 40
0.0
 40
0.0
 40
0.0
 40
0.0
 40
1.0
 40
1.0
 40
1.0
 40
1.0
 10
121.3907350454501
 20
84.18079217977797
 30
0.0
 10
126.7318613635905
 20
84.18700494244676
 30
0.0
 10
132.0727638563115
 20
84.16013073027881
 30
0.0
 10
137.4133369760546
 20
84.08456698386635
 30
0.0
  0
LINE
  5
111
330
1F
100
AcDbEntity
  8
0
  6
Continuous
 62
     7
370
    15
100
AcDbLine
 10
137.4133369761
 20
84.0845669839
 30
0.0
 11
137.4696071551
 21
84.0837690148
 31
0.0
  0
SPLINE
  5
112
330
1F
100
AcDbEntity
  8
0
  6
Continuous
 62
     7
370
    15
100
AcDbSpline
210
0.0
220
0.0
230
1.0
 70
     8
 71
     3
 72
    20
 73
    16
 74
     0
 42
0.000000001
 43
0.00000001
 40
0.0
 40
0.0
 40
0.0
 40
0.0
 40
0.4999999999999992
 40
0.4999999999999992
 40
0.7499999999999989
 40
0.7499999999999989
 40
0.8749999999999989
 40
0.8749999999999989
 40
0.9374999999999994
 40
0.9374999999999994
 40
0.9687499999999993
 40
0.9687499999999993
 40
0.9843749999999997
 40
0.9843749999999997
 40
1.0
 40
1.0
 40
1.0
 40
1.0
 10
138.0629574673055
 20
83.6571988022794
 30
0.0
 10
138.0127049574667
 20
83.7277543896689
 30
0.0
 10
137.956461688835
 20
83.79840040803002
 30
0.0
 10
137.844888771869
 20
83.9046615087233
 30
0.0
 10
137.8035320308577
 20
83.94012590133768
 30
0.0
 10
137.7229572564713
 20
83.99351456847724
 30
0.0
 10
137.6932404448744
 20
84.01134044935702
 30
0.0
 10
137.6362334482995
 20
84.03820695415156
 30
0.0
 10
137.6152880101016
 20
84.04718242504256
 30
0.0
 10
137.5758036856483
 20
84.06072811913413
 30
0.0
 10
137.5613536199183
 20
84.06525653130207
 30
0.0
 10
137.5347704206086
 20
84.07209923534171
 30
0.0
 10
137.5251039027994
 20
84.07438835651212
 30
0.0
 10
137.5021970652605
 20
84.07900303068726
 30
0.0
 10
137.4898931297614
 20
84.08131905052124
 30
0.0
 10
137.4701099347355
 20
84.08371124638917
 30
0.0
  0
SPLINE
  5
113
330
1F
100
AcDbEntity
  8
0
  6
Continuous
 62
     7
370
    15
100
AcDbSpline
210
0.0
220
0.0
230
1.0
 70
     8
 71
     3
 72
    20
 73
    16
 74
     0
 42
0.000000001
 43
0.00000001
 40
0.0
 40
0.0
 40
0.0
 40
0.0
 40
0.0156249999999999
 40
0.0156249999999999
 40
0.0312499999999998
 40
0.0312499999999998
 40
0.0624999999999995
 40
0.0624999999999995
 40
0.1249999999999997
 40
0.1249999999999997
 40
0.2499999999999999
 40
0.2499999999999999
 40
0.5
 40
0.5
 40
1.0
 40
1.0
 40
1.0
 40
1.0
 10
137.4701099068118
 20
69.04110653562316
 30
0.0
 10
137.489263511433
 20
69.0434226000547
 30
0.0
 10
137.5015820059082
 20
69.04570578468723
 30
0.0
 10
137.5243481428211
 20
69.05026311493543
 30
0.0
 10
137.5339989224793
 20
69.05253343089305
 30
0.0
 10
137.5605643417066
 20
69.05933284774252
 30
0.0
 10
137.5750521800168
 20
69.06385022642483
 30
0.0
 10
137.6146571546456
 20
69.07738363097732
 30
0.0
 10
137.6357068633799
 20
69.0863803925491
 30
0.0
 10
137.6928916230344
 20
69.11327812093438
 30
0.0
 10
137.722660802353
 20
69.13112095040437
 30
0.0
 10
137.8033708450581
 20
69.18455695360684
 30
0.0
 10
137.8447684241587
 20
69.22004927674791
 30
0.0
 10
137.9564366448855
 20
69.32637831643598
 30
0.0
 10
138.0126862665106
 20
69.39703715323407
 30
0.0
 10
138.0629574672977
 20
69.4676189831097
 30
0.0
  0
SPLINE
  5
114
330
1F
100
AcDbEntity
  8
0
  6
Continuous
 62
     7
370
    15
100
AcDbSpline
210
0.0
220
0.0
230
1.0
 70
     8
 71
     3
 72
     8
 73
     4
 74
     0
 42
0.000000001
 43
0.00000001
 40
0.0000003365901529
 40
0.0000003365901529
 40
0.0000003365901529
 40
0.0000003365901529
 40
0.0000566324764289
 40
0.0000566324764289
 40
0.0000566324764289
 40
0.0000566324764289
 10
137.4133445739451
 20
69.03914224684995
 30
0.0
 10
137.4321077356915
 20
69.03942522648795
 30
0.0
 10
137.4508688886635
 20
69.04006063826854
 30
0.0
 10
137.4696082005402
 20
69.04104780926795
 30
0.0
  0
SPLINE
  5
115
330
1F
100
AcDbEntity
  8
0
  6
Continuous
 62
     7
370
    15
100
AcDbSpline
210
0.0
220
0.0
230
1.0
 70
     8
 71
     3
 72
     8
 73
     4
 74
     0
 42
0.000000001
 43
0.00000001
 40
0.0
 40
0.0
 40
0.0
 40
0.0
 40
1.0
 40
1.0
 40
1.0
 40
1.0
 10
137.413336976224
 20
69.04025080152537
 30
0.0
 10
132.0727638564243
 20
68.9646870551111
 30
0.0
 10
126.7318613636471
 20
68.93781284294249
 30
0.0
 10
121.3907350454502
 20
68.94402560561137
 30
0.0
  0
LINE
  5
116
330
1F
100
AcDbEntity
  8
0
  6
Continuous
 62
     7
370
    15
100
AcDbLine
 10
121.4276704036
 20
68.9381850225
 30
0.0
 11
121.48367762
 21
68.9379736957
 31
0.0
  0
SPLINE
  5
117
330
1F
100
AcDbEntity
  8
0
  6
Continuous
 62
     7
370
    15
100
AcDbSpline
210
0.0
220
0.0
230
1.0
 70
     8
 71
     3
 72
     9
 73
     5
 74
     0
 42
0.000000001
 43
0.00000001
 40
0.0
 40
0.0
 40
0.0
 40
0.0
 40
0.5746158963339566
 40
1.0
 40
1.0
 40
1.0
 40
1.0
 10
117.8316933285176
 20
68.94739568365621
 30
0.0
 10
118.5133838910586
 20
68.94493769575351
 30
0.0
 10
119.6997251790217
 20
68.94066007670682
 30
0.0
 10
120.88607899206
 20
68.93889213515115
 30
0.0
 10
121.3907350454501
 20
68.93814008091715
 30
0.0
  0
LINE
  5
118
330
1F
100
AcDbEntity
  8
0
  6
Continuous
 62
     7
370
    15
100
AcDbLine
 10
121.403165667
 20
68.9381178277
 30
0.0
 11
121.48367762
 21
68.9379736957
 31
0.0
  0
SPLINE
  5
119
330
1F
100
AcDbEntity
  8
0
  6
Continuous
 62
     7
370
    15
100
AcDbSpline
210
0.0
220
0.0
230
1.0
 70
     8
 71
     3
 72
    10
 73
     6
 74
     0
 42
0.000000001
 43
0.00000001
 40
0.0
 40
0.0
 40
0.0
 40
0.0
 40
0.3620890418643353
 40
0.8110056159997974
 40
1.0
 40
1.0
 40
1.0
 40
1.0
 10
111.3463043413441
 20
69.08605247267023
 30
0.0
 10
111.9110441512797
 20
69.0800775260441
 30
0.0
 10
113.1759461628907
 20
69.06669486402218
 30
0.0
 10
114.7031675274834
 20
69.03807949905229
 30
0.0
 10
115.6106177845161
 20
69.01392429575793
 30
0.0
 10
115.8794687897409
 20
69.00676781457699
 30
0.0
  0
SPLINE
  5
11A
330
1F
100
AcDbEntity
  8
0
  6
Continuous
 62
     7
370
    15
100
AcDbSpline
210
0.0
220
0.0
230
1.0
 70
     8
 71
     3
 72
    11
 73
     7
 74
     0
 42
0.000000001
 43
0.00000001
 40
0.0
 40
0.0
 40
0.0
 40
0.0
 40
0.0691021225481549
 40
0.3859899421338105
 40
0.6929809664929436
 40
1.0
 40
1.0
 40
1.0
 40
1.0
 10
42.62040055285621
 20
70.46334913461392
 30
0.0
 10
44.19482758065437
 20
70.4176864859018
 30
0.0
 10
52.98924626048907
 20
70.16262452131758
 30
0.0
 10
68.78187172273218
 20
69.77202242526073
 30
0.0
 10
90.00044477874175
 20
69.32701269450884
 30
0.0
 10
104.0002221057166
 20
69.16908945369146
 30
0.0
 10
111.0004300814278
 20
69.09012423130967
 30
0.0
  0
SPLINE
  5
11B
330
1F
100
AcDbEntity
  8
0
  6
Continuous
 62
     7
370
    15
100
AcDbSpline
210
0.0
220
0.0
230
1.0
 70
     8
 71
     3
 72
    22
 73
    18
 74
     0
 42
0.000000001
 43
0.00000001
 40
0.0
 40
0.0
 40
0.0
 40
0.0
 40
0.125
 40
0.125
 40
0.25
 40
0.25
 40
0.375
 40
0.375
 40
0.5
 40
0.5
 40
0.625
 40
0.625
 40
0.75
 40
0.75
 40
0.875
 40
0.875
 40
1.0
 40
1.0
 40
1.0
 40
1.0
 10
20.83379627209895
 20
71.31045595999663
 30
0.0
 10
20.83375449007519
 20
71.29612800809406
 30
0.0
 10
20.86488505741503
 20
71.28114766667865
 30
0.0
 10
20.98688948427468
 20
71.24992649370076
 30
0.0
 10
21.07911576833025
 20
71.23351230916431
 30
0.0
 10
21.32067065872484
 20
71.2002205642038
 30
0.0
 10
21.4685215498197
 20
71.18345948158874
 30
0.0
 10
21.8175739014901
 20
71.14970802195799
 30
0.0
 10
22.02109779620245
 20
71.1325740695312
 30
0.0
 10
22.46668047698434
 20
71.09943488445344
 30
0.0
 10
22.70976877545437
 20
71.08328960831237
 30
0.0
 10
23.23706083375088
 20
71.05186638380523
 30
0.0
 10
23.52043043226316
 20
71.03668050900274
 30
0.0
 10
24.10471887488437
 20
71.00848600075277
 30
0.0
 10
24.40838501024146
 20
70.99530651926365
 30
0.0
 10
25.03971093792671
 20
70.97087260639559
 30
0.0
 10
25.36000382681219
 20
70.95990659869132
 30
0.0
 10
25.68389856544633
 20
70.95023746572367
 30
0.0
  0
LINE
  5
11C
330
1F
100
AcDbEntity
  8
0
  6
Continuous
 62
     7
370
    15
100
AcDbLine
 10
20.8348629419
 20
71.6762397046
 30
0.0
 11
20.8337962721
 21
71.31045596
 31
0.0
  0
LINE
  5
11D
330
1F
100
AcDbEntity
  8
0
  6
Continuous
 62
     7
370
    15
100
AcDbLine
 10
18.8907350455
 20
73.673505195
 30
0.0
 11
18.8907350455
 21
79.4513125904
 31
0.0
  0
LINE
  5
11E
330
1F
100
AcDbEntity
  8
0
  6
Continuous
 62
     7
370
    15
100
AcDbLine
 10
18.8907350455
 20
79.4513125904
 30
0.0
 11
20.830167378
 21
79.4513125904
 31
0.0
  0
LINE
  5
11F
330
1F
100
AcDbEntity
  8
0
  6
Continuous
 62
     7
370
    15
100
AcDbLine
 10
18.8907350455
 20
73.673505195
 30
0.0
 11
20.830167378
 21
73.673505195
 31
0.0
  0
ARC
  5
120
330
1F
100
AcDbEntity
  8
0
  6
Continuous
 62
     7
370
    15
100
AcDbCircle
 10
20.8896936719
 20
73.6744464175
 30
0.0
 40
1.998958848074152
100
AcDbArc
 50
180.0269780836
 51
268.4282000108
  0
ARC
  5
121
330
1F
100
AcDbEntity
  8
0
  6
Continuous
 62
     7
370
    15
100
AcDbCircle
 10
20.8896936719
 20
79.4503713679
 30
0.0
 40
1.99895884807406
100
AcDbArc
 50
91.5717999892
 51
179.9730219164
  0
LINE
  5
122
330
1F
100
AcDbEntity
  8
0
  6
Continuous
 62
     7
370
    15
100
AcDbLine
 10
18.8907350455
 20
73.3076913906
 30
0.0
 11
18.8907350455
 21
73.673505195
 31
0.0
  0
ARC
  5
123
330
1F
100
AcDbEntity
  8
0
  6
Continuous
 62
     7
370
    15
100
AcDbCircle
 10
20.8896924324
 20
73.3086319129
 30
0.0
 40
1.998957608238058
100
AcDbArc
 50
180.0269580301
 51
268.3976490693
  0
LINE
  5
124
330
1F
100
AcDbEntity
  8
0
  6
Continuous
 62
     7
370
    15
100
AcDbLine
 10
18.8907350455
 20
79.4513125904
 30
0.0
 11
18.8907350455
 21
79.8171263948
 31
0.0
  0
ARC
  5
125
330
1F
100
AcDbEntity
  8
0
  6
Continuous
 62
     7
370
    15
100
AcDbCircle
 10
20.8896924324
 20
79.8161858725
 30
0.0
 40
1.998957608238092
100
AcDbArc
 50
91.6023509307
 51
179.9730419699
  0
SPLINE
  5
126
330
1F
100
AcDbEntity
  8
0
  6
Continuous
 62
     7
370
    15
100
AcDbSpline
210
0.0
220
0.0
230
1.0
 70
     8
 71
     3
 72
    12
 73
     8
 74
     0
 42
0.000000001
 43
0.00000001
 40
0.0
 40
0.0
 40
0.0
 40
0.0
 40
0.4999999999999983
 40
0.4999999999999983
 40
0.7499999999999991
 40
0.7499999999999991
 40
1.0
 40
1.0
 40
1.0
 40
1.0
 10
138.2159189443479
 20
83.55262223875367
 30
0.0
 10
138.4483886825495
 20
83.41181192922159
 30
0.0
 10
138.6135845002273
 20
83.2272282300822
 30
0.0
 10
138.780825590392
 20
82.92099412428907
 30
0.0
 10
138.8221487237415
 20
82.81449487950566
 30
0.0
 10
138.877024271287
 20
82.59809659765381
 30
0.0
 10
138.8907350454501
 20
82.48679725264199
 30
0.0
 10
138.8907350454501
 20
82.3769827232486
 30
0.0
  0
LINE
  5
127
330
1F
100
AcDbEntity
  8
0
  6
Continuous
 62
     7
370
    15
100
AcDbLine
 10
138.8907350455
 20
82.3769827232
 30
0.0
 11
138.8907350455
 21
70.7478350621
 31
0.0
  0
SPLINE
  5
128
330
1F
100
AcDbEntity
  8
0
  6
Continuous
 62
     7
370
    15
100
AcDbSpline
210
0.0
220
0.0
230
1.0
 70
     8
 71
     3
 72
    12
 73
     8
 74
     0
 42
0.000000001
 43
0.00000001
 40
0.0
 40
0.0
 40
0.0
 40
0.0
 40
0.4999999999999983
 40
0.4999999999999983
 40
0.7499999999999991
 40
0.7499999999999991
 40
1.0
 40
1.0
 40
1.0
 40
1.0
 10
138.2159189443676
 20
69.57219554662649
 30
0.0
 10
138.4483886825639
 20
69.7130058561579
 30
0.0
 10
138.6135845002332
 20
69.89758955531555
 30
0.0
 10
138.7808255903942
 20
70.20382366110584
 30
0.0
 10
138.822148723743
 20
70.31032290588813
 30
0.0
 10
138.8770242712872
 20
70.52672118773792
 30
0.0
 10
138.8907350454501
 20
70.6380205323417
 30
0.0
 10
138.8907350454502
 20
70.74783506214072
 30
0.0
  0
SPLINE
  5
129
330
1F
100
AcDbEntity
  8
0
  6
Continuous
 62
     7
370
    15
100
AcDbSpline
210
0.0
220
0.0
230
1.0
 70
    24
 71
     3
 72
     8
 73
     4
 74
     0
 42
0.000000001
 43
0.00000001
 40
0.0
 40
0.0
 40
0.0
 40
0.0
 40
0.0067920090468176
 40
0.0067920090468176
 40
0.0067920090468176
 40
0.0067920090468176
 10
138.8907350454502
 20
70.74783506214072
 30
0.0
 10
138.8907350454502
 20
70.67792398755265
 30
0.0
 10
138.8907350454502
 20
70.6082945478243
 30
0.0
 10
138.8907350454502
 20
70.53966030669946
 30
0.0
  0
SPLINE
  5
12A
330
1F
100
AcDbEntity
  8
0
  6
Continuous
 62
     7
370
    15
100
AcDbSpline
210
0.0
220
0.0
230
1.0
 70
     8
 71
     3
 72
    14
 73
    10
 74
     0
 42
0.000000001
 43
0.00000001
 40
0.0
 40
0.0
 40
0.0
 40
0.0
 40
0.25
 40
0.25
 40
0.5
 40
0.5
 40
0.75
 40
0.75
 40
1.0
 40
1.0
 40
1.0
 40
1.0
 10
137.4696001380812
 20
69.04106976810903
 30
0.0
 10
137.6589670255995
 20
69.0511202309033
 30
0.0
 10
137.8463788336821
 20
69.09751280158906
 30
0.0
 10
138.1908768975055
 20
69.25646340359756
 30
0.0
 10
138.3478448335558
 20
69.36896715914213
 30
0.0
 10
138.6090839206774
 20
69.64419155619755
 30
0.0
 10
138.7132652054053
 20
69.80681793882592
 30
0.0
 10
138.8540496440544
 20
70.15918666560069
 30
0.0
 10
138.8906042011647
 20
70.34880814921334
 30
0.0
 10
138.8907350474094
 20
70.53850289180434
 30
0.0
  0
SPLINE
  5
12B
330
1F
100
AcDbEntity
  8
0
  6
Continuous
 62
     7
370
    15
100
AcDbSpline
210
0.0
220
0.0
230
1.0
 70
     8
 71
     3
 72
    14
 73
    10
 74
     0
 42
0.000000001
 43
0.00000001
 40
0.0
 40
0.0
 40
0.0
 40
0.0
 40
0.25
 40
0.25
 40
0.5
 40
0.5
 40
0.75
 40
0.75
 40
1.0
 40
1.0
 40
1.0
 40
1.0
 10
138.8907350454501
 20
82.58631488940856
 30
0.0
 10
138.8906041994437
 20
82.77600963211785
 30
0.0
 10
138.8540496425256
 20
82.96563111589455
 30
0.0
 10
138.7132652041473
 20
83.31799984303298
 30
0.0
 10
138.6090839194984
 20
83.48062622586055
 30
0.0
 10
138.3478448324283
 20
83.75585062329284
 30
0.0
 10
138.190876896351
 20
83.86835437901472
 30
0.0
 10
137.8463788323984
 20
84.02730498131113
 30
0.0
 10
137.6589670242142
 20
84.07369755210723
 30
0.0
 10
137.4696001365806
 20
84.08374801496642
 30
0.0
  0
SPLINE
  5
12C
330
1F
100
AcDbEntity
  8
0
  6
Continuous
 62
     7
370
    15
100
AcDbSpline
210
0.0
220
0.0
230
1.0
 70
    24
 71
     3
 72
     8
 73
     4
 74
     0
 42
0.000000001
 43
0.00000001
 40
0.0
 40
0.0
 40
0.0
 40
0.0
 40
0.0067920090468176
 40
0.0067920090468176
 40
0.0067920090468176
 40
0.0067920090468176
 10
138.8907350454502
 20
82.58515747868987
 30
0.0
 10
138.8907350454502
 20
82.51652323756502
 30
0.0
 10
138.8907350454502
 20
82.4468937978367
 30
0.0
 10
138.8907350454502
 20
82.37698272324862
 30
0.0
  0
LINE
  5
12D
330
1F
100
AcDbEntity
  8
0
  6
Continuous
 62
     7
370
    15
100
AcDbLine
 10
25.6810392977
 20
70.9483449734
 30
0.0
 11
25.6838985654
 21
70.9502374657
 31
0.0
  0
LINE
  5
12E
330
1F
100
AcDbEntity
  8
0
  6
Continuous
 62
     7
370
    15
100
AcDbLine
 10
25.6806868874
 20
82.1764007373
 30
0.0
 11
25.6838985654
 21
82.1745803197
 31
0.0
  0
LINE
  5
12F
330
1F
100
AcDbEntity
  8
0
  6
Continuous
 62
     7
370
    15
100
AcDbLine
 10
110.9994257126
 20
84.036831157
 30
0.0
 11
111.0004300814
 21
84.0346935541
 31
0.0
  0
LINE
  5
130
330
1F
100
AcDbEntity
  8
0
  6
Continuous
 62
     7
370
    15
100
AcDbLine
 10
110.9994431837
 20
69.0879637586
 30
0.0
 11
111.0004300814
 21
69.0901242313
 31
0.0
  0
SPLINE
  5
131
330
1F
100
AcDbEntity
  8
0
  6
Continuous
 62
     7
370
    15
100
AcDbSpline
210
0.0
220
0.0
230
1.0
 70
     8
 71
     3
 72
     8
 73
     4
 74
     0
 42
0.000000001
 43
0.00000001
 40
0.0
 40
0.0
 40
0.0
 40
0.0
 40
0.0002292068399381
 40
0.0002292068399381
 40
0.0002292068399381
 40
0.0002292068399381
 10
117.602541633463
 20
84.17248068798187
 30
0.0
 10
117.6788859857497
 20
84.17543856182368
 30
0.0
 10
117.755292246904
 20
84.17711951758334
 30
0.0
 10
117.8316933285175
 20
84.17742210173313
 30
0.0
  0
SPLINE
  5
132
330
1F
100
AcDbEntity
  8
0
  6
Continuous
 62
     7
370
    15
100
AcDbSpline
210
0.0
220
0.0
230
1.0
 70
     8
 71
     3
 72
     8
 73
     4
 74
     0
 42
0.000000001
 43
0.00000001
 40
0.0
 40
0.0
 40
0.0
 40
0.0
 40
0.0002292068399089
 40
0.0002292068399089
 40
0.0002292068399089
 40
0.0002292068399089
 10
117.8316933285176
 20
68.94739568365621
 30
0.0
 10
117.7552922469035
 20
68.947698267806
 30
0.0
 10
117.6788859857486
 20
68.94937922356671
 30
0.0
 10
117.6025416334612
 20
68.95233709740856
 30
0.0
  0
LINE
  5
133
330
1F
100
AcDbEntity
  8
0
  6
Continuous
 62
     7
370
    15
100
AcDbLine
 10
138.810329027
 20
84.0954360057
 30
0.0
 11
138.8468316387
 21
84.066708971
 31
0.0
  0
SPLINE
  5
134
330
1F
100
AcDbEntity
  8
0
  6
Continuous
 62
     7
370
    15
100
AcDbSpline
210
0.0
220
0.0
230
1.0
 70
     8
 71
     3
 72
     9
 73
     5
 74
     0
 42
0.000000001
 43
0.00000001
 40
0.0
 40
0.0
 40
0.0
 40
0.0
 40
0.030436135643942
 40
1.0
 40
1.0
 40
1.0
 40
1.0
 10
138.8723303170424
 20
84.04634128236175
 30
0.0
 10
138.8725771116883
 20
84.04606607968135
 30
0.0
 10
138.8806857181447
 20
84.03702410787402
 30
0.0
 10
138.8864183943791
 20
84.02538056761546
 30
0.0
 10
138.8919765901022
 20
84.01409141172756
 30
0.0
  0
LINE
  5
135
330
1F
100
AcDbEntity
  8
0
  6
Continuous
 62
     7
370
    15
100
AcDbLine
 10
139.0542478977
 20
83.6775544645
 30
0.0
 11
139.0717729488
 21
83.5870187906
 31
0.0
  0
LINE
  5
136
330
1F
100
AcDbEntity
  8
0
  6
Continuous
 62
     7
370
    15
100
AcDbLine
 10
139.0721708231
 20
69.5377732526
 30
0.0
 11
139.0547988387
 21
69.4467999651
 31
0.0
  0
LINE
  5
137
330
1F
100
AcDbEntity
  8
0
  6
Continuous
 62
     7
370
    15
100
AcDbLine
 10
138.8467864569
 20
69.0582576815
 30
0.0
 11
138.8101424225
 21
69.0296914211
 31
0.0
  0
ARC
  5
138
330
1F
100
AcDbEntity
  8
0
  6
Continuous
 62
     7
370
    15
100
AcDbCircle
 10
130.1407350455
 20
76.5624088927
 30
0.0
 40
11.49999999999999
100
AcDbArc
 50
40.6001895801
 51
138.2326735598
  0
SPLINE
  5
139
330
1F
100
AcDbEntity
  8
0
  6
Continuous
 62
     7
370
    15
100
AcDbSpline
210
0.0
220
0.0
230
1.0
 70
     8
 71
     3
 72
     8
 73
     4
 74
     0
 42
0.000000001
 43
0.00000001
 40
0.0689044836022219
 40
0.0689044836022219
 40
0.0689044836022219
 40
0.0689044836022219
 40
0.2023653647821435
 40
0.2023653647821435
 40
0.2023653647821435
 40
0.2023653647821435
 10
137.4133445716833
 20
84.08567557630447
 30
0.0
 10
132.0708351080986
 20
84.16505178397968
 30
0.0
 10
126.7302763315617
 20
84.1932578641836
 30
0.0
 10
121.3907350454501
 20
84.18673404391461
 30
0.0
  0
LINE
  5
13A
330
1F
100
AcDbEntity
  8
0
  6
Continuous
 62
     7
370
    15
100
AcDbLine
 10
121.3907350455
 20
84.1867340439
 30
0.0
 11
121.3910111954
 21
84.18649444
 31
0.0
  0
LINE
  5
13B
330
1F
100
AcDbEntity
  8
0
  6
Continuous
 62
     7
370
    15
100
AcDbLine
 10
121.3907350455
 20
84.1867340439
 30
0.0
 11
121.3907350455
 21
84.1807921798
 31
0.0
  0
ARC
  5
13C
330
1F
100
AcDbEntity
  8
0
  6
Continuous
 62
     7
370
    15
100
AcDbCircle
 10
130.1407350455
 20
76.5624088927
 30
0.0
 40
11.49999999999999
100
AcDbArc
 50
319.3998104199
 51
40.6001895801
  0
SPLINE
  5
13D
330
1F
100
AcDbEntity
  8
0
  6
Continuous
 62
     7
370
    15
100
AcDbSpline
210
0.0
220
0.0
230
1.0
 70
    11
 71
     3
 72
    68
 73
    64
 74
     0
 42
0.000000001
 43
0.00000001
 40
0.0
 40
0.0
 40
0.0
 40
0.0
 40
0.03125
 40
0.03125
 40
0.0624999999999999
 40
0.0624999999999999
 40
0.0937499999999999
 40
0.0937499999999999
 40
0.1249999999999998
 40
0.1249999999999998
 40
0.1562499999999998
 40
0.1562499999999998
 40
0.1874999999999998
 40
0.1874999999999998
 40
0.2187499999999997
 40
0.2187499999999997
 40
0.2499999999999997
 40
0.2499999999999997
 40
0.2812499999999996
 40
0.2812499999999996
 40
0.3124999999999996
 40
0.3124999999999996
 40
0.3437499999999996
 40
0.3437499999999996
 40
0.3749999999999995
 40
0.3749999999999995
 40
0.4062499999999994
 40
0.4062499999999994
 40
0.4374999999999994
 40
0.4374999999999994
 40
0.4687499999999994
 40
0.4687499999999994
 40
0.4999999999999993
 40
0.4999999999999993
 40
0.5312499999999993
 40
0.5312499999999993
 40
0.5624999999999992
 40
0.5624999999999992
 40
0.5937499999999992
 40
0.5937499999999992
 40
0.6249999999999991
 40
0.6249999999999991
 40
0.6562499999999991
 40
0.6562499999999991
 40
0.6874999999999991
 40
0.6874999999999991
 40
0.718749999999999
 40
0.718749999999999
 40
0.749999999999999
 40
0.749999999999999
 40
0.781249999999999
 40
0.781249999999999
 40
0.8124999999999989
 40
0.8124999999999989
 40
0.8437499999999989
 40
0.8437499999999989
 40
0.8749999999999989
 40
0.8749999999999989
 40
0.9374999999999997
 40
0.9374999999999997
 40
0.9687499999999998
 40
0.9687499999999998
 40
1.0
 40
1.0
 40
1.0
 40
1.0
 10
140.8037785237109
 20
76.56240889269466
 30
0.0
 10
140.8037785237109
 20
76.39666888780431
 30
0.0
 10
140.8023827355749
 20
76.23372217134171
 30
0.0
 10
140.7972020778989
 20
75.9131808013752
 30
0.0
 10
140.7933560874348
 20
75.75391106282892
 30
0.0
 10
140.7841536259793
 20
75.45044691240078
 30
0.0
 10
140.7788374828785
 20
75.30654901972109
 30
0.0
 10
140.7678849152354
 20
75.03426607536143
 30
0.0
 10
140.7622243371184
 20
74.90548695634604
 30
0.0
 10
140.7524493183749
 20
74.67479005616457
 30
0.0
 10
140.7482658967717
 20
74.57130204945649
 30
0.0
 10
140.7428992418433
 20
74.38867332178806
 30
0.0
 10
140.7418050767848
 20
74.31134903088153
 30
0.0
 10
140.7441876985309
 20
74.187385251734
 30
0.0
 10
140.7476923733212
 20
74.13982565720163
 30
0.0
 10
140.7604071739482
 20
74.07690550883879
 30
0.0
 10
140.7694803762632
 20
74.0617481751239
 30
0.0
 10
140.7934781407224
 20
74.06311331349892
 30
0.0
 10
140.8086138805649
 20
74.08017209744908
 30
0.0
 10
140.8435578675737
 20
74.14522436658042
 30
0.0
 10
140.8634010049616
 20
74.19292314243282
 30
0.0
 10
140.9070530602533
 20
74.31880011304752
 30
0.0
 10
140.9307280727296
 20
74.39684049201934
 30
0.0
 10
140.9787300737539
 20
74.57712481798224
 30
0.0
 10
141.0033485320988
 20
74.68029652506692
 30
0.0
 10
141.0516824062479
 20
74.91195441891354
 30
0.0
 10
141.0747427056323
 20
75.03729832484807
 30
0.0
 10
141.1169692672207
 20
75.3066341537747
 30
0.0
 10
141.1363140475859
 20
75.45242113084817
 30
0.0
 10
141.1681383313866
 20
75.75449814775276
 30
0.0
 10
141.1806548146506
 20
75.91022020567293
 30
0.0
 10
141.1977852158835
 20
76.2311244272163
 30
0.0
 10
141.2023046962384
 20
76.39740783575523
 30
0.0
 10
141.2023535945829
 20
76.72465435553096
 30
0.0
 10
141.1980332868453
 20
76.88736977738081
 30
0.0
 10
141.1809364704596
 20
77.21094688142739
 30
0.0
 10
141.1682861999822
 20
77.36850948914457
 30
0.0
 10
141.1366872711078
 20
77.66925394019341
 30
0.0
 10
141.1174570654055
 20
77.8148268046243
 30
0.0
 10
141.0749531966086
 20
78.0864183571749
 30
0.0
 10
141.0519019671776
 20
78.21162698526373
 30
0.0
 10
141.0040207152964
 20
78.44148023481593
 30
0.0
 10
140.9790218263133
 20
78.54652113054776
 30
0.0
 10
140.9309395300497
 20
78.72725839918638
 30
0.0
 10
140.9076270664746
 20
78.80420387126723
 30
0.0
 10
140.8638844845982
 20
78.93065524240853
 30
0.0
 10
140.8437369788469
 20
78.97916710041761
 30
0.0
 10
140.8088797117544
 20
79.04424251575406
 30
0.0
 10
140.7939107545639
 20
79.06144511408257
 30
0.0
 10
140.7695712581827
 20
79.06329418463571
 30
0.0
 10
140.7605073801869
 20
79.0480275380278
 30
0.0
 10
140.7478354348584
 20
78.98607343873088
 30
0.0
 10
140.7442352055614
 20
78.93855065291953
 30
0.0
 10
140.7417938455745
 20
78.81421785657957
 30
0.0
 10
140.7428702561203
 20
78.73782011080209
 30
0.0
 10
140.7481563196215
 20
78.5565731483456
 30
0.0
 10
140.7523995587783
 20
78.45124156001425
 30
0.0
 10
140.7670397041337
 20
78.10560673160487
 30
0.0
 10
140.7795291917608
 20
77.82629006966228
 30
0.0
 10
140.7932714360136
 20
77.37398421639095
 30
0.0
 10
140.7971306563556
 20
77.21533368975112
 30
0.0
 10
140.8023815589585
 20
76.89188081288289
 30
0.0
 10
140.803778523711
 20
76.72814889758503
 30
0.0
 10
140.8037785237109
 20
76.56240889269466
 30
0.0
  0
LINE
  5
13E
330
1F
100
AcDbEntity
  8
0
  6
Continuous
 62
     7
370
    15
100
AcDbLine
 10
121.3910111954
 20
68.9383233454
 30
0.0
 11
121.3907350455
 21
68.9380837415
 31
0.0
  0
SPLINE
  5
13F
330
1F
100
AcDbEntity
  8
0
  6
Continuous
 62
     7
370
    15
100
AcDbSpline
210
0.0
220
0.0
230
1.0
 70
     8
 71
     3
 72
     8
 73
     4
 74
     0
 42
0.000000001
 43
0.00000001
 40
0.8542373405064144
 40
0.8542373405064144
 40
0.8542373405064144
 40
0.8542373405064144
 40
0.9876982216877448
 40
0.9876982216877448
 40
0.9876982216877448
 40
0.9876982216877448
 10
121.3907350454503
 20
68.93808374147471
 30
0.0
 10
126.7302763316182
 20
68.93155992120566
 30
0.0
 10
132.0708351082115
 20
68.95976600141024
 30
0.0
 10
137.4133445718525
 20
69.03914220908739
 30
0.0
  0
ARC
  5
140
330
1F
100
AcDbEntity
  8
0
  6
Continuous
 62
     7
370
    15
100
AcDbCircle
 10
130.1407350455
 20
76.5624088927
 30
0.0
 40
11.50000000000001
100
AcDbArc
 50
221.7659492492
 51
319.3998104199
  0
LINE
  5
141
330
1F
100
AcDbEntity
  8
0
  6
Continuous
 62
     7
370
    15
100
AcDbLine
 10
121.3907350455
 20
68.9440256056
 30
0.0
 11
121.3907350455
 21
68.9380837415
 31
0.0
  0
SPLINE
  5
142
330
1F
100
AcDbEntity
  8
0
  6
Continuous
 62
     8
370
    15
100
AcDbSpline
210
0.0
220
0.0
230
1.0
 70
     8
 71
     3
 72
    10
 73
     6
 74
     0
 42
0.000000001
 43
0.00000001
 40
0.0
 40
0.0
 40
0.0
 40
0.0
 40
0.3340371101744035
 40
0.6670151605968925
 40
1.0
 40
1.0
 40
1.0
 40
1.0
 10
84.0552652695131
 20
83.64798797227434
 30
0.0
 10
77.5541558206621
 20
83.51951650835186
 30
0.0
 10
64.57254859498804
 20
83.26298089739645
 30
0.0
 10
45.11638929694535
 20
82.7447702258475
 30
0.0
 10
32.16143949786997
 20
82.36464491342156
 30
0.0
 10
25.68389856544632
 20
82.17458031966567
 30
0.0
  0
LINE
  5
143
330
1F
100
AcDbEntity
  8
0
  6
Continuous
 62
     8
370
    15
100
AcDbLine
 10
117.8316933285
 20
84.1774221017
 30
0.0
 11
117.4172035284
 21
84.1639353623
 31
0.0
  0
LINE
  5
144
330
1F
100
AcDbEntity
  8
0
  6
Continuous
 62
     8
370
    15
100
AcDbLine
 10
111.304971756
 20
84.0383091971
 30
0.0
 11
111.0004300814
 21
84.0346935541
 31
0.0
  0
LINE
  5
145
330
1F
100
AcDbEntity
  8
0
  6
Continuous
 62
     8
370
    15
100
AcDbLine
 10
111.0004300814
 20
69.0901242313
 30
0.0
 11
111.3463043413
 21
69.0860524727
 31
0.0
  0
SPLINE
  5
146
330
1F
100
AcDbEntity
  8
0
  6
Continuous
 62
     8
370
    15
100
AcDbSpline
210
0.0
220
0.0
230
1.0
 70
     8
 71
     3
 72
     9
 73
     5
 74
     0
 42
0.000000001
 43
0.00000001
 40
0.0
 40
0.0
 40
0.0
 40
0.0
 40
0.2955020930045152
 40
1.0
 40
1.0
 40
1.0
 40
1.0
 10
115.879468789741
 20
69.00676781457699
 30
0.0
 10
116.0824484127226
 20
69.00171960846161
 30
0.0
 10
116.7693458249128
 20
68.98463612162726
 30
0.0
 10
117.3926070792944
 20
68.96278778856788
 30
0.0
 10
117.8316933285175
 20
68.9473956836562
 30
0.0
  0
LINE
  5
147
330
1F
100
AcDbEntity
  8
0
  6
Continuous
 62
     8
370
    15
100
AcDbLine
 10
25.6838985654
 20
70.9502374657
 30
0.0
 11
42.6204005529
 21
70.4633491346
 31
0.0
  0
SPLINE
  5
148
330
1F
100
AcDbEntity
  8
0
  6
Continuous
 62
     8
370
    15
100
AcDbSpline
210
0.0
220
0.0
230
1.0
 70
     8
 71
     3
 72
    11
 73
     7
 74
     0
 42
0.000000001
 43
0.00000001
 40
0.0
 40
0.0
 40
0.0
 40
0.0
 40
0.2405927208418543
 40
0.533202850142062
 40
0.7995704953921902
 40
1.0
 40
1.0
 40
1.0
 40
1.0
 10
137.4136811896058
 20
84.08567057494398
 30
0.0
 10
137.5544558416139
 20
84.15194564518978
 30
0.0
 10
137.8664413639351
 20
84.29882480356486
 30
0.0
 10
138.2776483748825
 20
84.3489419604484
 30
0.0
 10
138.6194935728259
 20
84.27412162172679
 30
0.0
 10
138.7530035960019
 20
84.14911172333109
 30
0.0
 10
138.8103290270023
 20
84.09543600570053
 30
0.0
  0
SPLINE
  5
149
330
1F
100
AcDbEntity
  8
0
  6
Continuous
 62
     8
370
    15
100
AcDbSpline
210
0.0
220
0.0
230
1.0
 70
     8
 71
     3
 72
     9
 73
     5
 74
     0
 42
0.000000001
 43
0.00000001
 40
0.0
 40
0.0
 40
0.0
 40
0.0
 40
0.984416295875246
 40
1.0
 40
1.0
 40
1.0
 40
1.0
 10
138.8919765901022
 20
84.01409141172756
 30
0.0
 10
138.9535698309227
 20
83.94547721351312
 30
0.0
 10
139.0161381174073
 20
83.87577682506776
 30
0.0
 10
139.0357878882638
 20
83.77294083085818
 30
0.0
 10
139.0360941044789
 20
83.77133826515104
 30
0.0
  0
SPLINE
  5
14A
330
1F
100
AcDbEntity
  8
0
  6
Continuous
 62
     8
370
    15
100
AcDbSpline
210
0.0
220
0.0
230
1.0
 70
     8
 71
     3
 72
    10
 73
     6
 74
     0
 42
0.000000001
 43
0.00000001
 40
0.0
 40
0.0
 40
0.0
 40
0.0
 40
0.1831628482578651
 40
0.6312258045273716
 40
0.9999999999999999
 40
0.9999999999999999
 40
0.9999999999999999
 40
0.9999999999999999
 10
139.0717729488293
 20
83.58701879055526
 30
0.0
 10
139.0838326665465
 20
83.53674674020074
 30
0.0
 10
139.125393523952
 20
83.36349645646638
 30
0.0
 10
139.0717882984217
 20
83.02709658979565
 30
0.0
 10
138.9470501000076
 20
82.72341623996596
 30
0.0
 10
138.8907350454501
 20
82.58631488940858
 30
0.0
  0
SPLINE
  5
14B
330
1F
100
AcDbEntity
  8
0
  6
Continuous
 62
     8
370
    15
100
AcDbSpline
210
0.0
220
0.0
230
1.0
 70
     8
 71
     3
 72
    10
 73
     6
 74
     0
 42
0.000000001
 43
0.00000001
 40
0.0
 40
0.0
 40
0.0
 40
0.0
 40
0.3688021250285182
 40
0.8168990158832893
 40
0.9999999999999999
 40
0.9999999999999999
 40
0.9999999999999999
 40
0.9999999999999999
 10
138.8907350454502
 20
70.5385028959808
 30
0.0
 10
138.9470727648868
 20
70.40139637592272
 30
0.0
 10
139.0718611661502
 20
70.0977045756166
 30
0.0
 10
139.1251154152897
 20
69.7614093109122
 30
0.0
 10
139.0840757973346
 20
69.58805943670163
 30
0.0
 10
139.072170823105
 20
69.53777325256974
 30
0.0
  0
SPLINE
  5
14C
330
1F
100
AcDbEntity
  8
0
  6
Continuous
 62
     8
370
    15
100
AcDbSpline
210
0.0
220
0.0
230
1.0
 70
     8
 71
     3
 72
     9
 73
     5
 74
     0
 42
0.000000001
 43
0.00000001
 40
0.0
 40
0.0
 40
0.0
 40
0.0
 40
0.0144724710349612
 40
1.0
 40
1.0
 40
1.0
 40
1.0
 10
139.0368814865192
 20
69.35297070545283
 30
0.0
 10
139.0366008888226
 20
69.35148299456081
 30
0.0
 10
139.0172125137497
 20
69.2486870802738
 30
0.0
 10
138.9541766876773
 20
69.17917391299919
 30
0.0
 10
138.892053145772
 20
69.11066677302452
 30
0.0
  0
SPLINE
  5
14D
330
1F
100
AcDbEntity
  8
0
  6
Continuous
 62
     8
370
    15
100
AcDbSpline
210
0.0
220
0.0
230
1.0
 70
     8
 71
     3
 72
     9
 73
     5
 74
     0
 42
0.000000001
 43
0.00000001
 40
0.0
 40
0.0
 40
0.0
 40
0.0
 40
0.9532778948406966
 40
0.9999999999999999
 40
0.9999999999999999
 40
0.9999999999999999
 40
0.9999999999999999
 10
138.8852423254748
 20
69.09941543522591
 30
0.0
 10
138.8816431374486
 20
69.09220072240927
 30
0.0
 10
138.877867545834
 20
69.08463240171739
 30
0.0
 10
138.8725774800521
 20
69.07875128135181
 30
0.0
 10
138.8723303170424
 20
69.07847650302763
 30
0.0
  0
SPLINE
  5
14E
330
1F
100
AcDbEntity
  8
0
  6
Continuous
 62
     8
370
    15
100
AcDbSpline
210
0.0
220
0.0
230
1.0
 70
     8
 71
     3
 72
    11
 73
     7
 74
     0
 42
0.000000001
 43
0.00000001
 40
0.0
 40
0.0
 40
0.0
 40
0.0
 40
0.200388447311137
 40
0.4667945923569788
 40
0.7594061251580982
 40
1.0
 40
1.0
 40
1.0
 40
1.0
 10
138.8101424225088
 20
69.02969142113174
 30
0.0
 10
138.7525454798446
 20
68.97651069643145
 30
0.0
 10
138.6183763611515
 20
68.85262893058704
 30
0.0
 10
138.2780434816125
 20
68.77523275654119
 30
0.0
 10
137.8663636379043
 20
68.82612544612998
 30
0.0
 10
137.5544316746144
 20
68.97291332672073
 30
0.0
 10
137.4136811896058
 20
69.03914721044534
 30
0.0
  0
SPLINE
  5
14F
330
1F
100
AcDbEntity
  8
0
  6
Continuous
 62
     8
370
    15
100
AcDbSpline
210
0.0
220
0.0
230
1.0
 70
     8
 71
     3
 72
    10
 73
     6
 74
     0
 42
0.000000001
 43
0.00000001
 40
0.0
 40
0.0
 40
0.0
 40
0.0
 40
0.2334753990584646
 40
0.5851718897761053
 40
1.0
 40
1.0
 40
1.0
 40
1.0
 10
121.5699910092166
 20
84.20516178121987
 30
0.0
 10
121.6303155999751
 20
84.26543188327143
 30
0.0
 10
121.781510350756
 20
84.41649006608954
 30
0.0
 10
122.1652665977036
 20
84.54132898001876
 30
0.0
 10
122.5081012784038
 20
84.49475969591688
 30
0.0
 10
122.6936366970184
 20
84.46955731089918
 30
0.0
  0
SPLINE
  5
150
330
1F
100
AcDbEntity
  8
0
  6
Continuous
 62
     8
370
    15
100
AcDbSpline
210
0.0
220
0.0
230
1.0
 70
     8
 71
     3
 72
    14
 73
    10
 74
     0
 42
0.000000001
 43
0.00000001
 40
0.0
 40
0.0
 40
0.0
 40
0.0
 40
0.5000000000000017
 40
0.5000000000000017
 40
0.6250000000000009
 40
0.6250000000000009
 40
0.75
 40
0.75
 40
1.0
 40
1.0
 40
1.0
 40
1.0
 10
122.6936366970182
 20
84.46955731089913
 30
0.0
 10
122.7568342060846
 20
84.45470233417312
 30
0.0
 10
122.6866458033234
 20
84.40762244313918
 30
0.0
 10
122.4437204849369
 20
84.34041994603818
 30
0.0
 10
122.3872401878137
 20
84.32650139398547
 30
0.0
 10
122.2582116828682
 20
84.29833758969521
 30
0.0
 10
122.1854814429399
 20
84.28407227210594
 30
0.0
 10
121.9463850729548
 20
84.2423343716957
 30
0.0
 10
121.7583964226954
 20
84.21573709656295
 30
0.0
 10
121.5424285971402
 20
84.1924111002189
 30
0.0
  0
SPLINE
  5
151
330
1F
100
AcDbEntity
  8
0
  6
Continuous
 62
     8
370
    15
100
AcDbSpline
210
0.0
220
0.0
230
1.0
 70
     8
 71
     3
 72
    10
 73
     6
 74
     0
 42
0.000000001
 43
0.00000001
 40
0.0
 40
0.0
 40
0.0
 40
0.0
 40
0.4148113904625884
 40
0.7671151625463097
 40
1.0
 40
1.0
 40
1.0
 40
1.0
 10
122.6936366970185
 20
68.65526047449022
 30
0.0
 10
122.5081103546349
 20
68.63006632986598
 30
0.0
 10
122.1650144957303
 20
68.58347452743962
 30
0.0
 10
121.7811947586444
 20
68.70837860739587
 30
0.0
 10
121.6301886590841
 20
68.85960487810644
 30
0.0
 10
121.5700934515263
 20
68.91978770617104
 30
0.0
  0
SPLINE
  5
152
330
1F
100
AcDbEntity
  8
0
  6
Continuous
 62
     8
370
    15
100
AcDbSpline
210
0.0
220
0.0
230
1.0
 70
     8
 71
     3
 72
    12
 73
     8
 74
     0
 42
0.000000001
 43
0.00000001
 40
0.0
 40
0.0
 40
0.0
 40
0.0
 40
0.0070472612202075
 40
0.3353627971745436
 40
0.6621690715558551
 40
0.8310900916959427
 40
1.0
 40
1.0
 40
1.0
 40
1.0
 10
121.4954633284747
 20
68.93658754132292
 30
0.0
 10
121.5027570798843
 20
68.93609267053752
 30
0.0
 10
121.849849772803
 20
68.91254291898902
 30
0.0
 10
122.2725928469613
 20
68.82650168650386
 30
0.0
 10
122.630274566237
 20
68.73620246318953
 30
0.0
 10
122.7304424798725
 20
68.67708624282284
 30
0.0
 10
122.7059050222769
 20
68.66253557106896
 30
0.0
 10
122.6936366970185
 20
68.65526047449023
 30
0.0
  0
LWPOLYLINE
  5
153
330
1F
100
AcDbEntity
  8
0
  6
Continuous
 62
     8
370
    15
100
AcDbPolyline
 90
        3
 70
   128
 43
0.0
 10
122.693636697
 20
84.4695573109
 10
122.4134390048
 20
84.3850003742
 10
122.2878200812
 20
84.3318318113
  0
LWPOLYLINE
  5
154
330
1F
100
AcDbEntity
  8
0
  6
Continuous
 62
     8
370
    15
100
AcDbPolyline
 90
        3
 70
   128
 43
0.0
 10
122.2878785947
 20
68.7929588215
 10
122.4134390048
 20
68.7398174112
 10
122.693636697
 20
68.6552604745
  0
SPLINE
  5
155
330
1F
100
AcDbEntity
  8
0
  6
Continuous
 62
     7
370
    15
100
AcDbSpline
210
0.0
220
0.0
230
1.0
 70
     8
 71
     3
 72
    11
 73
     7
 74
     0
 42
0.000000001
 43
0.00000001
 40
0.0
 40
0.0
 40
0.0
 40
0.0
 40
0.3170364078987267
 40
0.618283186384449
 40
0.9384182068656858
 40
1.0
 40
1.0
 40
1.0
 40
1.0
 10
215.6530820571408
 20
80.11532870423521
 30
0.0
 10
218.6661708710216
 20
79.11546870646852
 30
0.0
 10
224.542285116237
 20
77.16554557475357
 30
0.0
 10
233.4631348024964
 20
74.2703309825803
 30
0.0
 10
239.9565911768701
 20
72.20243049592435
 30
0.0
 10
243.5853209333212
 20
71.07638974779931
 30
0.0
 10
244.1707383873901
 20
70.89472730606656
 30
0.0
  0
SPLINE
  5
156
330
1F
100
AcDbEntity
  8
0
  6
Continuous
 62
     7
370
    15
100
AcDbSpline
210
0.0
220
0.0
230
1.0
 70
     8
 71
     3
 72
     9
 73
     5
 74
     0
 42
0.000000001
 43
0.00000001
 40
0.0
 40
0.0
 40
0.0
 40
0.0
 40
0.931964141556387
 40
0.9999999999999999
 40
0.9999999999999999
 40
0.9999999999999999
 40
0.9999999999999999
 10
264.6282704796156
 20
107.5166746937253
 30
0.0
 10
264.2038018331961
 20
107.2622912857245
 30
0.0
 10
263.7483458478289
 20
106.9893372130754
 30
0.0
 10
263.2846785708462
 20
106.7194197908922
 30
0.0
 10
263.2531325696245
 20
106.7010557273651
 30
0.0
  0
LINE
  5
157
330
1F
100
AcDbEntity
  8
0
  6
Continuous
 62
     7
370
    15
100
AcDbLine
 10
245.6282004818
 20
70.9262614942
 30
0.0
 11
251.8839963727
 21
74.3187308045
 31
0.0
  0
SPLINE
  5
158
330
1F
100
AcDbEntity
  8
0
  6
Continuous
 62
     7
370
    15
100
AcDbSpline
210
0.0
220
0.0
230
1.0
 70
     8
 71
     3
 72
    12
 73
     8
 74
     0
 42
0.000000001
 43
0.00000001
 40
0.0
 40
0.0
 40
0.0
 40
0.0
 40
0.1794743061924079
 40
0.432614510318695
 40
0.7054772198735052
 40
0.9976423615474791
 40
0.9999999999999999
 40
0.9999999999999999
 40
0.9999999999999999
 40
0.9999999999999999
 10
251.8705267027092
 20
74.31344873855657
 30
0.0
 10
253.1293516889964
 20
74.96305951928619
 30
0.0
 10
256.1636910692292
 20
76.52891624699967
 30
0.0
 10
261.0671185855388
 20
79.161850194013
 30
0.0
 10
266.7198860008219
 20
82.27531833590317
 30
0.0
 10
270.6204805786558
 20
84.46886457595836
 30
0.0
 10
272.6349111308297
 20
85.62646848331148
 30
0.0
 10
272.6510365352133
 20
85.63573503812125
 30
0.0
  0
SPLINE
  5
159
330
1F
100
AcDbEntity
  8
0
  6
Continuous
 62
     7
370
    15
100
AcDbSpline
210
0.0
220
0.0
230
1.0
 70
     8
 71
     3
 72
     9
 73
     5
 74
     0
 42
0.000000001
 43
0.00000001
 40
0.0
 40
0.0
 40
0.0
 40
0.0
 40
0.4450283578678333
 40
1.0
 40
1.0
 40
1.0
 40
1.0
 10
274.3806074092738
 20
86.62449140990702
 30
0.0
 10
274.6276144444093
 20
86.76563509482617
 30
0.0
 10
275.1826510634663
 20
87.08279170389123
 30
0.0
 10
275.7254238615565
 20
87.37963249886813
 30
0.0
 10
276.0266473726173
 20
87.54437072230827
 30
0.0
  0
SPLINE
  5
15A
330
1F
100
AcDbEntity
  8
0
  6
Continuous
 62
     7
370
    15
100
AcDbSpline
210
0.0
220
0.0
230
1.0
 70
     8
 71
     3
 72
    20
 73
    16
 74
     0
 42
0.000000001
 43
0.00000001
 40
0.0
 40
0.0
 40
0.0
 40
0.0
 40
0.0615864081622983
 40
0.1433731868949979
 40
0.2273460461842275
 40
0.3128255970846696
 40
0.3989567456045562
 40
0.4845514380902346
 40
0.5687286357011023
 40
0.6523964986031118
 40
0.7367516529317734
 40
0.8222640729324419
 40
0.9086076542467655
 40
0.9953818271907264
 40
1.0
 40
1.0
 40
1.0
 40
1.0
 10
247.3181731085344
 20
97.165824505652
 30
0.0
 10
247.1690635110324
 20
97.07428449357549
 30
0.0
 10
246.8219362985775
 20
96.86117930281277
 30
0.0
 10
246.2047771955682
 20
96.53651886273559
 30
0.0
 10
245.4790259766334
 20
96.19842072284851
 30
0.0
 10
244.6922898958011
 20
95.884884497418
 30
0.0
 10
243.8598720420806
 20
95.6079949437808
 30
0.0
 10
242.9963585580967
 20
95.37894906305323
 30
0.0
 10
242.1126544556581
 20
95.20692951604755
 30
0.0
 10
241.2123165434398
 20
95.09482718745669
 30
0.0
 10
240.2950724739237
 20
95.03973721505845
 30
0.0
 10
239.3629045514157
 20
95.03961512162884
 30
0.0
 10
238.4275388785811
 20
95.1017030770028
 30
0.0
 10
237.7860064034202
 20
95.16696366790744
 30
0.0
 10
237.4659269604069
 20
95.22555705389681
 30
0.0
 10
237.4497529343618
 20
95.22851785307259
 30
0.0
  0
SPLINE
  5
15B
330
1F
100
AcDbEntity
  8
0
  6
Continuous
 62
     7
370
    15
100
AcDbSpline
210
0.0
220
0.0
230
1.0
 70
     8
 71
     3
 72
    15
 73
    11
 74
     0
 42
0.000000001
 43
0.00000001
 40
0.0
 40
0.0
 40
0.0
 40
0.0
 40
0.0403469040746257
 40
0.188458889746894
 40
0.3376851637021553
 40
0.4876941470412626
 40
0.6380192296744521
 40
0.787924996496714
 40
0.9368370144743888
 40
1.0
 40
1.0
 40
1.0
 40
1.0
 10
237.4428779741834
 20
95.21408593538665
 30
0.0
 10
237.3602213072504
 20
95.22080816961662
 30
0.0
 10
236.9741350873122
 20
95.25220747592415
 30
0.0
 10
236.3020875608872
 20
95.35479449483738
 30
0.0
 10
235.4350455496516
 20
95.52153955781361
 30
0.0
 10
234.601267949552
 20
95.7352360454473
 30
0.0
 10
233.8078122255678
 20
95.98770764206529
 30
0.0
 10
233.0697551414846
 20
96.27761362543541
 30
0.0
 10
232.509622111177
 20
96.53327158975492
 30
0.0
 10
232.2196950628084
 20
96.69867005545765
 30
0.0
 10
232.1333451504798
 20
96.7479312164741
 30
0.0
  0
SPLINE
  5
15C
330
1F
100
AcDbEntity
  8
0
  6
Continuous
 62
     7
370
    15
100
AcDbSpline
210
0.0
220
0.0
230
1.0
 70
     8
 71
     3
 72
    12
 73
     8
 74
     0
 42
0.000000001
 43
0.00000001
 40
0.0
 40
0.0
 40
0.0
 40
0.0
 40
0.208290739397604
 40
0.4348288692529439
 40
0.6616856086444487
 40
0.8884456410357873
 40
0.9999999999999999
 40
0.9999999999999999
 40
0.9999999999999999
 40
0.9999999999999999
 10
210.8998507997602
 20
82.27918448332015
 30
0.0
 10
211.198654420604
 20
82.10415045173828
 30
0.0
 10
211.8224384685936
 20
81.73874846481532
 30
0.0
 10
212.8405411341201
 20
81.23179368451535
 30
0.0
 10
213.9351571355408
 20
80.75134873682656
 30
0.0
 10
214.8781317870992
 20
80.38121020560233
 30
0.0
 10
215.4690064879983
 20
80.18845515238208
 30
0.0
 10
215.6638390170636
 20
80.1248969149895
 30
0.0
  0
SPLINE
  5
15D
330
1F
100
AcDbEntity
  8
0
  6
Continuous
 62
     7
370
    15
100
AcDbSpline
210
0.0
220
0.0
230
1.0
 70
     8
 71
     3
 72
    18
 73
    14
 74
     0
 42
0.000000001
 43
0.00000001
 40
0.0
 40
0.0
 40
0.0
 40
0.0
 40
0.0406284515933757
 40
0.1181477154903005
 40
0.19750911060589
 40
0.2798636442275992
 40
0.3656893702260718
 40
0.4556394147357918
 40
0.5506053144867831
 40
0.6518653573754835
 40
0.7613761649002223
 40
0.8824269141884802
 40
0.9999999999999999
 40
0.9999999999999999
 40
0.9999999999999999
 40
0.9999999999999999
 10
259.5150034098288
 20
80.50544975987114
 30
0.0
 10
258.3420571667344
 20
81.22553525261169
 30
0.0
 10
254.9311243455305
 20
83.31954702486632
 30
0.0
 10
249.1958457944555
 20
86.76414776772023
 30
0.0
 10
242.2102680458048
 20
90.86983300508882
 30
0.0
 10
234.9415976408183
 20
95.047224060195
 30
0.0
 10
227.3231117148097
 20
99.334171990272
 30
0.0
 10
219.2941740288519
 20
103.7615581177267
 30
0.0
 10
210.7703308771997
 20
108.3731507312362
 30
0.0
 10
201.6279263158713
 20
113.2330682606231
 30
0.0
 10
191.6706247375882
 20
118.4415749551127
 30
0.0
 10
181.1946172245942
 20
123.8501130157261
 30
0.0
 10
173.9955792115603
 20
127.5206896401974
 30
0.0
 10
170.4485189871996
 20
129.3292307704925
 30
0.0
  0
SPLINE
  5
15E
330
1F
100
AcDbEntity
  8
0
  6
Continuous
 62
     7
370
    15
100
AcDbSpline
210
0.0
220
0.0
230
1.0
 70
     8
 71
     3
 72
    11
 73
     7
 74
     0
 42
0.000000001
 43
0.00000001
 40
0.0
 40
0.0
 40
0.0
 40
0.0
 40
0.1044933369597662
 40
0.4501917721913762
 40
0.7749602084162766
 40
1.0
 40
1.0
 40
1.0
 40
1.0
 10
262.5636552107911
 20
106.3001191161659
 30
0.0
 10
262.0276012695142
 20
105.9914973769524
 30
0.0
 10
259.7181040246655
 20
104.6618530976544
 30
0.0
 10
255.7660038449536
 20
102.3255393082846
 30
0.0
 10
251.2212122037772
 20
99.58441506536656
 30
0.0
 10
248.4613912241779
 20
97.84798574435618
 30
0.0
 10
247.3317800131329
 20
97.13725485177294
 30
0.0
  0
SPLINE
  5
15F
330
1F
100
AcDbEntity
  8
0
  6
Continuous
 62
     7
370
    15
100
AcDbSpline
210
0.0
220
0.0
230
1.0
 70
     8
 71
     3
 72
    13
 73
     9
 74
     0
 42
0.000000001
 43
0.00000001
 40
0.0
 40
0.0
 40
0.0
 40
0.0
 40
0.1639893103221038
 40
0.3804494185113028
 40
0.5761528051693632
 40
0.7657239084739805
 40
0.9172328164757522
 40
1.0
 40
1.0
 40
1.0
 40
1.0
 10
155.6357141932281
 20
117.0997378625402
 30
0.0
 10
158.6342815167196
 20
115.1649180285427
 30
0.0
 10
165.5908519928598
 20
110.6762042256574
 30
0.0
 10
176.1526785567212
 20
103.9148367823288
 30
0.0
 10
187.2159716383294
 20
96.89964295710294
 30
0.0
 10
197.1284721605361
 20
90.7066540030701
 30
0.0
 10
204.9779791506294
 20
85.84887420385964
 30
0.0
 10
209.3464251734221
 20
83.20726315820812
 30
0.0
 10
210.8897494252871
 20
82.27401083702176
 30
0.0
  0
SPLINE
  5
160
330
1F
100
AcDbEntity
  8
0
  6
Continuous
 62
     7
370
    15
100
AcDbSpline
210
0.0
220
0.0
230
1.0
 70
     8
 71
     3
 72
    37
 73
    33
 74
     0
 42
0.000000001
 43
0.00000001
 40
0.0
 40
0.0
 40
0.0
 40
0.0
 40
0.0018642959849731
 40
0.0323297443830063
 40
0.0629353780399498
 40
0.094000563737433
 40
0.1257987411212605
 40
0.1585180805567568
 40
0.1922135019641821
 40
0.226777597831876
 40
0.2619681218546794
 40
0.2974954293181775
 40
0.3330857545217641
 40
0.3685904698915361
 40
0.4039671135876425
 40
0.4392224510582549
 40
0.4743903786626392
 40
0.5095185037768387
 40
0.5446611393589638
 40
0.5798615000417843
 40
0.6151738970831195
 40
0.6506565478907411
 40
0.6863620866703666
 40
0.7223274568023429
 40
0.7585542891443491
 40
0.7949760788920286
 40
0.8313319313311265
 40
0.8672764056933563
 40
0.9024237970294867
 40
0.9364922107356253
 40
0.9694078887927974
 40
1.0
 40
1.0
 40
1.0
 40
1.0
 10
278.49968622173
 20
92.19909099728814
 30
0.0
 10
278.509793049913
 20
92.20607687716969
 30
0.0
 10
278.68506091205
 20
92.3272227213285
 30
0.0
 10
278.9784963855672
 20
92.62631591399726
 30
0.0
 10
279.3692870287333
 20
93.09265542823832
 30
0.0
 10
279.6956440008989
 20
93.62259723034333
 30
0.0
 10
279.9634722755645
 20
94.20410968162336
 30
0.0
 10
280.1687441601998
 20
94.83814864130821
 30
0.0
 10
280.3092621067801
 20
95.52114413092266
 30
0.0
 10
280.3820739079945
 20
96.2481867440376
 30
0.0
 10
280.3853708235978
 20
97.01136823006631
 30
0.0
 10
280.3190115326146
 20
97.80066436887573
 30
0.0
 10
280.1847298584783
 20
98.60550893827805
 30
0.0
 10
279.9855524897397
 20
99.4161981691094
 30
0.0
 10
279.7250130527401
 20
100.2245076012858
 30
0.0
 10
279.4067417407481
 20
101.0232270306884
 30
0.0
 10
279.0343821463115
 20
101.8056255808252
 30
0.0
 10
278.6115689297537
 20
102.5652351764058
 30
0.0
 10
278.141989610859
 20
103.2956412504807
 30
0.0
 10
277.6293534419794
 20
103.9905280264226
 30
0.0
 10
277.0773319556087
 20
104.6437041290098
 30
0.0
 10
276.4894257680328
 20
105.2491345053677
 30
0.0
 10
275.8689962340158
 20
105.8007532156478
 30
0.0
 10
275.2193967182603
 20
106.2922406121811
 30
0.0
 10
274.5442984830174
 20
106.7167806931896
 30
0.0
 10
273.8489031566805
 20
107.0665845847139
 30
0.0
 10
273.140631302381
 20
107.3336348773595
 30
0.0
 10
272.4297902747611
 20
107.5106175688666
 30
0.0
 10
271.7280810923016
 20
107.5938860650203
 30
0.0
 10
271.0489249055658
 20
107.5802774864722
 30
0.0
 10
270.4082739040365
 20
107.4835758153117
 30
0.0
 10
270.0120791159984
 20
107.3462861726637
 30
0.0
 10
269.8212295343051
 20
107.2801528673774
 30
0.0
  0
ARC
  5
161
330
1F
100
AcDbEntity
  8
0
  6
Continuous
 62
     7
370
    15
100
AcDbCircle
 10
156.7162408624
 20
123.493715561
 30
0.0
 40
2.000000000000057
100
AcDbArc
 50
122.1444124145
 51
180.0
  0
LINE
  5
162
330
1F
100
AcDbEntity
  8
0
  6
Continuous
 62
     7
370
    15
100
AcDbLine
 10
161.4985122319
 20
128.8608811235
 30
0.0
 11
155.6521307437
 21
125.1871350323
 31
0.0
  0
LINE
  5
163
330
1F
100
AcDbEntity
  8
0
  6
Continuous
 62
     7
370
    15
100
AcDbLine
 10
154.7162408624
 20
123.493715561
 30
0.0
 11
154.7162408624
 21
118.7759000194
 31
0.0
  0
SPLINE
  5
164
330
1F
100
AcDbEntity
  8
0
  6
Continuous
 62
     7
370
    15
100
AcDbSpline
210
0.0
220
0.0
230
1.0
 70
     8
 71
     3
 72
    20
 73
    16
 74
     0
 42
0.000000001
 43
0.00000001
 40
0.0
 40
0.0
 40
0.0
 40
0.0
 40
0.078261131421168
 40
0.1598875698264559
 40
0.2413545436531082
 40
0.3217406933304552
 40
0.4029696705540046
 40
0.4835441727472675
 40
0.5635173572089743
 40
0.6444197747027929
 40
0.7255491666067211
 40
0.8063024635232805
 40
0.888873964962086
 40
0.9719302034238505
 40
1.0
 40
1.0
 40
1.0
 40
1.0
 10
170.4346956262838
 20
129.3030874088609
 30
0.0
 10
170.2287536062643
 20
129.4007231406982
 30
0.0
 10
169.8080138532335
 20
129.6001930385671
 30
0.0
 10
169.1195848039951
 20
129.8291165889486
 30
0.0
 10
168.3921874102135
 20
130.0068451989778
 30
0.0
 10
167.6377978148888
 20
130.1240081067139
 30
0.0
 10
166.8679170883641
 20
130.1841588281967
 30
0.0
 10
166.0894666995017
 20
130.1855166452862
 30
0.0
 10
165.3122252374405
 20
130.1292675040125
 30
0.0
 10
164.5423494939767
 20
130.017052541309
 30
0.0
 10
163.7894717230755
 20
129.8466663803667
 30
0.0
 10
163.05886567072
 20
129.6214064260613
 30
0.0
 10
162.3626244557167
 20
129.3357273621663
 30
0.0
 10
161.8403673400828
 20
129.0794045346852
 30
0.0
 10
161.5729252558544
 20
128.9002406912467
 30
0.0
 10
161.5053709253356
 20
128.8549849360369
 30
0.0
  0
ARC
  5
165
330
1F
100
AcDbEntity
  8
0
  6
Continuous
 62
     7
370
    15
100
AcDbCircle
 10
156.7162408624
 20
118.7759000194
 30
0.0
 40
2.0
100
AcDbArc
 50
180.0
 51
237.1748137027
  0
SPLINE
  5
166
330
1F
100
AcDbEntity
  8
0
  6
Continuous
 62
     7
370
    15
100
AcDbSpline
210
0.0
220
0.0
230
1.0
 70
     8
 71
     3
 72
     8
 73
     4
 74
     0
 42
0.000000001
 43
0.00000001
 40
0.0
 40
0.0
 40
0.0
 40
0.0
 40
1.0
 40
1.0
 40
1.0
 40
1.0
 10
156.6142478446491
 20
125.1112994687136
 30
0.0
 10
174.8944776371731
 20
114.4758201278891
 30
0.0
 10
193.220085201919
 20
103.820288277813
 30
0.0
 10
211.8420237068567
 20
93.03499523853311
 30
0.0
  0
LWPOLYLINE
  5
167
330
1F
100
AcDbEntity
  8
0
  6
Continuous
 62
     7
370
    15
100
AcDbPolyline
 90
        3
 70
   128
 43
0.0
 10
162.4598760246
 20
128.7854569801
 10
159.6345773617
 20
127.0096697905
 10
156.6142478446
 20
125.1112994687
  0
SPLINE
  5
168
330
1F
100
AcDbEntity
  8
0
  6
Continuous
 62
     7
370
    15
100
AcDbSpline
210
0.0
220
0.0
230
1.0
 70
     8
 71
     3
 72
    22
 73
    18
 74
     0
 42
0.000000001
 43
0.00000001
 40
0.0
 40
0.0
 40
0.0
 40
0.0
 40
0.1250000000000001
 40
0.1250000000000001
 40
0.2500000000000002
 40
0.2500000000000002
 40
0.3750000000000002
 40
0.3750000000000002
 40
0.5000000000000003
 40
0.5000000000000003
 40
0.6250000000000003
 40
0.6250000000000003
 40
0.7500000000000002
 40
0.7500000000000002
 40
0.8750000000000001
 40
0.8750000000000001
 40
1.0
 40
1.0
 40
1.0
 40
1.0
 10
169.4229292163593
 20
129.1396122726158
 30
0.0
 10
169.1870641103606
 20
129.2599832869766
 30
0.0
 10
168.9337111181303
 20
129.3641348306132
 30
0.0
 10
168.3934912982293
 20
129.5413661586002
 30
0.0
 10
168.1034675109968
 20
129.6149603484734
 30
0.0
 10
167.5038279156288
 20
129.7261581284908
 30
0.0
 10
167.196395486022
 20
129.7638260123254
 30
0.0
 10
166.5665295712029
 20
129.8038385478253
 30
0.0
 10
166.241285745871
 20
129.805766055268
 30
0.0
 10
165.6013347885027
 20
129.7732809663663
 30
0.0
 10
165.2840562188643
 20
129.7393238873584
 30
0.0
 10
164.6549625423441
 20
129.6355245806571
 30
0.0
 10
164.344977924202
 20
129.5655231430021
 30
0.0
 10
163.7567407778016
 20
129.3951671876716
 30
0.0
 10
163.4751277467945
 20
129.2943326913776
 30
0.0
 10
162.9379510688684
 20
129.0600454857748
 30
0.0
 10
162.6888493892218
 20
128.9293737803129
 30
0.0
 10
162.4598760246194
 20
128.7854569801152
 30
0.0
  0
SPLINE
  5
169
330
1F
100
AcDbEntity
  8
0
  6
Continuous
 62
     7
370
    15
100
AcDbSpline
210
0.0
220
0.0
230
1.0
 70
     8
 71
     3
 72
    13
 73
     9
 74
     0
 42
0.000000001
 43
0.00000001
 40
0.0
 40
0.0
 40
0.0
 40
0.0
 40
0.1249999999999999
 40
0.1249999999999999
 40
0.2499999999999999
 40
0.4999999999999998
 40
0.4999999999999998
 40
1.0
 40
1.0
 40
1.0
 40
1.0
 10
231.0660260727973
 20
96.59116459114027
 30
0.0
 10
228.5301650834909
 20
98.00666552127294
 30
0.0
 10
225.9872359486544
 20
99.40934831603488
 30
0.0
 10
220.8924433698546
 20
102.1985094476205
 30
0.0
 10
213.2356342379455
 20
106.3557300918511
 30
0.0
 10
205.5400285931365
 20
110.4425852068634
 30
0.0
 10
190.1105739130793
 20
118.5469598413734
 30
0.0
 10
179.7740397658991
 20
123.8570433596158
 30
0.0
 10
169.4229292163593
 20
129.1396122726158
 30
0.0
  0
SPLINE
  5
16A
330
1F
100
AcDbEntity
  8
0
  6
Continuous
 62
     7
370
    15
100
AcDbSpline
210
0.0
220
0.0
230
1.0
 70
     8
 71
     3
 72
    14
 73
    10
 74
     0
 42
0.000000001
 43
0.00000001
 40
0.0
 40
0.0
 40
0.0
 40
0.0
 40
0.2500000000000022
 40
0.2500000000000022
 40
0.3750000000000009
 40
0.3750000000000009
 40
0.4999999999999996
 40
0.4999999999999996
 40
1.0
 40
1.0
 40
1.0
 40
1.0
 10
237.4082586578168
 20
94.79190248491929
 30
0.0
 10
236.8092354554303
 20
94.8427094781207
 30
0.0
 10
236.224153016279
 20
94.9196855267529
 30
0.0
 10
235.3669486216986
 20
95.07340754798726
 30
0.0
 10
235.0846316283454
 20
95.13105222488161
 30
0.0
 10
234.5269254673462
 20
95.25931356264425
 30
0.0
 10
234.2511259443494
 20
95.33010233076388
 30
0.0
 10
232.9090852318711
 20
95.71147069231856
 30
0.0
 10
231.935935193603
 20
96.10558703983746
 30
0.0
 10
231.0660260727973
 20
96.59116459114028
 30
0.0
  0
SPLINE
  5
16B
330
1F
100
AcDbEntity
  8
0
  6
Continuous
 62
     7
370
    15
100
AcDbSpline
210
0.0
220
0.0
230
1.0
 70
     8
 71
     3
 72
     8
 73
     4
 74
     0
 42
0.000000001
 43
0.00000001
 40
0.8245836328126249
 40
0.8245836328126249
 40
0.8245836328126249
 40
0.8245836328126249
 40
0.8550117006680655
 40
0.8550117006680655
 40
0.8550117006680655
 40
0.8550117006680655
 10
237.4082586578168
 20
94.79190248491928
 30
0.0
 10
238.2724161944619
 20
94.30090741975198
 30
0.0
 10
239.1354612472817
 20
93.80791670985782
 30
0.0
 10
239.9972638667193
 20
93.31268721645198
 30
0.0
  0
SPLINE
  5
16C
330
1F
100
AcDbEntity
  8
0
  6
Continuous
 62
     7
370
    15
100
AcDbSpline
210
0.0
220
0.0
230
1.0
 70
     8
 71
     3
 72
     8
 73
     4
 74
     0
 42
0.000000001
 43
0.00000001
 40
0.0000000000000001
 40
0.0000000000000001
 40
0.0000000000000001
 40
0.0000000000000001
 40
0.0000928089804336
 40
0.0000928089804336
 40
0.0000928089804336
 40
0.0000928089804336
 10
239.9972638667192
 20
93.312687216452
 30
0.0
 10
239.974167845127
 20
93.32447201378233
 30
0.0
 10
239.9511185766282
 20
93.33628899166487
 30
0.0
 10
239.9281112515498
 20
93.34813437890966
 30
0.0
  0
SPLINE
  5
16D
330
1F
100
AcDbEntity
  8
0
  6
Continuous
 62
     7
370
    15
100
AcDbSpline
210
0.0
220
0.0
230
1.0
 70
     8
 71
     3
 72
     8
 73
     4
 74
     0
 42
0.000000001
 43
0.00000001
 40
0.0
 40
0.0
 40
0.0
 40
0.0
 40
1.0
 40
1.0
 40
1.0
 40
1.0
 10
239.8435545703486
 20
93.29489016875965
 30
0.0
 10
243.6203012090795
 20
91.11969371683355
 30
0.0
 10
247.3968895793388
 20
88.91757176605536
 30
0.0
 10
251.1732450477317
 20
86.67582727484033
 30
0.0
  0
LINE
  5
16E
330
1F
100
AcDbEntity
  8
0
  6
Continuous
 62
     7
370
    15
100
AcDbLine
 10
251.1732450477
 20
86.6758272748
 30
0.0
 11
251.2130340729
 21
86.6522059852
 31
0.0
  0
SPLINE
  5
16F
330
1F
100
AcDbEntity
  8
0
  6
Continuous
 62
     7
370
    15
100
AcDbSpline
210
0.0
220
0.0
230
1.0
 70
     8
 71
     3
 72
    20
 73
    16
 74
     0
 42
0.000000001
 43
0.00000001
 40
0.0
 40
0.0
 40
0.0
 40
0.0
 40
0.4999999999999992
 40
0.4999999999999992
 40
0.7499999999999989
 40
0.7499999999999989
 40
0.8749999999999989
 40
0.8749999999999989
 40
0.9374999999999994
 40
0.9374999999999994
 40
0.9687499999999993
 40
0.9687499999999993
 40
0.9843749999999997
 40
0.9843749999999997
 40
1.0
 40
1.0
 40
1.0
 40
1.0
 10
245.4290247273114
 20
82.48044046771899
 30
0.0
 10
246.4298085779671
 20
83.15681876043807
 30
0.0
 10
247.4263738403774
 20
83.83572645865428
 30
0.0
 10
248.9004610554583
 20
84.86455445436559
 30
0.0
 10
249.3886325440458
 20
85.20909195889625
 30
0.0
 10
250.106688805984
 20
85.73299294052823
 30
0.0
 10
250.3438513032054
 20
85.908720541233
 30
0.0
 10
250.6900726201521
 20
86.17706842524035
 30
0.0
 10
250.8039913552534
 20
86.26726117512942
 30
0.0
 10
250.9686909899281
 20
86.4056361852367
 30
0.0
 10
251.0226038164008
 20
86.45225418170972
 30
0.0
 10
251.0997135861064
 20
86.52405879090924
 30
0.0
 10
251.1247998890871
 20
86.5483017897731
 30
0.0
 10
251.1722350624872
 20
86.59815493027816
 30
0.0
 10
251.1953011766716
 20
86.62340687202679
 30
0.0
 10
251.2126383891
 20
86.65151991817662
 30
0.0
  0
SPLINE
  5
170
330
1F
100
AcDbEntity
  8
0
  6
Continuous
 62
     7
370
    15
100
AcDbSpline
210
0.0
220
0.0
230
1.0
 70
     8
 71
     3
 72
     8
 73
     4
 74
     0
 42
0.000000001
 43
0.00000001
 40
0.0
 40
0.0
 40
0.0
 40
0.0
 40
1.0
 40
1.0
 40
1.0
 40
1.0
 10
216.2024223868631
 20
91.21420287724817
 30
0.0
 10
225.9440473747497
 20
88.3941672715761
 30
0.0
 10
235.6864160043324
 20
85.51696698427335
 30
0.0
 10
245.4290247273044
 20
82.48044046772114
 30
0.0
  0
SPLINE
  5
171
330
1F
100
AcDbEntity
  8
0
  6
Continuous
 62
     7
370
    15
100
AcDbSpline
210
0.0
220
0.0
230
1.0
 70
     8
 71
     3
 72
    10
 73
     6
 74
     0
 42
0.000000001
 43
0.00000001
 40
0.0
 40
0.0
 40
0.0
 40
0.0
 40
0.5
 40
0.5
 40
1.0
 40
1.0
 40
1.0
 40
1.0
 10
216.2024223868631
 20
91.21420287724817
 30
0.0
 10
215.3957691915476
 20
91.44771532871776
 30
0.0
 10
214.6222417275445
 20
91.71902591393696
 30
0.0
 10
213.1658190989891
 20
92.32746045947358
 30
0.0
 10
212.4816145175992
 20
92.66456257292961
 30
0.0
 10
211.8420237068447
 20
93.03499523854002
 30
0.0
  0
SPLINE
  5
172
330
1F
100
AcDbEntity
  8
0
  6
Continuous
 62
     7
370
    15
100
AcDbSpline
210
0.0
220
0.0
230
1.0
 70
     8
 71
     3
 72
    10
 73
     6
 74
     0
 42
0.000000001
 43
0.00000001
 40
0.0
 40
0.0
 40
0.0
 40
0.0
 40
0.5
 40
0.5
 40
1.0
 40
1.0
 40
1.0
 40
1.0
 10
245.1665545221173
 20
82.11864962073251
 30
0.0
 10
245.1929479474287
 20
82.19225769160916
 30
0.0
 10
245.2251784836984
 20
82.26033840971266
 30
0.0
 10
245.3106801167724
 20
82.38292481631724
 30
0.0
 10
245.3646059336349
 20
82.43690312081823
 30
0.0
 10
245.4290247273047
 20
82.48044046772144
 30
0.0
  0
SPLINE
  5
173
330
1F
100
AcDbEntity
  8
0
  6
Continuous
 62
     7
370
    15
100
AcDbSpline
210
0.0
220
0.0
230
1.0
 70
     8
 71
     3
 72
    18
 73
    14
 74
     0
 42
0.000000001
 43
0.00000001
 40
0.0
 40
0.0
 40
0.0
 40
0.0
 40
0.1250000000000034
 40
0.1250000000000034
 40
0.2500000000000067
 40
0.2500000000000067
 40
0.5000000000000071
 40
0.5000000000000071
 40
0.7500000000000074
 40
0.7500000000000074
 40
0.8750000000000038
 40
0.8750000000000038
 40
1.0
 40
1.0
 40
1.0
 40
1.0
 10
245.1665545221384
 20
82.11864962073989
 30
0.0
 10
244.9998084163659
 20
82.06021651925954
 30
0.0
 10
244.8311204470739
 20
81.99862333761548
 30
0.0
 10
244.5000592327796
 20
81.87546536206317
 30
0.0
 10
244.3366709596528
 20
81.81354112330237
 30
0.0
 10
243.8512937896897
 20
81.62880654810256
 30
0.0
 10
243.5310038996005
 20
81.5059690072574
 30
0.0
 10
242.9164814099338
 20
81.2771559342734
 30
0.0
 10
242.621791963967
 20
81.17083242171067
 30
0.0
 10
242.1943439904558
 20
81.02608759085463
 30
0.0
 10
242.0543312083281
 20
80.98030288537977
 30
0.0
 10
241.7788842002649
 20
80.89425967207524
 30
0.0
 10
241.642772194239
 20
80.85382474673649
 30
0.0
 10
241.5114957809354
 20
80.81725558014014
 30
0.0
  0
SPLINE
  5
174
330
1F
100
AcDbEntity
  8
0
  6
Continuous
 62
     7
370
    15
100
AcDbSpline
210
0.0
220
0.0
230
1.0
 70
     8
 71
     3
 72
     8
 73
     4
 74
     0
 42
0.000000001
 43
0.00000001
 40
0.0
 40
0.0
 40
0.0
 40
0.0
 40
1.0
 40
1.0
 40
1.0
 40
1.0
 10
241.5114957809354
 20
80.81725558014016
 30
0.0
 10
232.7851694699383
 20
83.50465011728136
 30
0.0
 10
224.0597052417943
 20
86.0734522718097
 30
0.0
 10
215.3356303618797
 20
88.59721030777168
 30
0.0
  0
ARC
  5
175
330
1F
100
AcDbEntity
  8
0
  6
Continuous
 62
     7
370
    15
100
AcDbCircle
 10
219.6011497373
 20
88.6364427786
 30
0.0
 40
4.265699793558872
100
AcDbArc
 50
142.8215513336
 51
180.5269678595
  0
LINE
  5
176
330
1F
100
AcDbEntity
  8
0
  6
Continuous
 62
     7
370
    15
100
AcDbLine
 10
241.5114957809
 20
72.5007126966
 30
0.0
 11
241.5114957809
 21
80.8172555801
 31
0.0
  0
SPLINE
  5
177
330
1F
100
AcDbEntity
  8
0
  6
Continuous
 62
     7
370
    15
100
AcDbSpline
210
0.0
220
0.0
230
1.0
 70
     8
 71
     3
 72
     8
 73
     4
 74
     0
 42
0.000000001
 43
0.00000001
 40
0.0
 40
0.0
 40
0.0
 40
0.0
 40
1.0
 40
1.0
 40
1.0
 40
1.0
 10
215.3356303618812
 20
80.99414846396813
 30
0.0
 10
224.0597052417953
 20
78.09419748571163
 30
0.0
 10
232.7851694699387
 20
75.2384268759254
 30
0.0
 10
241.5114957809353
 20
72.50071269661886
 30
0.0
  0
LINE
  5
178
330
1F
100
AcDbEntity
  8
0
  6
Continuous
 62
     7
370
    15
100
AcDbLine
 10
215.3356303619
 20
88.5972103078
 30
0.0
 11
215.3356303619
 21
80.994148464
 31
0.0
  0
SPLINE
  5
179
330
1F
100
AcDbEntity
  8
0
  6
Continuous
 62
     7
370
    15
100
AcDbSpline
210
0.0
220
0.0
230
1.0
 70
     8
 71
     3
 72
    12
 73
     8
 74
     0
 42
0.000000001
 43
0.00000001
 40
0.0
 40
0.0
 40
0.0
 40
0.0
 40
0.4999999999999983
 40
0.4999999999999983
 40
0.7499999999999991
 40
0.7499999999999991
 40
1.0
 40
1.0
 40
1.0
 40
1.0
 10
245.1665545221173
 20
82.11864962073251
 30
0.0
 10
245.6143581207835
 20
82.07239359118189
 30
0.0
 10
246.0204180480218
 20
82.0212196683994
 30
0.0
 10
246.5865831211289
 20
81.96147018010419
 30
0.0
 10
246.7660853634549
 20
81.94439709781764
 30
0.0
 10
247.105470313701
 20
81.91882098835069
 30
0.0
 10
247.2673599262179
 20
81.91020382758654
 30
0.0
 10
247.4175288020432
 20
81.90722642935043
 30
0.0
  0
LINE
  5
17A
330
1F
100
AcDbEntity
  8
0
  6
Continuous
 62
     7
370
    15
100
AcDbLine
 10
247.417528802
 20
81.9072264294
 30
0.0
 11
247.417528802
 21
72.4115527566
 31
0.0
  0
SPLINE
  5
17B
330
1F
100
AcDbEntity
  8
0
  6
Continuous
 62
     7
370
    15
100
AcDbSpline
210
0.0
220
0.0
230
1.0
 70
     8
 71
     3
 72
    12
 73
     8
 74
     0
 42
0.000000001
 43
0.00000001
 40
0.0
 40
0.0
 40
0.0
 40
0.0
 40
0.4999999999999983
 40
0.4999999999999983
 40
0.7499999999999991
 40
0.7499999999999991
 40
1.0
 40
1.0
 40
1.0
 40
1.0
 10
245.1665545221553
 20
70.70306065903958
 30
0.0
 10
245.6143581208165
 20
70.88675935842423
 30
0.0
 10
246.0204180480386
 20
71.1370256827666
 30
0.0
 10
246.5865831211381
 20
71.57738148521058
 30
0.0
 10
246.7660853634621
 20
71.7342303625239
 30
0.0
 10
247.1054703137042
 20
72.06205031056193
 30
0.0
 10
247.267359926368
 20
72.23519406462613
 30
0.0
 10
247.417528802043
 20
72.41155275660998
 30
0.0
  0
SPLINE
  5
17C
330
1F
100
AcDbEntity
  8
0
  6
Continuous
 62
     7
370
    15
100
AcDbSpline
210
0.0
220
0.0
230
1.0
 70
     8
 71
     3
 72
    18
 73
    14
 74
     0
 42
0.000000001
 43
0.00000001
 40
0.0
 40
0.0
 40
0.0
 40
0.0
 40
0.125
 40
0.125
 40
0.2499999999999999
 40
0.2499999999999999
 40
0.5
 40
0.5
 40
0.75
 40
0.75
 40
0.875
 40
0.875
 40
1.0
 40
1.0
 40
1.0
 40
1.0
 10
245.1665545221383
 20
70.70306065904033
 30
0.0
 10
244.999808416366
 20
70.71031500708874
 30
0.0
 10
244.8311204470741
 20
70.73097986549631
 30
0.0
 10
244.5000592327796
 20
70.79348486148903
 30
0.0
 10
244.3366709596527
 20
70.83527510102385
 30
0.0
 10
243.8512937896896
 20
70.98712654412235
 30
0.0
 10
243.5310038996006
 20
71.1251056817428
 30
0.0
 10
242.9164814099336
 20
71.44814654150412
 30
0.0
 10
242.6217919639668
 20
71.63277667833273
 30
0.0
 10
242.1943439904557
 20
71.93788573353248
 30
0.0
 10
242.054331208328
 20
72.04434955736563
 30
0.0
 10
241.778884200265
 20
72.26634433687221
 30
0.0
 10
241.6427721942294
 20
72.38252971124128
 30
0.0
 10
241.5114957809355
 20
72.50071269661879
 30
0.0
  0
SPLINE
  5
17D
330
1F
100
AcDbEntity
  8
0
  6
Continuous
 62
     7
370
    15
100
AcDbSpline
210
0.0
220
0.0
230
1.0
 70
     8
 71
     3
 72
    14
 73
    10
 74
     0
 42
0.000000001
 43
0.00000001
 40
0.0
 40
0.0
 40
0.0
 40
0.0
 40
0.25
 40
0.25
 40
0.5
 40
0.5
 40
0.75
 40
0.75
 40
1.0
 40
1.0
 40
1.0
 40
1.0
 10
252.2179232411133
 20
84.84936340909938
 30
0.0
 10
252.2142213980247
 20
85.00222670353561
 30
0.0
 10
252.1854261397189
 20
85.17028067185545
 30
0.0
 10
252.0817776975515
 20
85.51310670386657
 30
0.0
 10
252.0069605512397
 20
85.68776120920296
 30
0.0
 10
251.8219541358597
 20
86.0189689416864
 30
0.0
 10
251.7118287749533
 20
86.17540872839315
 30
0.0
 10
251.471918975902
 20
86.44795241715886
 30
0.0
 10
251.3422172038242
 20
86.56396312577888
 30
0.0
 10
251.2119372732476
 20
86.65156139900323
 30
0.0
  0
SPLINE
  5
17E
330
1F
100
AcDbEntity
  8
0
  6
Continuous
 62
     7
370
    15
100
AcDbSpline
210
0.0
220
0.0
230
1.0
 70
     8
 71
     3
 72
     8
 73
     4
 74
     0
 42
0.000000001
 43
0.00000001
 40
0.0
 40
0.0
 40
0.0
 40
0.0
 40
0.0067920090468176
 40
0.0067920090468176
 40
0.0067920090468176
 40
0.0067920090468176
 10
252.2179480630687
 20
84.84843266542136
 30
0.0
 10
250.6177919776168
 20
83.86863956089981
 30
0.0
 10
249.0176572494378
 20
82.88804616539377
 30
0.0
 10
247.4175288020433
 20
81.90722642935044
 30
0.0
  0
LINE
  5
17F
330
1F
100
AcDbEntity
  8
0
  6
Continuous
 62
     7
370
    15
100
AcDbLine
 10
252.2179232411
 20
84.8493634088
 30
0.0
 11
252.2179232411
 21
75.0118332225
 31
0.0
  0
SPLINE
  5
180
330
1F
100
AcDbEntity
  8
0
  6
Continuous
 62
     7
370
    15
100
AcDbSpline
210
0.0
220
0.0
230
1.0
 70
     8
 71
     3
 72
     8
 73
     4
 74
     0
 42
0.000000001
 43
0.00000001
 40
0.0
 40
0.0
 40
0.0
 40
0.0
 40
0.0067920090468176
 40
0.0067920090468176
 40
0.0067920090468176
 40
0.0067920090468176
 10
247.4175288020433
 20
72.41155275661012
 30
0.0
 10
249.0176572494378
 20
73.27820200144555
 30
0.0
 10
250.6177919776168
 20
74.14508483845773
 30
0.0
 10
252.2179480630687
 20
75.0127926250368
 30
0.0
  0
LINE
  5
181
330
1F
100
AcDbEntity
  8
0
  6
Continuous
 62
     7
370
    15
100
AcDbLine
 10
263.2593500143
 20
106.6903788641
 30
0.0
 11
262.5698608392
 21
106.2883676442
 31
0.0
  0
LWPOLYLINE
  5
182
330
1F
100
AcDbEntity
  8
0
  6
Continuous
 62
     7
370
    15
100
AcDbPolyline
 90
       19
 70
   128
 43
0.0
 10
276.6000930838
 20
100.1320873591
 10
276.0682559631
 20
101.0901060585
 10
275.4851653129
 20
102.0162891085
 10
274.8561177816
 20
102.902223296
 10
274.186827478
 20
103.7398610186
 10
273.4833740663
 20
104.5215933867
 10
272.7521475397
 20
105.2403193408
 10
271.9997901754
 20
105.8895101557
 10
271.2331361977
 20
106.4632687461
 10
270.4591496978
 20
106.9563832337
 10
269.6848613736
 20
107.364374291
 10
268.9173046649
 20
107.6835358303
 10
268.163451863
 20
107.9109686688
 10
267.4301507764
 20
108.0446068638
 10
266.724062527
 20
108.0832364799
 10
266.0516010423
 20
108.0265066152
 10
265.4188747926
 20
107.8749325897
 10
264.8316313035
 20
107.6298912634
 10
264.6282613534
 20
107.516732469
  0
SPLINE
  5
183
330
1F
100
AcDbEntity
  8
0
  6
Continuous
 62
     7
370
    15
100
AcDbSpline
210
0.0
220
0.0
230
1.0
 70
     8
 71
     3
 72
    12
 73
     8
 74
     0
 42
0.000000001
 43
0.00000001
 40
0.0
 40
0.0
 40
0.0
 40
0.0
 40
0.4999999999999998
 40
0.4999999999999998
 40
0.7499999999999999
 40
0.7499999999999999
 40
1.0
 40
1.0
 40
1.0
 40
1.0
 10
251.1734884434679
 20
86.67658789262717
 30
0.0
 10
255.4619735544357
 20
89.02965992987885
 30
0.0
 10
259.7349785604958
 20
91.32385061499214
 30
0.0
 10
266.1046712566048
 20
94.67490187007915
 30
0.0
 10
268.2200857253282
 20
95.77717472582128
 30
0.0
 10
272.4281970694885
 20
97.963539743334
 30
0.0
 10
274.5206789922514
 20
99.04795578941531
 30
0.0
 10
276.6000930837868
 20
100.1320873591022
 30
0.0
  0
SPLINE
  5
184
330
1F
100
AcDbEntity
  8
0
  6
Continuous
 62
     7
370
    15
100
AcDbSpline
210
0.0
220
0.0
230
1.0
 70
     8
 71
     3
 72
     8
 73
     4
 74
     0
 42
0.000000001
 43
0.00000001
 40
0.0689044836022219
 40
0.0689044836022219
 40
0.0689044836022219
 40
0.0689044836022219
 40
0.2023653647821435
 40
0.2023653647821435
 40
0.2023653647821435
 40
0.2023653647821435
 10
251.1732504186522
 20
86.67672938524336
 30
0.0
 10
247.3955257483982
 20
88.92237733008292
 30
0.0
 10
243.6191804221836
 20
91.12544649912807
 30
0.0
 10
239.8435545703486
 20
93.29974194332591
 30
0.0
  0
LINE
  5
185
330
1F
100
AcDbEntity
  8
0
  6
Continuous
 62
     7
370
    15
100
AcDbLine
 10
239.8435545703
 20
93.2997419433
 30
0.0
 11
239.9281112515
 21
93.3481343789
 31
0.0
  0
SPLINE
  5
186
330
1F
100
AcDbEntity
  8
0
  6
Continuous
 62
     7
370
    15
100
AcDbSpline
210
0.0
220
0.0
230
1.0
 70
     8
 71
     3
 72
     8
 73
     4
 74
     0
 42
0.000000001
 43
0.00000001
 40
0.0
 40
0.0
 40
0.0
 40
0.0
 40
1.0
 40
1.0
 40
1.0
 40
1.0
 10
237.2344401668529
 20
94.935794750486
 30
0.0
 10
237.2271271978576
 20
94.91795254419783
 30
0.0
 10
237.232806145907
 20
94.89899221122927
 30
0.0
 10
237.2455687464072
 20
94.88103003485998
 30
0.0
  0
SPLINE
  5
187
330
1F
100
AcDbEntity
  8
0
  6
Continuous
 62
     7
370
    15
100
AcDbSpline
210
0.0
220
0.0
230
1.0
 70
     8
 71
     3
 72
    20
 73
    16
 74
     0
 42
0.000000001
 43
0.00000001
 40
0.0
 40
0.0
 40
0.0
 40
0.0
 40
0.2499999999999986
 40
0.2499999999999986
 40
0.3749999999999975
 40
0.3749999999999975
 40
0.4999999999999964
 40
0.4999999999999964
 40
0.6249999999999954
 40
0.6249999999999954
 40
0.6874999999999958
 40
0.6874999999999958
 40
0.7499999999999962
 40
0.7499999999999962
 40
1.0
 40
1.0
 40
1.0
 40
1.0
 10
248.0431995254775
 20
97.20053348218244
 30
0.0
 10
247.3788847483056
 20
96.7520114235888
 30
0.0
 10
246.628912021157
 20
96.33997177812093
 30
0.0
 10
245.3830962707103
 20
95.80247889495435
 30
0.0
 10
244.9437882842378
 20
95.63569213331061
 30
0.0
 10
244.0441768130547
 20
95.34164864156716
 30
0.0
 10
243.5838121263313
 20
95.21391255203659
 30
0.0
 10
242.6421758141057
 20
94.99979132915969
 30
0.0
 10
242.161956210941
 20
94.91199398930158
 30
0.0
 10
241.4240828426285
 20
94.81658431042298
 30
0.0
 10
241.1746456451496
 20
94.79062654185368
 30
0.0
 10
240.6784348816216
 20
94.75152490128666
 30
0.0
 10
240.4307315904537
 20
94.73822668485113
 30
0.0
 10
239.1941798492982
 20
94.7023995697546
 30
0.0
 10
238.2111367916752
 20
94.77110861942825
 30
0.0
 10
237.2344401668531
 20
94.93579475048597
 30
0.0
  0
SPLINE
  5
188
330
1F
100
AcDbEntity
  8
0
  6
Continuous
 62
     7
370
    15
100
AcDbSpline
210
0.0
220
0.0
230
1.0
 70
     8
 71
     3
 72
    10
 73
     6
 74
     0
 42
0.000000001
 43
0.00000001
 40
0.0
 40
0.0
 40
0.0
 40
0.0
 40
0.5
 40
0.5
 40
1.0
 40
1.0
 40
1.0
 40
1.0
 10
276.6000930837868
 20
100.1320873591023
 30
0.0
 10
272.6280214414797
 20
97.60589342954809
 30
0.0
 10
268.6230925194682
 20
95.04867852720889
 30
0.0
 10
260.4999327240124
 20
89.94034754376601
 30
0.0
 10
256.3849235184502
 20
87.39105322842839
 30
0.0
 10
252.2179232411133
 20
84.8493634090994
 30
0.0
  0
LWPOLYLINE
  5
189
330
1F
100
AcDbEntity
  8
0
  6
Continuous
 62
     7
370
    15
100
AcDbPolyline
 90
       16
 70
   128
 43
0.0
 10
276.6000930838
 20
87.9102149
 10
277.0718000813
 20
88.3377783615
 10
277.4842258012
 20
88.8478308932
 10
277.8336914028
 20
89.4358228224
 10
278.11707965
 20
90.0965092565
 10
278.3318627175
 20
90.8239968673
 10
278.4761247387
 20
91.6117964595
 10
278.5485788951
 20
92.4528808544
 10
278.5485788951
 20
93.3397475726
 10
278.4761247387
 20
94.2644857559
 10
278.3318627175
 20
95.2188467323
 10
278.11707965
 20
96.1943175944
 10
277.8336914028
 20
97.1821971343
 10
277.4842258012
 20
98.1736734587
 10
277.0718000813
 20
99.1599025909
 10
276.6000930838
 20
100.1320873591
  0
SPLINE
  5
18A
330
1F
100
AcDbEntity
  8
0
  6
Continuous
 62
     7
370
    15
100
AcDbSpline
210
0.0
220
0.0
230
1.0
 70
     8
 71
     3
 72
    10
 73
     6
 74
     0
 42
0.000000001
 43
0.00000001
 40
0.0
 40
0.0
 40
0.0
 40
0.0
 40
0.5
 40
0.5
 40
1.0
 40
1.0
 40
1.0
 40
1.0
 10
252.2179232411133
 20
75.01183322253897
 30
0.0
 10
256.3849232056654
 20
77.04076588625752
 30
0.0
 10
260.4999321061882
 20
79.12759496137207
 30
0.0
 10
268.6230913080618
 20
83.42038516914383
 30
0.0
 10
272.6276955484325
 20
85.63024180719665
 30
0.0
 10
276.6000930837843
 20
87.91021489998721
 30
0.0
  0
SPLINE
  5
18B
330
1F
100
AcDbEntity
  8
0
  6
Continuous
 62
     7
370
    15
100
AcDbSpline
210
0.0
220
0.0
230
1.0
 70
    11
 71
     3
 72
    68
 73
    64
 74
     0
 42
0.000000001
 43
0.00000001
 40
0.0
 40
0.0
 40
0.0
 40
0.0
 40
0.03125
 40
0.03125
 40
0.0624999999999999
 40
0.0624999999999999
 40
0.0937499999999999
 40
0.0937499999999999
 40
0.1249999999999998
 40
0.1249999999999998
 40
0.1562499999999998
 40
0.1562499999999998
 40
0.1874999999999998
 40
0.1874999999999998
 40
0.2187499999999997
 40
0.2187499999999997
 40
0.2499999999999997
 40
0.2499999999999997
 40
0.2812499999999996
 40
0.2812499999999996
 40
0.3124999999999996
 40
0.3124999999999996
 40
0.3437499999999996
 40
0.3437499999999996
 40
0.3749999999999995
 40
0.3749999999999995
 40
0.4062499999999994
 40
0.4062499999999994
 40
0.4374999999999994
 40
0.4374999999999994
 40
0.4687499999999994
 40
0.4687499999999994
 40
0.4999999999999993
 40
0.4999999999999993
 40
0.5312499999999993
 40
0.5312499999999993
 40
0.5624999999999992
 40
0.5624999999999992
 40
0.5937499999999992
 40
0.5937499999999992
 40
0.6249999999999991
 40
0.6249999999999991
 40
0.6562499999999991
 40
0.6562499999999991
 40
0.6874999999999991
 40
0.6874999999999991
 40
0.718749999999999
 40
0.718749999999999
 40
0.749999999999999
 40
0.749999999999999
 40
0.781249999999999
 40
0.781249999999999
 40
0.8124999999999989
 40
0.8124999999999989
 40
0.8437499999999989
 40
0.8437499999999989
 40
0.8749999999999989
 40
0.8749999999999989
 40
0.9374999999999997
 40
0.9374999999999997
 40
0.9687499999999998
 40
0.9687499999999998
 40
1.0
 40
1.0
 40
1.0
 40
1.0
 10
270.5412120057732
 20
88.9465835507309
 30
0.0
 10
270.5412120057732
 20
88.81125007257579
 30
0.0
 10
270.5517640127611
 20
88.68542850514984
 30
0.0
 10
270.5933039805827
 20
88.45190343860962
 30
0.0
 10
270.6248059582038
 20
88.34317879938814
 30
0.0
 10
270.7075650676528
 20
88.15067671674828
 30
0.0
 10
270.7584244202882
 20
88.06687883630315
 30
0.0
 10
270.8797389911514
 20
87.92352387597842
 30
0.0
 10
270.9508074144036
 20
87.86401873893688
 30
0.0
 10
271.1078571096999
 20
87.77428856863986
 30
0.0
 10
271.1943818505406
 20
87.74315143663277
 30
0.0
 10
271.3849913911324
 20
87.70844555327558
 30
0.0
 10
271.4875282960629
 20
87.70539369448132
 30
0.0
 10
271.7029507739518
 20
87.7265877672831
 30
0.0
 10
271.8175122761776
 20
87.75102711993564
 30
0.0
 10
272.0553275871741
 20
87.82655764131944
 30
0.0
 10
272.17668142765
 20
87.87682970469288
 30
0.0
 10
272.4245228265823
 20
88.0014282204696
 30
0.0
 10
272.5522566036266
 20
88.07673961288606
 30
0.0
 10
272.8028231591165
 20
88.24597788462812
 30
0.0
 10
272.9265353224519
 20
88.34014329519007
 30
0.0
 10
273.1703088185698
 20
88.54801653077664
 30
0.0
 10
273.2893793986451
 20
88.66114919569739
 30
0.0
 10
273.5131489110904
 20
88.89834887244349
 30
0.0
 10
273.6193782633034
 20
89.02381897251217
 30
0.0
 10
273.817087749079
 20
89.2876521870032
 30
0.0
 10
273.9059790902103
 20
89.4224898651874
 30
0.0
 10
274.0632930573777
 20
89.69875487437909
 30
0.0
 10
274.1323039970579
 20
89.84184182286631
 30
0.0
 10
274.2435263902941
 20
90.12672575297776
 30
0.0
 10
274.2859430313351
 20
90.26814721577306
 30
0.0
 10
274.3435780119005
 20
90.54946517691111
 30
0.0
 10
274.3584824383463
 20
90.69015676814246
 30
0.0
 10
274.3586445426381
 20
90.95742056689753
 30
0.0
 10
274.3444047453822
 20
91.08559102386529
 30
0.0
 10
274.2868983147555
 20
91.33056515892805
 30
0.0
 10
274.2440278471698
 20
91.44480064784216
 30
0.0
 10
274.1336234494405
 20
91.65243328576035
 30
0.0
 10
274.0650762869988
 20
91.74742773202277
 30
0.0
 10
273.9067967638893
 20
91.9125209983475
 30
0.0
 10
273.8179181801314
 20
91.98226964960621
 30
0.0
 10
273.6221942580548
 20
92.09605583587417
 30
0.0
 10
273.5144491111917
 20
92.14003536058767
 30
0.0
 10
273.2904243738607
 20
92.19754276530017
 30
0.0
 10
273.1733037646689
 20
92.21179207939491
 30
0.0
 10
272.9294408375507
 20
92.20997751206808
 30
0.0
 10
272.8039496021989
 20
92.19359346297823
 30
0.0
 10
272.5543186255297
 20
92.13107905567415
 30
0.0
 10
272.428580678319
 20
92.08475948548801
 30
0.0
 10
272.1780213362401
 20
91.96149546001162
 30
0.0
 10
272.0565862867685
 20
91.88632648163956
 30
0.0
 10
271.820791877862
 20
91.70996269521852
 30
0.0
 10
271.7052160670441
 20
91.60737716211214
 30
0.0
 10
271.4885126309719
 20
91.38274727493057
 30
0.0
 10
271.3871187322501
 20
91.26095315545346
 30
0.0
 10
271.1972041452267
 20
90.99900667102096
 30
0.0
 10
271.1088109524441
 20
90.85850661147431
 30
0.0
 10
270.8731355671493
 20
90.42827683067073
 30
0.0
 10
270.749213267329
 20
90.118468036804
 30
0.0
 10
270.6255375686657
 20
89.6665261073486
 30
0.0
 10
270.5938842604435
 20
89.51555771284396
 30
0.0
 10
270.5517659497044
 20
89.22284397543633
 30
0.0
 10
270.5412120057732
 20
89.08191702888601
 30
0.0
 10
270.5412120057732
 20
88.9465835507309
 30
0.0
  0
LINE
  5
18C
330
1F
100
AcDbEntity
  8
0
  6
Continuous
 62
     7
370
    15
100
AcDbLine
 10
239.8435545703
 20
93.2997419433
 30
0.0
 11
239.8435545703
 21
93.2948901688
 31
0.0
  0
SPLINE
  5
18D
330
1F
100
AcDbEntity
  8
0
  6
Continuous
 62
     7
370
    15
100
AcDbSpline
210
0.0
220
0.0
230
1.0
 70
     8
 71
     3
 72
    10
 73
     6
 74
     0
 42
0.000000001
 43
0.00000001
 40
0.0
 40
0.0
 40
0.0
 40
0.0
 40
0.4879051541007537
 40
0.9757707429794168
 40
1.0
 40
1.0
 40
1.0
 40
1.0
 10
252.2179232965409
 20
75.01183324952694
 30
0.0
 10
252.1970573985869
 20
74.86472204078292
 30
0.0
 10
252.155327294737
 20
74.57051155284228
 30
0.0
 10
252.0076766176243
 20
74.34257876900763
 30
0.0
 10
251.8896061171064
 20
74.31975457220638
 30
0.0
 10
251.8840197291034
 20
74.31867466809288
 30
0.0
  0
SPLINE
  5
18E
330
1F
100
AcDbEntity
  8
0
  6
Continuous
 62
     7
370
    15
100
AcDbSpline
210
0.0
220
0.0
230
1.0
 70
     8
 71
     3
 72
    10
 73
     6
 74
     0
 42
0.000000001
 43
0.00000001
 40
0.0
 40
0.0
 40
0.0
 40
0.0
 40
0.5
 40
0.5
 40
1.0
 40
1.0
 40
1.0
 40
1.0
 10
210.4937288551039
 20
90.62712157017303
 30
0.0
 10
211.2038892995951
 20
90.21489814571001
 30
0.0
 10
211.9636178689356
 20
89.83945251479864
 30
0.0
 10
213.5808650229505
 20
89.16113357437278
 30
0.0
 10
214.4398423609829
 20
88.85828115520465
 30
0.0
 10
215.3356303618797
 20
88.59721030777166
 30
0.0
  0
ARC
  5
18F
330
1F
100
AcDbEntity
  8
0
  6
Continuous
 62
     7
370
    15
100
AcDbCircle
 10
213.521481973
 20
90.513151041
 30
0.0
 40
3.029897395032694
100
AcDbArc
 50
123.6621991514
 51
177.8442929434
  0
LINE
  5
190
330
1F
100
AcDbEntity
  8
0
  6
Continuous
 62
     7
370
    15
100
AcDbLine
 10
276.2274355049
 20
87.6974518922
 30
0.0
 11
272.5968660193
 21
85.6274124166
 31
0.0
  0
LINE
  5
191
330
1F
100
AcDbEntity
  8
0
  6
Continuous
 62
     7
370
    15
100
AcDbLine
 10
210.4937288551
 20
83.1800717349
 30
0.0
 11
210.4937288551
 21
90.6271215702
 31
0.0
  0
SPLINE
  5
192
330
1F
100
AcDbEntity
  8
0
  6
Continuous
 62
     7
370
    15
100
AcDbSpline
210
0.0
220
0.0
230
1.0
 70
     8
 71
     3
 72
    10
 73
     6
 74
     0
 42
0.000000001
 43
0.00000001
 40
0.0
 40
0.0
 40
0.0
 40
0.0
 40
0.5
 40
0.5
 40
1.0
 40
1.0
 40
1.0
 40
1.0
 10
215.3356303618797
 20
80.99414846396863
 30
0.0
 10
214.4398659837772
 20
81.28997625181326
 30
0.0
 10
213.5878100707035
 20
81.6206392912446
 30
0.0
 10
211.9699886033005
 20
82.35071288792025
 30
0.0
 10
211.2038707121778
 20
82.75087907373579
 30
0.0
 10
210.4937288551039
 20
83.18007173485155
 30
0.0
  0
LWPOLYLINE
  5
193
330
1F
100
AcDbEntity
  8
0
  6
Continuous
 62
     7
370
    15
100
AcDbPolyline
 90
        3
 70
   128
 43
0.0
 10
276.0271367023
 20
87.5445463228
 10
276.0682559631
 20
87.5662422698
 10
276.6000930838
 20
87.9102149
  0
SPLINE
  5
194
330
1F
100
AcDbEntity
  8
0
  6
Continuous
 62
     7
370
    15
100
AcDbSpline
210
0.0
220
0.0
230
1.0
 70
     8
 71
     3
 72
     9
 73
     5
 74
     0
 42
0.000000001
 43
0.00000001
 40
0.0
 40
0.0
 40
0.0
 40
0.0
 40
0.3932617900301366
 40
1.0
 40
1.0
 40
1.0
 40
1.0
 10
237.4418429217648
 20
95.1821761516323
 30
0.0
 10
237.418126366309
 20
95.18796634510294
 30
0.0
 10
237.3578190695995
 20
95.20268985401587
 30
0.0
 10
237.281030640731
 20
95.03657996637283
 30
0.0
 10
237.2344401668529
 20
94.935794750486
 30
0.0
  0
ARC
  5
195
330
1F
100
AcDbEntity
  8
0
  6
Continuous
 62
     7
370
    15
100
AcDbCircle
 10
158.2081958286
 20
122.6299004729
 30
0.0
 40
2.949239080138381
100
AcDbArc
 50
122.7150100379
 51
178.5912732881
  0
SPLINE
  5
196
330
1F
100
AcDbEntity
  8
0
  6
Continuous
 62
     7
370
    15
100
AcDbSpline
210
0.0
220
0.0
230
1.0
 70
     8
 71
     3
 72
     8
 73
     4
 74
     0
 42
0.000000001
 43
0.00000001
 40
0.0
 40
0.0
 40
0.0
 40
0.0
 40
1.0
 40
1.0
 40
1.0
 40
1.0
 10
210.4937288551039
 20
90.62712157017302
 30
0.0
 10
191.8706608199041
 20
101.4126139311159
 30
0.0
 10
173.543110876405
 20
112.0679745330114
 30
0.0
 10
155.2598481355772
 20
122.7024058708187
 30
0.0
  0
SPLINE
  5
197
330
1F
100
AcDbEntity
  8
0
  6
Continuous
 62
     7
370
    15
100
AcDbSpline
210
0.0
220
0.0
230
1.0
 70
     8
 71
     3
 72
     8
 73
     4
 74
     0
 42
0.000000001
 43
0.00000001
 40
0.0
 40
0.0
 40
0.0
 40
0.0
 40
0.0002292068399381
 40
0.0002292068399381
 40
0.0002292068399381
 40
0.0002292068399381
 10
237.2455687463952
 20
94.88103003485946
 30
0.0
 10
237.2997751136539
 20
94.85240978080421
 30
0.0
 10
237.3540209756137
 20
94.8227191279254
 30
0.0
 10
237.4082586578168
 20
94.79190248491928
 30
0.0
  0
LINE
  5
198
330
1F
100
AcDbEntity
  8
0
  6
Continuous
 62
     7
370
    15
100
AcDbLine
 10
155.2598481356
 20
122.7024058708
 30
0.0
 11
155.2598481356
 21
117.9845903292
 31
0.0
  0
SPLINE
  5
199
330
1F
100
AcDbEntity
  8
0
  6
Continuous
 62
     7
370
    15
100
AcDbSpline
210
0.0
220
0.0
230
1.0
 70
     8
 71
     3
 72
     8
 73
     4
 74
     0
 42
0.000000001
 43
0.00000001
 40
0.0
 40
0.0
 40
0.0
 40
0.0
 40
1.0
 40
1.0
 40
1.0
 40
1.0
 10
155.2598481355774
 20
117.9845903291926
 30
0.0
 10
173.5431108764051
 20
106.1905159398753
 30
0.0
 10
191.8706608199042
 20
94.45995676404294
 30
0.0
 10
210.4937288551039
 20
83.18007173485154
 30
0.0
  0
LWPOLYLINE
  5
19A
330
1F
100
AcDbEntity
  8
0
  6
Continuous
 62
     8
370
    15
100
AcDbPolyline
 90
        6
 70
   128
 43
0.0
 10
215.3356303619
 20
80.994148464
 10
215.3451045084
 20
80.705099054
 10
215.3887226969
 20
80.4635386429
 10
215.4648984135
 20
80.2782534507
 10
215.5708609366
 20
80.1559828122
 10
215.6520179812
 20
80.1131393684
  0
SPLINE
  5
19B
330
1F
100
AcDbEntity
  8
0
  6
Continuous
 62
     8
370
    15
100
AcDbSpline
210
0.0
220
0.0
230
1.0
 70
     8
 71
     3
 72
    10
 73
     6
 74
     0
 42
0.000000001
 43
0.00000001
 40
0.0
 40
0.0
 40
0.0
 40
0.0
 40
0.236245786912932
 40
0.586671169455902
 40
0.9999999999999999
 40
0.9999999999999999
 40
0.9999999999999999
 40
0.9999999999999999
 10
262.5698608392039
 20
106.2883676442254
 30
0.0
 10
261.4060980416394
 20
105.6165633688234
 30
0.0
 10
258.5161160007405
 20
103.9482661050047
 30
0.0
 10
253.6796415175419
 20
100.9444417726648
 30
0.0
 10
250.0224175505905
 20
98.51519453667835
 30
0.0
 10
248.0431995254777
 20
97.20053348218241
 30
0.0
  0
SPLINE
  5
19C
330
1F
100
AcDbEntity
  8
0
  6
Continuous
 62
     8
370
    15
100
AcDbSpline
210
0.0
220
0.0
230
1.0
 70
     8
 71
     3
 72
     9
 73
     5
 74
     0
 42
0.000000001
 43
0.00000001
 40
0.0
 40
0.0
 40
0.0
 40
0.0
 40
0.0614634626543475
 40
1.0
 40
1.0
 40
1.0
 40
1.0
 10
276.6000930837843
 20
87.91021489998718
 30
0.0
 10
276.5925039924973
 20
87.90578988741632
 30
0.0
 10
276.4690307783413
 20
87.83379569151911
 30
0.0
 10
276.3444031178349
 20
87.763462325783
 30
0.0
 10
276.2274355048857
 20
87.69745189224518
 30
0.0
  0
ARC
  5
19D
330
1F
100
AcDbEntity
  8
0
  6
Continuous
 62
     8
370
    15
100
AcDbCircle
 10
247.743807892
 20
96.3982976676
 30
0.0
 40
0.8562812927500415
100
AcDbArc
 50
69.534599502
 51
118.9662482428
  0
ARC
  5
19E
330
1F
100
AcDbEntity
  8
0
  6
Continuous
 62
     8
370
    15
100
AcDbCircle
 10
231.7125437157
 20
95.8062733556
 30
0.0
 40
1.016877236587707
100
AcDbArc
 50
66.1150289987
 51
129.4784022735
  0
ARC
  5
19F
330
1F
100
AcDbEntity
  8
0
  6
Continuous
 62
     8
370
    15
100
AcDbCircle
 10
211.465500188
 20
83.0669942388
 30
0.0
 40
0.9783281880208569
100
AcDbArc
 50
173.3627832928
 51
234.3656163428
  0
ARC
  5
1A0
330
1F
100
AcDbEntity
  8
0
  6
Continuous
 62
     8
370
    15
100
AcDbCircle
 10
170.0683074107
 20
128.3583954079
 30
0.0
 40
1.013317720897477
100
AcDbArc
 50
68.5886172177
 51
129.5607635358
  0
ARC
  5
1A1
330
1F
100
AcDbEntity
  8
0
  6
Continuous
 62
     8
370
    15
100
AcDbCircle
 10
156.2379093319
 20
117.8714418991
 30
0.0
 40
0.9845843138117499
100
AcDbArc
 50
173.400989164
 51
232.0608714757
  0
LWPOLYLINE
  5
1A2
330
1F
100
AcDbEntity
  8
0
  6
Continuous
 62
     8
370
    15
100
AcDbPolyline
 90
       30
 70
   128
 43
0.0
 10
278.5386140524
 20
92.2599089032
 10
278.6134406467
 20
92.3331386622
 10
278.9661621843
 20
92.756718963
 10
279.2601775172
 20
93.2533292246
 10
279.4922653517
 20
93.8175284809
 10
279.659882885
 20
94.4431352468
 10
279.7611936642
 20
95.1232952437
 10
279.7950877074
 20
95.8505564964
 10
279.7611936642
 20
96.6169509783
 10
279.659882885
 20
97.4140819111
 10
279.4922653517
 20
98.2332157616
 10
279.2601775172
 20
99.0653779279
 10
278.9661621843
 20
99.901451067
 10
278.6134406467
 20
100.7322749869
 10
278.2058773951
 20
101.5487470066
 10
277.747937778
 20
102.3419216879
 10
277.2446390776
 20
103.1031088431
 10
276.7014955397
 20
103.8239687463
 10
276.1244579587
 20
104.4966035056
 10
275.519848479
 20
105.1136435938
 10
274.8942913286
 20
105.6683285907
 10
274.2546402425
 20
106.1545812512
 10
273.607903372
 20
106.5670740896
 10
272.9611665015
 20
106.9012877479
 10
272.3215154154
 20
107.1535605113
 10
271.695958265
 20
107.3211284267
 10
271.0913487853
 20
107.4021555849
 10
270.5143112043
 20
107.3957542355
 10
269.9711676665
 20
107.3019945129
 10
269.8711464817
 20
107.2740299198
  0
ARC
  5
1A3
330
1F
100
AcDbEntity
  8
0
  6
Continuous
 62
     8
370
    15
100
AcDbCircle
 10
156.0699826683
 20
124.34732252
 30
0.0
 40
0.9380220468453999
100
AcDbArc
 50
54.53353044
 51
116.4528158607
  0
ARC
  5
1A4
330
1F
100
AcDbEntity
  8
0
  6
Continuous
 62
     8
370
    15
100
AcDbCircle
 10
155.6911888775
 20
123.581100925
 30
0.0
 40
0.9788563908090491
100
AcDbArc
 50
185.1217798501
 51
243.8541386142
  0
ARC
  5
1A5
330
1F
100
AcDbEntity
  8
0
  6
Continuous
 62
     8
370
    15
100
AcDbCircle
 10
161.9162524212
 20
128.02140711
 30
0.0
 40
0.9377093505998149
100
AcDbArc
 50
54.5680434218
 51
116.431272032
  0
ARC
  5
1A6
330
1F
100
AcDbEntity
  8
0
  6
Continuous
 62
     8
370
    15
100
AcDbCircle
 10
155.6912450507
 20
118.8633480798
 30
0.0
 40
0.978937425326411
100
AcDbArc
 50
185.1378653307
 51
243.8528043001
  0
LWPOLYLINE
  5
1A7
330
1F
100
AcDbEntity
  8
0
  6
Continuous
 62
     7
370
     0
100
AcDbPolyline
 90
       17
 70
   128
 43
0.0
 10
267.6151734015
 20
90.227147526
 10
268.4269675517
 20
90.8822527186
 10
269.1151734015
 20
91.8105568942
 10
269.5750178488
 20
92.870734157
 10
269.736493745
 20
93.9013821294
 10
269.5750178488
 20
94.7455940004
 10
269.1151734015
 20
95.2748461654
 10
268.4269675517
 20
95.40856478
 10
267.6151734015
 20
95.1263923973
 10
266.8033792512
 20
94.4712872047
 10
266.1151734015
 20
93.5429830291
 10
265.6553289541
 20
92.4828057663
 10
265.4938530579
 20
91.4521577939
 10
265.6553289541
 20
90.6079459229
 10
266.1151734015
 20
90.0786937579
 10
266.8033792512
 20
89.9449751433
 10
267.6151734015
 20
90.227147526
  0
ENDSEC
  0
SECTION
  2
OBJECTS
  0
DICTIONARY
  5
C
330
0
100
AcDbDictionary
281
     1
  3
ACAD_GROUP
350
D
  3
ACAD_LAYOUT
350
1A
  3
ACAD_MLINESTYLE
350
17
  3
ACAD_PLOTSETTINGS
350
19
  3
ACAD_PLOTSTYLENAME
350
E
  3
ACAD_SCALELIST
350
47
  0
DICTIONARY
  5
D
102
{ACAD_REACTORS
330
C
102
}
330
C
100
AcDbDictionary
281
     1
  0
DICTIONARY
  5
1A
102
{ACAD_REACTORS
330
C
102
}
330
C
100
AcDbDictionary
281
     1
  3
Layout1
350
1E
  3
Layout2
350
26
  3
Model
350
22
  0
DICTIONARY
  5
17
102
{ACAD_REACTORS
330
C
102
}
330
C
100
AcDbDictionary
281
     1
  3
Standard
350
18
  0
DICTIONARY
  5
19
102
{ACAD_REACTORS
330
C
102
}
330
C
100
AcDbDictionary
281
     1
  0
ACDBDICTIONARYWDFLT
  5
E
102
{ACAD_REACTORS
330
C
102
}
330
C
100
AcDbDictionary
281
     1
  3
Normal
350
F
100
AcDbDictionaryWithDefault
340
F
  0
DICTIONARY
  5
47
102
{ACAD_REACTORS
330
C
102
}
330
C
100
AcDbDictionary
281
     1
  3
A0
350
48
  3
A1
350
49
  3
A2
350
4A
  3
A3
350
4B
  3
A4
350
4C
  3
A5
350
4D
  3
A6
350
4E
  3
A7
350
4F
  3
A8
350
50
  3
A9
350
51
  3
B0
350
52
  3
B1
350
53
  3
B2
350
54
  3
B3
350
55
  3
B4
350
56
  3
B5
350
57
  3
B6
350
58
  3
B7
350
59
  3
B8
350
5A
  3
B9
350
5B
  3
C0
350
5C
  3
C1
350
5D
  3
C2
350
5E
  3
C3
350
5F
  3
C4
350
60
  3
C5
350
61
  3
C6
350
62
  3
C7
350
63
  3
C8
350
64
  3
C9
350
65
  3
D0
350
66
  3
D1
350
67
  3
D2
350
68
  0
LAYOUT
  5
1E
102
{ACAD_REACTORS
330
1A
102
}
330
1A
100
AcDbPlotSettings
  1

  2
none_device
  4

  6

 40
0.0
 41
0.0
 42
0.0
 43
0.0
 44
0.0
 45
0.0
 46
0.0
 47
0.0
 48
0.0
 49
0.0
140
0.0
141
0.0
142
1.0
143
1.0
 70
   688
 72
     1
 73
     0
 74
     5
  7

 75
    16
147
1.0
148
0.0
149
0.0
100
AcDbLayout
  1
Layout1
 70
     1
 71
     1
 10
0.0
 20
0.0
 11
420.0
 21
297.0
 12
0.0
 22
0.0
 32
0.0
 14
1.0000000000E+20
 24
1.0000000000E+20
 34
1.0000000000E+20
 15
-1.0000000000E+20
 25
-1.0000000000E+20
 35
-1.0000000000E+20
146
0.0
 13
0.0
 23
0.0
 33
0.0
 16
1.0
 26
0.0
 36
0.0
 17
0.0
 27
1.0
 37
0.0
 76
     0
330
1B
  0
LAYOUT
  5
26
102
{ACAD_REACTORS
330
1A
102
}
330
1A
100
AcDbPlotSettings
  1

  2
none_device
  4

  6

 40
0.0
 41
0.0
 42
0.0
 43
0.0
 44
0.0
 45
0.0
 46
0.0
 47
0.0
 48
0.0
 49
0.0
140
0.0
141
0.0
142
1.0
143
1.0
 70
   688
 72
     1
 73
     0
 74
     5
  7

 75
    16
147
1.0
148
0.0
149
0.0
100
AcDbLayout
  1
Layout2
 70
     1
 71
     2
 10
0.0
 20
0.0
 11
0.0
 21
0.0
 12
0.0
 22
0.0
 32
0.0
 14
0.0
 24
0.0
 34
0.0
 15
0.0
 25
0.0
 35
0.0
146
0.0
 13
0.0
 23
0.0
 33
0.0
 16
1.0
 26
0.0
 36
0.0
 17
0.0
 27
1.0
 37
0.0
 76
     0
330
23
  0
LAYOUT
  5
22
102
{ACAD_REACTORS
330
1A
102
}
330
1A
100
AcDbPlotSettings
  1

  2
none_device
  4
Letter_(8.50_x_11.00_Inches)
  6

 40
6.35
 41
6.35
 42
6.35000508
 43
6.35000508
 44
215.9
 45
279.4
 46
0.0
 47
0.0
 48
0.0
 49
0.0
140
0.0
141
0.0
142
1.0
143
1.0
 70
  1712
 72
     1
 73
     0
 74
     0
  7

 75
     0
147
1.0
148
0.0
149
0.0
100
AcDbLayout
  1
Model
 70
     1
 71
     0
 10
0.0
 20
0.0
 11
297.0
 21
210.0
 12
0.0
 22
0.0
 32
0.0
 14
0.0
 24
0.0
 34
0.0
 15
297.0
 25
210.0
 35
0.0
146
0.0
 13
0.0
 23
0.0
 33
0.0
 16
1.0
 26
0.0
 36
0.0
 17
0.0
 27
1.0
 37
0.0
 76
     0
330
1F
331
29
  0
MLINESTYLE
  5
18
102
{ACAD_REACTORS
330
17
102
}
330
17
100
AcDbMlineStyle
  2
Standard
 70
     0
  3

 62
   256
 51
90.0
 52
90.0
 71
     2
 49
0.5
 62
   256
  6
BYLAYER
 49
-0.5
 62
   256
  6
BYLAYER
  0
ACDBPLACEHOLDER
  5
F
102
{ACAD_REACTORS
330
E
102
}
330
E
  0
SCALE
  5
48
102
{ACAD_REACTORS
330
47
102
}
330
47
100
AcDbScale
 70
     0
300
1:1
140
1.0
141
1.0
290
     1
  0
SCALE
  5
49
102
{ACAD_REACTORS
330
47
102
}
330
47
100
AcDbScale
 70
     0
300
1:2
140
1.0
141
2.0
290
     0
  0
SCALE
  5
4A
102
{ACAD_REACTORS
330
47
102
}
330
47
100
AcDbScale
 70
     0
300
1:4
140
1.0
141
4.0
290
     0
  0
SCALE
  5
4B
102
{ACAD_REACTORS
330
47
102
}
330
47
100
AcDbScale
 70
     0
300
1:5
140
1.0
141
5.0
290
     0
  0
SCALE
  5
4C
102
{ACAD_REACTORS
330
47
102
}
330
47
100
AcDbScale
 70
     0
300
1:8
140
1.0
141
8.0
290
     0
  0
SCALE
  5
4D
102
{ACAD_REACTORS
330
47
102
}
330
47
100
AcDbScale
 70
     0
300
1:10
140
1.0
141
10.0
290
     0
  0
SCALE
  5
4E
102
{ACAD_REACTORS
330
47
102
}
330
47
100
AcDbScale
 70
     0
300
1:16
140
1.0
141
16.0
290
     0
  0
SCALE
  5
4F
102
{ACAD_REACTORS
330
47
102
}
330
47
100
AcDbScale
 70
     0
300
1:20
140
1.0
141
20.0
290
     0
  0
SCALE
  5
50
102
{ACAD_REACTORS
330
47
102
}
330
47
100
AcDbScale
 70
     0
300
1:30
140
1.0
141
30.0
290
     0
  0
SCALE
  5
51
102
{ACAD_REACTORS
330
47
102
}
330
47
100
AcDbScale
 70
     0
300
1:40
140
1.0
141
40.0
290
     0
  0
SCALE
  5
52
102
{ACAD_REACTORS
330
47
102
}
330
47
100
AcDbScale
 70
     0
300
1:50
140
1.0
141
50.0
290
     0
  0
SCALE
  5
53
102
{ACAD_REACTORS
330
47
102
}
330
47
100
AcDbScale
 70
     0
300
1:100
140
1.0
141
100.0
290
     0
  0
SCALE
  5
54
102
{ACAD_REACTORS
330
47
102
}
330
47
100
AcDbScale
 70
     0
300
2:1
140
2.0
141
1.0
290
     0
  0
SCALE
  5
55
102
{ACAD_REACTORS
330
47
102
}
330
47
100
AcDbScale
 70
     0
300
4:1
140
4.0
141
1.0
290
     0
  0
SCALE
  5
56
102
{ACAD_REACTORS
330
47
102
}
330
47
100
AcDbScale
 70
     0
300
8:1
140
8.0
141
1.0
290
     0
  0
SCALE
  5
57
102
{ACAD_REACTORS
330
47
102
}
330
47
100
AcDbScale
 70
     0
300
10:1
140
10.0
141
1.0
290
     0
  0
SCALE
  5
58
102
{ACAD_REACTORS
330
47
102
}
330
47
100
AcDbScale
 70
     0
300
100:1
140
100.0
141
1.0
290
     0
  0
SCALE
  5
59
102
{ACAD_REACTORS
330
47
102
}
330
47
100
AcDbScale
 70
     0
300
1/128" = 1'-0"
140
0.0078125
141
12.0
290
     0
  0
SCALE
  5
5A
102
{ACAD_REACTORS
330
47
102
}
330
47
100
AcDbScale
 70
     0
300
1/64" = 1'-0"
140
0.015625
141
12.0
290
     0
  0
SCALE
  5
5B
102
{ACAD_REACTORS
330
47
102
}
330
47
100
AcDbScale
 70
     0
300
1/32" = 1'-0"
140
0.03125
141
12.0
290
     0
  0
SCALE
  5
5C
102
{ACAD_REACTORS
330
47
102
}
330
47
100
AcDbScale
 70
     0
300
1/16" = 1'-0"
140
0.0625
141
12.0
290
     0
  0
SCALE
  5
5D
102
{ACAD_REACTORS
330
47
102
}
330
47
100
AcDbScale
 70
     0
300
3/32" = 1'-0"
140
0.09375
141
12.0
290
     0
  0
SCALE
  5
5E
102
{ACAD_REACTORS
330
47
102
}
330
47
100
AcDbScale
 70
     0
300
1/8" = 1'-0"
140
0.125
141
12.0
290
     0
  0
SCALE
  5
5F
102
{ACAD_REACTORS
330
47
102
}
330
47
100
AcDbScale
 70
     0
300
3/16" = 1'-0"
140
0.1875
141
12.0
290
     0
  0
SCALE
  5
60
102
{ACAD_REACTORS
330
47
102
}
330
47
100
AcDbScale
 70
     0
300
1/4" = 1'-0"
140
0.25
141
12.0
290
     0
  0
SCALE
  5
61
102
{ACAD_REACTORS
330
47
102
}
330
47
100
AcDbScale
 70
     0
300
3/8" = 1'-0"
140
0.375
141
12.0
290
     0
  0
SCALE
  5
62
102
{ACAD_REACTORS
330
47
102
}
330
47
100
AcDbScale
 70
     0
300
1/2" = 1'-0"
140
0.5
141
12.0
290
     0
  0
SCALE
  5
63
102
{ACAD_REACTORS
330
47
102
}
330
47
100
AcDbScale
 70
     0
300
3/4" = 1'-0"
140
0.75
141
12.0
290
     0
  0
SCALE
  5
64
102
{ACAD_REACTORS
330
47
102
}
330
47
100
AcDbScale
 70
     0
300
1" = 1'-0"
140
1.0
141
12.0
290
     0
  0
SCALE
  5
65
102
{ACAD_REACTORS
330
47
102
}
330
47
100
AcDbScale
 70
     0
300
1-1/2" = 1'-0"
140
1.5
141
12.0
290
     0
  0
SCALE
  5
66
102
{ACAD_REACTORS
330
47
102
}
330
47
100
AcDbScale
 70
     0
300
3" = 1'-0"
140
3.0
141
12.0
290
     0
  0
SCALE
  5
67
102
{ACAD_REACTORS
330
47
102
}
330
47
100
AcDbScale
 70
     0
300
6" = 1'-0"
140
6.0
141
12.0
290
     0
  0
SCALE
  5
68
102
{ACAD_REACTORS
330
47
102
}
330
47
100
AcDbScale
 70
     0
300
1'-0" = 1'-0"
140
12.0
141
12.0
290
     0
  0
ENDSEC
  0
EOF
