  0
SECTION
  2
HEADER
  9
$ACADVER
  1
AC1015
  9
$ACADMAINTVER
 70
     6
  9
$DWGCODEPAGE
  3
ANSI_1252
  9
$INSBASE
 10
0.0
 20
0.0
 30
0.0
  9
$EXTMIN
 10
0.0
 20
0.0
 30
0.0
  9
$EXTMAX
 10
297.0
 20
210.0
 30
0.0
  9
$LIMMIN
 10
0.0
 20
0.0
  9
$LIMMAX
 10
297.0
 20
210.0
  9
$ORTHOMODE
 70
     0
  9
$REGENMODE
 70
     1
  9
$FILLMODE
 70
     1
  9
$QTEXTMODE
 70
     0
  9
$MIRRTEXT
 70
     1
  9
$LTSCALE
 40
1.0
  9
$ATTMODE
 70
     1
  9
$TEXTSIZE
 40
3.5
  9
$TRACEWID
 40
1.0
  9
$TEXTSTYLE
  7
Standard
  9
$CLAYER
  8
0
  9
$CELTYPE
  6
ByLayer
  9
$CECOLOR
 62
   256
  9
$CELTSCALE
 40
1.0
  9
$DISPSILH
 70
     0
  9
$DIMSCALE
 40
1.0
  9
$DIMASZ
 40
3.302
  9
$DIMEXO
 40
1.0
  9
$DIMDLI
 40
3.75
  9
$DIMRND
 40
0.0
  9
$DIMDLE
 40
0.0
  9
$DIMEXE
 40
1.0
  9
$DIMTP
 40
0.0
  9
$DIMTM
 40
0.0
  9
$DIMTXT
 40
3.5
  9
$DIMCEN
 40
2.5
  9
$DIMTSZ
 40
0.0
  9
$DIMTOL
 70
     0
  9
$DIMLIM
 70
     0
  9
$DIMTIH
 70
     1
  9
$DIMTOH
 70
     1
  9
$DIMSE1
 70
     0
  9
$DIMSE2
 70
     0
  9
$DIMTAD
 70
     1
  9
$DIMZIN
 70
     0
  9
$DIMBLK
  1

  9
$DIMASO
 70
     1
  9
$DIMSHO
 70
     1
  9
$DIMPOST
  1

  9
$DIMAPOST
  1

  9
$DIMALT
 70
     0
  9
$DIMALTD
 70
     3
  9
$DIMALTF
 40
0.0393700787
  9
$DIMLFAC
 40
1.0
  9
$DIMTOFL
 70
     1
  9
$DIMTVP
 40
0.0
  9
$DIMTIX
 70
     0
  9
$DIMSOXD
 70
     0
  9
$DIMSAH
 70
     0
  9
$DIMBLK1
  1

  9
$DIMBLK2
  1

  9
$DIMSTYLE
  2
ISO-25
  9
$DIMCLRD
 70
     0
  9
$DIMCLRE
 70
     0
  9
$DIMCLRT
 70
     0
  9
$DIMTFAC
 40
1.0
  9
$DIMGAP
 40
1.524
  9
$DIMJUST
 70
     0
  9
$DIMSD1
 70
     0
  9
$DIMSD2
 70
     0
  9
$DIMTOLJ
 70
     0
  9
$DIMTZIN
 70
     0
  9
$DIMALTZ
 70
     0
  9
$DIMALTTZ
 70
     0
  9
$DIMUPT
 70
     0
  9
$DIMDEC
 70
     2
  9
$DIMTDEC
 70
     2
  9
$DIMALTU
 70
     2
  9
$DIMALTTD
 70
     3
  9
$DIMTXSTY
  7
Standard
  9
$DIMAUNIT
 70
     0
  9
$DIMADEC
 70
     2
  9
$DIMALTRND
 40
0.0
  9
$DIMAZIN
 70
     0
  9
$DIMDSEP
 70
    44
  9
$DIMATFIT
 70
     3
  9
$DIMFRAC
 70
     0
  9
$DIMLDRBLK
  1

  9
$DIMLUNIT
 70
     2
  9
$DIMLWD
 70
    -2
  9
$DIMLWE
 70
    -2
  9
$DIMTMOVE
 70
     0
  9
$LUNITS
 70
     2
  9
$LUPREC
 70
     2
  9
$SKETCHINC
 40
1.0
  9
$FILLETRAD
 40
10.0
  9
$AUNITS
 70
     0
  9
$AUPREC
 70
     2
  9
$MENU
  1
.
  9
$ELEVATION
 40
0.0
  9
$PELEVATION
 40
0.0
  9
$THICKNESS
 40
0.0
  9
$LIMCHECK
 70
     0
  9
$CHAMFERA
 40
0.0
  9
$CHAMFERB
 40
0.0
  9
$CHAMFERC
 40
0.0
  9
$CHAMFERD
 40
0.0
  9
$SKPOLY
 70
     0
  9
$TDCREATE
 40
2457262.946469329
  9
$TDUCREATE
 40
2457262.863135995
  9
$TDUPDATE
 40
2457262.94647066
  9
$TDUUPDATE
 40
2457262.863137326
  9
$TDINDWG
 40
0.0000000116
  9
$TDUSRTIMER
 40
0.0000000116
  9
$USRTIMER
 70
     1
  9
$ANGBASE
 50
0.0
  9
$ANGDIR
 70
     0
  9
$PDMODE
 70
     0
  9
$PDSIZE
 40
-1.0
  9
$PLINEWID
 40
0.0
  9
$SPLFRAME
 70
     0
  9
$SPLINETYPE
 70
     6
  9
$SPLINESEGS
 70
     8
  9
$HANDSEED
  5
74E
  9
$SURFTAB1
 70
     6
  9
$SURFTAB2
 70
     6
  9
$SURFTYPE
 70
     6
  9
$SURFU
 70
     6
  9
$SURFV
 70
     6
  9
$UCSBASE
  2

  9
$UCSNAME
  2

  9
$UCSORG
 10
0.0
 20
0.0
 30
0.0
  9
$UCSXDIR
 10
1.0
 20
0.0
 30
0.0
  9
$UCSYDIR
 10
0.0
 20
1.0
 30
0.0
  9
$UCSORTHOREF
  2

  9
$UCSORTHOVIEW
 70
     0
  9
$UCSORGTOP
 10
0.0
 20
0.0
 30
0.0
  9
$UCSORGBOTTOM
 10
0.0
 20
0.0
 30
0.0
  9
$UCSORGLEFT
 10
0.0
 20
0.0
 30
0.0
  9
$UCSORGRIGHT
 10
0.0
 20
0.0
 30
0.0
  9
$UCSORGFRONT
 10
0.0
 20
0.0
 30
0.0
  9
$UCSORGBACK
 10
0.0
 20
0.0
 30
0.0
  9
$PUCSBASE
  2

  9
$PUCSNAME
  2

  9
$PUCSORG
 10
0.0
 20
0.0
 30
0.0
  9
$PUCSXDIR
 10
1.0
 20
0.0
 30
0.0
  9
$PUCSYDIR
 10
0.0
 20
1.0
 30
0.0
  9
$PUCSORTHOREF
  2

  9
$PUCSORTHOVIEW
 70
     0
  9
$PUCSORGTOP
 10
0.0
 20
0.0
 30
0.0
  9
$PUCSORGBOTTOM
 10
0.0
 20
0.0
 30
0.0
  9
$PUCSORGLEFT
 10
0.0
 20
0.0
 30
0.0
  9
$PUCSORGRIGHT
 10
0.0
 20
0.0
 30
0.0
  9
$PUCSORGFRONT
 10
0.0
 20
0.0
 30
0.0
  9
$PUCSORGBACK
 10
0.0
 20
0.0
 30
0.0
  9
$USERI1
 70
     0
  9
$USERI2
 70
     0
  9
$USERI3
 70
     0
  9
$USERI4
 70
     0
  9
$USERI5
 70
     0
  9
$USERR1
 40
0.0
  9
$USERR2
 40
0.0
  9
$USERR3
 40
0.0
  9
$USERR4
 40
0.0
  9
$USERR5
 40
0.0
  9
$WORLDVIEW
 70
     1
  9
$SHADEDGE
 70
     3
  9
$SHADEDIF
 70
    70
  9
$TILEMODE
 70
     1
  9
$MAXACTVP
 70
    64
  9
$PINSBASE
 10
0.0
 20
0.0
 30
0.0
  9
$PLIMCHECK
 70
     0
  9
$PEXTMIN
 10
1.0000000000E+20
 20
1.0000000000E+20
 30
1.0000000000E+20
  9
$PEXTMAX
 10
-1.0000000000E+20
 20
-1.0000000000E+20
 30
-1.0000000000E+20
  9
$PLIMMIN
 10
0.0
 20
0.0
  9
$PLIMMAX
 10
420.0
 20
297.0
  9
$UNITMODE
 70
     0
  9
$VISRETAIN
 70
     1
  9
$PLINEGEN
 70
     0
  9
$PSLTSCALE
 70
     1
  9
$TREEDEPTH
 70
  3020
  9
$CMLSTYLE
  2
Standard
  9
$CMLJUST
 70
     0
  9
$CMLSCALE
 40
20.0
  9
$PROXYGRAPHICS
 70
     1
  9
$MEASUREMENT
 70
     1
  9
$CELWEIGHT
370
    -1
  9
$ENDCAPS
280
     0
  9
$JOINSTYLE
280
     0
  9
$LWDISPLAY
290
     1
  9
$INSUNITS
 70
     4
  9
$HYPERLINKBASE
  1

  9
$STYLESHEET
  1

  9
$XEDIT
290
     1
  9
$CEPSNTYPE
380
     0
  9
$PSTYLEMODE
290
     1
  9
$FINGERPRINTGUID
  2
{908BF709-AFA9-48C6-A07D-78EBF09A2AC6}
  9
$VERSIONGUID
  2
{FAEB1C32-E019-11D5-929B-00C0DF256EC4}
  9
$EXTNAMES
290
     1
  9
$PSVPSCALE
 40
0.0
  9
$OLESTARTUP
290
     0
  0
ENDSEC
  0
SECTION
  2
CLASSES
  0
CLASS
  1
ACDBDICTIONARYWDFLT
  2
AcDbDictionaryWithDefault
  3
ObjectDBX Classes
 90
        0
280
     0
281
     0
  0
CLASS
  1
VISUALSTYLE
  2
AcDbVisualStyle
  3
ObjectDBX Classes
 90
     4095
280
     0
281
     0
  0
CLASS
  1
MATERIAL
  2
AcDbMaterial
  3
ObjectDBX Classes
 90
     1153
280
     0
281
     0
  0
CLASS
  1
SCALE
  2
AcDbScale
  3
ObjectDBX Classes
 90
     1153
280
     0
281
     0
  0
CLASS
  1
TABLESTYLE
  2
AcDbTableStyle
  3
ObjectDBX Classes
 90
     4095
280
     0
281
     0
  0
CLASS
  1
MLEADERSTYLE
  2
AcDbMLeaderStyle
  3
ACDB_MLEADERSTYLE_CLASS
 90
     4095
280
     0
281
     0
  0
CLASS
  1
SUN
  2
AcDbSun
  3
SCENEOE
 90
     1153
280
     0
281
     0
  0
CLASS
  1
ACDBPLACEHOLDER
  2
AcDbPlaceHolder
  3
ObjectDBX Classes
 90
        0
280
     0
281
     0
  0
CLASS
  1
LAYOUT
  2
AcDbLayout
  3
ObjectDBX Classes
 90
        0
280
     0
281
     0
  0
ENDSEC
  0
SECTION
  2
TABLES
  0
TABLE
  2
VPORT
  5
8
330
0
100
AcDbSymbolTable
 70
     1
  0
VPORT
  5
29
330
8
100
AcDbSymbolTableRecord
100
AcDbViewportTableRecord
  2
*Active
 70
     0
 10
0.0
 20
0.0
 11
1.0
 21
1.0
 12
148.5
 22
105.0
 13
0.0
 23
0.0
 14
10.0
 24
10.0
 15
10.0
 25
10.0
 16
0.0
 26
0.0
 36
1.0
 17
0.0
 27
0.0
 37
0.0
 40
210.0
 41
1.4142857143
 42
50.0
 43
0.0
 44
0.0
 50
0.0
 51
0.0
 71
     0
 72
  2000
 73
     1
 74
     3
 75
     0
 76
     0
 77
     0
 78
     0
281
     0
 65
     1
110
0.0
120
0.0
130
0.0
111
1.0
121
0.0
131
0.0
112
0.0
122
1.0
132
0.0
 79
     0
146
0.0
  0
ENDTAB
  0
TABLE
  2
LTYPE
  5
5
330
0
100
AcDbSymbolTable
 70
     6
  0
LTYPE
  5
14
330
5
100
AcDbSymbolTableRecord
100
AcDbLinetypeTableRecord
  2
ByBlock
 70
     0
  3

 72
    65
 73
     0
 40
0.0
  0
LTYPE
  5
15
330
5
100
AcDbSymbolTableRecord
100
AcDbLinetypeTableRecord
  2
ByLayer
 70
     0
  3

 72
    65
 73
     0
 40
0.0
  0
LTYPE
  5
16
330
5
100
AcDbSymbolTableRecord
100
AcDbLinetypeTableRecord
  2
Continuous
 70
     0
  3
Solid line
 72
    65
 73
     0
 40
0.0
  0
LTYPE
  5
6E
330
5
100
AcDbSymbolTableRecord
100
AcDbLinetypeTableRecord
  2
HIDDEN
 70
     0
  3
Hidden __ __ __ __ __ __ __ __ __ __ __ __ __ __
 72
    65
 73
     2
 40
1.905
 49
1.27
 74
     0
 49
-0.635
 74
     0
  0
LTYPE
  5
6F
330
5
100
AcDbSymbolTableRecord
100
AcDbLinetypeTableRecord
  2
PHANTOM
 70
     0
  3
Phantom ______  __  __  ______  __  __  ______
 72
    65
 73
     6
 40
12.7
 49
6.35
 74
     0
 49
-1.27
 74
     0
 49
1.27
 74
     0
 49
-1.27
 74
     0
 49
1.27
 74
     0
 49
-1.27
 74
     0
  0
LTYPE
  5
70
330
5
100
AcDbSymbolTableRecord
100
AcDbLinetypeTableRecord
  2
CENTER
 70
     0
  3
Center ____ _ ____ _ ____ _ ____ _ ____ _ ____
 72
    65
 73
     4
 40
10.16
 49
6.35
 74
     0
 49
-1.27
 74
     0
 49
1.27
 74
     0
 49
-1.27
 74
     0
  0
LTYPE
  5
71
330
5
100
AcDbSymbolTableRecord
100
AcDbLinetypeTableRecord
  2
CENTERX2
 70
     0
  3
Center (2x) ________  __  ________  __  _____
 72
    65
 73
     4
 40
20.32
 49
12.7
 74
     0
 49
-2.54
 74
     0
 49
2.54
 74
     0
 49
-2.54
 74
     0
  0
LTYPE
  5
72
330
5
100
AcDbSymbolTableRecord
100
AcDbLinetypeTableRecord
  2
DOT2
 70
     0
  3
Dot (.5x) ........................................
 72
    65
 73
     2
 40
0.635
 49
0.0
 74
     0
 49
-0.635
 74
     0
  0
ENDTAB
  0
TABLE
  2
LAYER
  5
2
330
0
100
AcDbSymbolTable
 70
     2
  0
LAYER
  5
10
330
2
100
AcDbSymbolTableRecord
100
AcDbLayerTableRecord
  2
0
 70
     0
 62
     7
  6
Continuous
370
    -3
390
F
  0
LAYER
  5
73
330
2
100
AcDbSymbolTableRecord
100
AcDbLayerTableRecord
  2
FORMAT
 70
     0
 62
     7
  6
Continuous
370
    -3
390
F
  0
ENDTAB
  0
TABLE
  2
STYLE
  5
3
330
0
100
AcDbSymbolTable
 70
     3
  0
STYLE
  5
11
330
3
100
AcDbSymbolTableRecord
100
AcDbTextStyleTableRecord
  2
Standard
 70
     0
 40
0.0
 41
1.0
 50
0.0
 71
     0
 42
3.5
  3
txt
  4

  0
STYLE
  5
89
330
3
100
AcDbSymbolTableRecord
100
AcDbTextStyleTableRecord
  2
SLDTEXTSTYLE0
 70
     0
 40
0.0
 41
0.75
 50
0.0
 71
     0
 42
3.5
  3
TXT
  4

  0
STYLE
  5
8F
330
3
100
AcDbSymbolTableRecord
100
AcDbTextStyleTableRecord
  2
SLDTEXTSTYLE1
 70
     0
 40
0.0
 41
0.6923076923
 50
0.0
 71
     0
 42
3.5
  3
TXT
  4

  0
ENDTAB
  0
TABLE
  2
VIEW
  5
6
330
0
100
AcDbSymbolTable
 70
     0
  0
ENDTAB
  0
TABLE
  2
UCS
  5
7
330
0
100
AcDbSymbolTable
 70
     0
  0
ENDTAB
  0
TABLE
  2
APPID
  5
9
330
0
100
AcDbSymbolTable
 70
     1
  0
APPID
  5
12
330
9
100
AcDbSymbolTableRecord
100
AcDbRegAppTableRecord
  2
ACAD
 70
     0
  0
ENDTAB
  0
TABLE
  2
DIMSTYLE
  5
A
330
0
100
AcDbSymbolTable
 70
     1
100
AcDbDimStyleTable
  0
DIMSTYLE
105
27
330
A
100
AcDbSymbolTableRecord
100
AcDbDimStyleTableRecord
  2
ISO-25
 70
     0
 41
2.5
 42
0.625
 43
3.75
 44
1.25
 73
     0
 74
     0
 77
     1
 78
     8
140
2.5
141
2.5
143
0.0393700787
147
0.625
171
     3
172
     1
178
     0
271
     2
272
     2
274
     3
278
    44
283
     0
284
     8
340
11
  0
ENDTAB
  0
TABLE
  2
BLOCK_RECORD
  5
1
330
0
100
AcDbSymbolTable
 70
     1
  0
BLOCK_RECORD
  5
1F
330
1
100
AcDbSymbolTableRecord
100
AcDbBlockTableRecord
  2
*Model_Space
340
22
  0
BLOCK_RECORD
  5
1B
330
1
100
AcDbSymbolTableRecord
100
AcDbBlockTableRecord
  2
*Paper_Space
340
1E
  0
BLOCK_RECORD
  5
23
330
1
100
AcDbSymbolTableRecord
100
AcDbBlockTableRecord
  2
*Paper_Space0
340
26
  0
ENDTAB
  0
ENDSEC
  0
SECTION
  2
BLOCKS
  0
BLOCK
  5
20
330
1F
100
AcDbEntity
  8
0
100
AcDbBlockBegin
  2
*Model_Space
 70
     0
 10
0.0
 20
0.0
 30
0.0
  3
*Model_Space
  1

  0
ENDBLK
  5
21
330
1F
100
AcDbEntity
  8
0
100
AcDbBlockEnd
  0
BLOCK
  5
1C
330
1B
100
AcDbEntity
 67
     1
  8
0
100
AcDbBlockBegin
  2
*Paper_Space
 70
     0
 10
0.0
 20
0.0
 30
0.0
  3
*Paper_Space
  1

  0
ENDBLK
  5
1D
330
1B
100
AcDbEntity
 67
     1
  8
0
100
AcDbBlockEnd
  0
BLOCK
  5
24
330
23
100
AcDbEntity
  8
0
100
AcDbBlockBegin
  2
*Paper_Space0
 70
     0
 10
0.0
 20
0.0
 30
0.0
  3
*Paper_Space0
  1

  0
ENDBLK
  5
25
330
23
100
AcDbEntity
  8
0
100
AcDbBlockEnd
  0
ENDSEC
  0
SECTION
  2
ENTITIES
  0
LINE
  5
74
330
1F
100
AcDbEntity
  8
0
  6
Continuous
 62
     7
370
     0
100
AcDbLine
 10
292.0
 20
205.0
 30
0.0
 11
292.0
 21
5.0
 31
0.0
  0
LINE
  5
75
330
1F
100
AcDbEntity
  8
0
  6
Continuous
 62
     7
370
     0
100
AcDbLine
 10
200.0477725477
 20
34.75
 30
0.0
 11
292.0
 21
34.75
 31
0.0
  0
LINE
  5
76
330
1F
100
AcDbEntity
  8
0
  6
Continuous
 62
     7
370
     0
100
AcDbLine
 10
159.4
 20
9.25
 30
0.0
 11
292.0
 21
9.25
 31
0.0
  0
LINE
  5
77
330
1F
100
AcDbEntity
  8
0
  6
Continuous
 62
     7
370
     0
100
AcDbLine
 10
292.0
 20
22.0
 30
0.0
 11
279.0
 21
22.0
 31
0.0
  0
LINE
  5
78
330
1F
100
AcDbEntity
  8
0
  6
Continuous
 62
     7
370
     0
100
AcDbLine
 10
159.4
 20
22.0
 30
0.0
 11
200.0477725477
 21
22.0
 31
0.0
  0
LINE
  5
79
330
1F
100
AcDbEntity
  8
0
  6
Continuous
 62
     7
370
     0
100
AcDbLine
 10
200.0477725477
 20
34.75
 30
0.0
 11
200.0477725477
 21
5.0
 31
0.0
  0
LINE
  5
7A
330
1F
100
AcDbEntity
  8
0
  6
Continuous
 62
     7
370
     0
100
AcDbLine
 10
247.8
 20
5.0
 30
0.0
 11
247.8
 21
9.25
 31
0.0
  0
LINE
  5
7B
330
1F
100
AcDbEntity
  8
0
  6
Continuous
 62
     7
370
     0
100
AcDbLine
 10
279.0
 20
9.25
 30
0.0
 11
279.0
 21
15.4949693602
 31
0.0
  0
LINE
  5
7C
330
1F
100
AcDbEntity
  8
0
  6
Continuous
 62
     7
370
     0
100
AcDbLine
 10
159.4
 20
34.75
 30
0.0
 11
200.0477725477
 21
34.75
 31
0.0
  0
LINE
  5
7D
330
1F
100
AcDbEntity
  8
0
  6
Continuous
 62
     7
370
     0
100
AcDbLine
 10
292.0
 20
15.4949693602
 30
0.0
 11
279.0
 21
15.4949693602
 31
0.0
  0
LINE
  5
7E
330
1F
100
AcDbEntity
  8
0
  6
Continuous
 62
     7
370
     0
100
AcDbLine
 10
200.0477725477
 20
22.0
 30
0.0
 11
279.0
 21
22.0
 31
0.0
  0
LINE
  5
7F
330
1F
100
AcDbEntity
  8
0
  6
Continuous
 62
     7
370
     0
100
AcDbLine
 10
159.4
 20
34.75
 30
0.0
 11
159.4
 21
22.0
 31
0.0
  0
LINE
  5
80
330
1F
100
AcDbEntity
  8
0
  6
Continuous
 62
     7
370
     0
100
AcDbLine
 10
159.4
 20
22.0
 30
0.0
 11
170.5777725477
 21
22.0
 31
0.0
  0
LINE
  5
81
330
1F
100
AcDbEntity
  8
0
  6
Continuous
 62
     7
370
     0
100
AcDbLine
 10
292.0
 20
205.0
 30
0.0
 11
5.0
 21
205.0
 31
0.0
  0
LINE
  5
82
330
1F
100
AcDbEntity
  8
0
  6
Continuous
 62
     7
370
     0
100
AcDbLine
 10
5.0
 20
205.0
 30
0.0
 11
5.0
 21
5.0
 31
0.0
  0
LINE
  5
83
330
1F
100
AcDbEntity
  8
0
  6
Continuous
 62
     7
370
     0
100
AcDbLine
 10
5.0
 20
5.0
 30
0.0
 11
292.0
 21
5.0
 31
0.0
  0
LINE
  5
84
330
1F
100
AcDbEntity
  8
0
  6
Continuous
 62
     7
370
     0
100
AcDbLine
 10
170.5777725477
 20
22.0
 30
0.0
 11
159.4
 21
22.0
 31
0.0
  0
LINE
  5
85
330
1F
100
AcDbEntity
  8
0
  6
Continuous
 62
     7
370
     0
100
AcDbLine
 10
279.0
 20
15.4949693602
 30
0.0
 11
279.0
 21
22.0
 31
0.0
  0
LINE
  5
86
330
1F
100
AcDbEntity
  8
0
  6
Continuous
 62
     7
370
     0
100
AcDbLine
 10
159.4
 20
28.375
 30
0.0
 11
200.0477725477
 21
28.375
 31
0.0
  0
LINE
  5
87
330
1F
100
AcDbEntity
  8
0
  6
Continuous
 62
     7
370
     0
100
AcDbLine
 10
159.4
 20
22.0
 30
0.0
 11
159.4
 21
9.25
 31
0.0
  0
LINE
  5
88
330
1F
100
AcDbEntity
  8
0
  6
Continuous
 62
     7
370
     0
100
AcDbLine
 10
159.4
 20
5.0
 30
0.0
 11
159.4
 21
9.25
 31
0.0
  0
MTEXT
  5
8A
330
1F
100
AcDbEntity
  8
0
  6
Continuous
 62
     7
370
     0
100
AcDbMText
 10
280.2769372799
 20
19.4324449477
 30
0.0
 40
1.5
 41
0.0
 71
     1
 72
     1
  1
Blattformat
  7
SLDTEXTSTYLE0
 73
     1
 44
1.0
  0
MTEXT
  5
8B
330
1F
100
AcDbEntity
  8
0
  6
Continuous
 62
     7
370
     0
100
AcDbMText
 10
162.3415030554
 20
20.132024916
 30
0.0
 40
1.5
 41
0.0
 71
     1
 72
     1
  1
Werkstoff:
  7
SLDTEXTSTYLE0
 73
     1
 44
1.0
  0
MTEXT
  5
8C
330
1F
100
AcDbEntity
  8
0
  6
Continuous
 62
     7
370
     0
100
AcDbMText
 10
205.7519230807
 20
32.246101463
 30
0.0
 40
1.5
 41
0.0
 71
     1
 72
     1
  1
Artikelnummer
  7
SLDTEXTSTYLE0
 73
     1
 44
1.0
  0
MTEXT
  5
8D
330
1F
100
AcDbEntity
  8
0
  6
Continuous
 62
     7
370
     0
100
AcDbMText
 10
205.7519230807
 20
20.132024916
 30
0.0
 40
1.5
 41
0.0
 71
     1
 72
     1
  1
Hersteller
  7
SLDTEXTSTYLE0
 73
     1
 44
1.0
  0
MTEXT
  5
8E
330
1F
100
AcDbEntity
  8
0
  6
Continuous
 62
     7
370
     0
100
AcDbMText
 10
205.7519230807
 20
7.9000872745
 30
0.0
 40
1.5
 41
0.0
 71
     1
 72
     1
  1
Massstab: 1:5
  7
SLDTEXTSTYLE0
 73
     1
 44
1.0
  0
MTEXT
  5
90
330
1F
100
AcDbEntity
  8
0
  6
Continuous
 62
     7
370
     0
100
AcDbMText
 10
249.2782944278
 20
7.9000872745
 30
0.0
 40
1.5
 41
0.0
 71
     1
 72
     1
  1
Blatt 1 von 1
  7
SLDTEXTSTYLE1
 73
     1
 44
1.0
  0
MTEXT
  5
91
330
1F
100
AcDbEntity
  8
0
  6
Continuous
 62
     7
370
     0
100
AcDbMText
 10
283.018201252
 20
14.214493588
 30
0.0
 40
2.9104166667
 41
0.0
 71
     1
 72
     1
  1
A4
  7
SLDTEXTSTYLE0
 73
     1
 44
1.0
  0
MTEXT
  5
92
330
1F
100
AcDbEntity
  8
0
  6
Continuous
 62
     7
370
     0
100
AcDbMText
 10
178.5078638109
 20
32.6767067468
 30
0.0
 40
1.5
 41
0.0
 71
     2
 72
     1
  1
Datum
  7
SLDTEXTSTYLE0
 73
     1
 44
1.0
  0
MTEXT
  5
93
330
1F
100
AcDbEntity
  8
0
  6
Continuous
 62
     7
370
     0
100
AcDbMText
 10
178.6757516496
 20
26.1783247858
 30
0.0
 40
1.5
 41
0.0
 71
     2
 72
     1
  1
27.08.2015
  7
SLDTEXTSTYLE0
 73
     1
 44
1.0
  0
MTEXT
  5
94
330
1F
100
AcDbEntity
  8
0
  6
Continuous
 62
     7
370
     0
100
AcDbMText
 10
170.5412426978
 20
7.9264469029
 30
0.0
 40
1.5
 41
0.0
 71
     2
 72
     1
  1
Gewicht 2.728 kg
  7
SLDTEXTSTYLE0
 73
     1
 44
1.0
  0
MTEXT
  5
95
330
1F
100
AcDbEntity
  8
0
  6
Continuous
 62
     7
370
     0
100
AcDbMText
 10
162.3415030554
 20
15.2183590171
 30
0.0
 40
1.5875
 41
0.0
 71
     1
 72
     1
  1
1.0037 (S235JR)
  7
SLDTEXTSTYLE0
 73
     1
 44
1.0
  0
MTEXT
  5
96
330
1F
100
AcDbEntity
  8
0
  6
Continuous
 62
     7
370
     0
100
AcDbMText
 10
205.7519230807
 20
28.5765342567
 30
0.0
 40
4.2333333333
 41
0.0
 71
     1
 72
     1
  1
23.39393030.7
  7
SLDTEXTSTYLE0
 73
     1
 44
1.0
  0
MTEXT
  5
97
330
1F
100
AcDbEntity
  8
0
  6
Continuous
 62
     7
370
     0
100
AcDbMText
 10
262.1283772718
 20
32.3081309996
 30
0.0
 40
1.5875
 41
0.0
 71
     1
 72
     1
  1
Feuerverzinkt
  7
SLDTEXTSTYLE0
 73
     1
 44
1.0
  0
MTEXT
  5
98
330
1F
100
AcDbEntity
  8
0
  6
Continuous
 62
     7
370
     0
100
AcDbMText
 10
249.2038165615
 20
32.246101463
 30
0.0
 40
1.5
 41
0.0
 71
     1
 72
     1
  1
Oberfläche:
  7
SLDTEXTSTYLE0
 73
     1
 44
1.0
  0
MTEXT
  5
99
330
1F
100
AcDbEntity
  8
0
  6
Continuous
 62
     7
370
     0
100
AcDbMText
 10
216.9962519388
 20
17.8618823378
 30
0.0
 40
4.2333333333
 41
0.0
 71
     1
 72
     1
  1
FeNau GmbH
  7
SLDTEXTSTYLE0
 73
     1
 44
1.0
  0
LINE
  5
9A
330
1F
100
AcDbEntity
  8
0
  6
Continuous
 62
     7
370
    15
100
AcDbLine
 10
146.1954481734
 20
174.2094339623
 30
0.0
 11
146.1954481734
 21
168.2094339623
 31
0.0
  0
LINE
  5
9B
330
1F
100
AcDbEntity
  8
0
  6
Continuous
 62
     7
370
    15
100
AcDbLine
 10
146.1954481734
 20
168.2094339623
 30
0.0
 11
68.1954481734
 21
168.2094339623
 31
0.0
  0
LINE
  5
9C
330
1F
100
AcDbEntity
  8
0
  6
Continuous
 62
     7
370
    15
100
AcDbLine
 10
68.1954481734
 20
168.2094339623
 30
0.0
 11
68.1954481734
 21
174.2094339623
 31
0.0
  0
LINE
  5
9D
330
1F
100
AcDbEntity
  8
0
  6
Continuous
 62
     7
370
    15
100
AcDbLine
 10
146.1954481734
 20
174.2094339623
 30
0.0
 11
68.1954481734
 21
174.2094339623
 31
0.0
  0
LINE
  5
9E
330
1F
100
AcDbEntity
  8
0
  6
Continuous
 62
     7
370
    15
100
AcDbLine
 10
76.0954481734
 20
122.7424553302
 30
0.0
 11
70.0954481734
 21
122.7424553302
 31
0.0
  0
LINE
  5
9F
330
1F
100
AcDbEntity
  8
0
  6
Continuous
 62
     7
370
    15
100
AcDbLine
 10
76.0954481734
 20
128.4924553302
 30
0.0
 11
76.0954481734
 21
122.7424553302
 31
0.0
  0
LINE
  5
A0
330
1F
100
AcDbEntity
  8
0
  6
Continuous
 62
     7
370
    15
100
AcDbLine
 10
70.0954481734
 20
128.4924553302
 30
0.0
 11
76.0954481734
 21
128.4924553302
 31
0.0
  0
LINE
  5
A1
330
1F
100
AcDbEntity
  8
0
  6
Continuous
 62
     7
370
    15
100
AcDbLine
 10
70.0954481734
 20
128.4924553302
 30
0.0
 11
70.0954481734
 21
122.7424553302
 31
0.0
  0
LINE
  5
A2
330
1F
100
AcDbEntity
  8
0
  6
Continuous
 62
     7
370
    15
100
AcDbLine
 10
76.0954481734
 20
59.4424553302
 30
0.0
 11
76.0954481734
 21
53.6924553302
 31
0.0
  0
LINE
  5
A3
330
1F
100
AcDbEntity
  8
0
  6
Continuous
 62
     7
370
    15
100
AcDbLine
 10
76.0954481734
 20
59.4424553302
 30
0.0
 11
70.0954481734
 21
59.4424553302
 31
0.0
  0
LINE
  5
A4
330
1F
100
AcDbEntity
  8
0
  6
Continuous
 62
     7
370
    15
100
AcDbLine
 10
70.0954481734
 20
59.4424553302
 30
0.0
 11
70.0954481734
 21
53.6924553302
 31
0.0
  0
LINE
  5
A5
330
1F
100
AcDbEntity
  8
0
  6
Continuous
 62
     7
370
    15
100
AcDbLine
 10
76.0954481734
 20
53.6924553302
 30
0.0
 11
70.0954481734
 21
53.6924553302
 31
0.0
  0
LINE
  5
A6
330
1F
100
AcDbEntity
  8
0
  6
Continuous
 62
     7
370
    15
100
AcDbLine
 10
69.7954481734
 20
122.4424553302
 30
0.0
 11
69.7954481734
 21
116.4424553302
 31
0.0
  0
LINE
  5
A7
330
1F
100
AcDbEntity
  8
0
  6
Continuous
 62
     7
370
    15
100
AcDbLine
 10
69.8954481734
 20
116.4424553302
 30
0.0
 11
69.7954481734
 21
116.4424553302
 31
0.0
  0
LINE
  5
A8
330
1F
100
AcDbEntity
  8
0
  6
Continuous
 62
     7
370
    15
100
AcDbLine
 10
69.8954481734
 20
122.4424553302
 30
0.0
 11
69.8954481734
 21
116.4424553302
 31
0.0
  0
LINE
  5
A9
330
1F
100
AcDbEntity
  8
0
  6
Continuous
 62
     7
370
    15
100
AcDbLine
 10
69.8954481734
 20
122.4424553302
 30
0.0
 11
69.7954481734
 21
122.4424553302
 31
0.0
  0
LINE
  5
AA
330
1F
100
AcDbEntity
  8
0
  6
Continuous
 62
     7
370
    15
100
AcDbLine
 10
69.7954481734
 20
116.1424553302
 30
0.0
 11
69.7954481734
 21
110.1424553302
 31
0.0
  0
LINE
  5
AB
330
1F
100
AcDbEntity
  8
0
  6
Continuous
 62
     7
370
    15
100
AcDbLine
 10
69.8954481734
 20
110.1424553302
 30
0.0
 11
69.7954481734
 21
110.1424553302
 31
0.0
  0
LINE
  5
AC
330
1F
100
AcDbEntity
  8
0
  6
Continuous
 62
     7
370
    15
100
AcDbLine
 10
69.8954481734
 20
116.1424553302
 30
0.0
 11
69.8954481734
 21
110.1424553302
 31
0.0
  0
LINE
  5
AD
330
1F
100
AcDbEntity
  8
0
  6
Continuous
 62
     7
370
    15
100
AcDbLine
 10
69.8954481734
 20
116.1424553302
 30
0.0
 11
69.7954481734
 21
116.1424553302
 31
0.0
  0
LINE
  5
AE
330
1F
100
AcDbEntity
  8
0
  6
Continuous
 62
     7
370
    15
100
AcDbLine
 10
69.7954481734
 20
109.8424553302
 30
0.0
 11
69.7954481734
 21
103.8424553302
 31
0.0
  0
LINE
  5
AF
330
1F
100
AcDbEntity
  8
0
  6
Continuous
 62
     7
370
    15
100
AcDbLine
 10
69.8954481734
 20
103.8424553302
 30
0.0
 11
69.7954481734
 21
103.8424553302
 31
0.0
  0
LINE
  5
B0
330
1F
100
AcDbEntity
  8
0
  6
Continuous
 62
     7
370
    15
100
AcDbLine
 10
69.8954481734
 20
109.8424553302
 30
0.0
 11
69.8954481734
 21
103.8424553302
 31
0.0
  0
LINE
  5
B1
330
1F
100
AcDbEntity
  8
0
  6
Continuous
 62
     7
370
    15
100
AcDbLine
 10
69.8954481734
 20
109.8424553302
 30
0.0
 11
69.7954481734
 21
109.8424553302
 31
0.0
  0
LINE
  5
B2
330
1F
100
AcDbEntity
  8
0
  6
Continuous
 62
     7
370
    15
100
AcDbLine
 10
69.7954481734
 20
103.5424553302
 30
0.0
 11
69.7954481734
 21
97.5424553302
 31
0.0
  0
LINE
  5
B3
330
1F
100
AcDbEntity
  8
0
  6
Continuous
 62
     7
370
    15
100
AcDbLine
 10
69.8954481734
 20
97.5424553302
 30
0.0
 11
69.7954481734
 21
97.5424553302
 31
0.0
  0
LINE
  5
B4
330
1F
100
AcDbEntity
  8
0
  6
Continuous
 62
     7
370
    15
100
AcDbLine
 10
69.8954481734
 20
103.5424553302
 30
0.0
 11
69.8954481734
 21
97.5424553302
 31
0.0
  0
LINE
  5
B5
330
1F
100
AcDbEntity
  8
0
  6
Continuous
 62
     7
370
    15
100
AcDbLine
 10
69.8954481734
 20
103.5424553302
 30
0.0
 11
69.7954481734
 21
103.5424553302
 31
0.0
  0
LINE
  5
B6
330
1F
100
AcDbEntity
  8
0
  6
Continuous
 62
     7
370
    15
100
AcDbLine
 10
69.7954481734
 20
97.2424553302
 30
0.0
 11
69.7954481734
 21
91.2424553302
 31
0.0
  0
LINE
  5
B7
330
1F
100
AcDbEntity
  8
0
  6
Continuous
 62
     7
370
    15
100
AcDbLine
 10
69.8954481734
 20
91.2424553302
 30
0.0
 11
69.7954481734
 21
91.2424553302
 31
0.0
  0
LINE
  5
B8
330
1F
100
AcDbEntity
  8
0
  6
Continuous
 62
     7
370
    15
100
AcDbLine
 10
69.8954481734
 20
97.2424553302
 30
0.0
 11
69.8954481734
 21
91.2424553302
 31
0.0
  0
LINE
  5
B9
330
1F
100
AcDbEntity
  8
0
  6
Continuous
 62
     7
370
    15
100
AcDbLine
 10
69.8954481734
 20
97.2424553302
 30
0.0
 11
69.7954481734
 21
97.2424553302
 31
0.0
  0
LINE
  5
BA
330
1F
100
AcDbEntity
  8
0
  6
Continuous
 62
     7
370
    15
100
AcDbLine
 10
69.7954481734
 20
90.9424553302
 30
0.0
 11
69.7954481734
 21
84.9424553302
 31
0.0
  0
LINE
  5
BB
330
1F
100
AcDbEntity
  8
0
  6
Continuous
 62
     7
370
    15
100
AcDbLine
 10
69.8954481734
 20
84.9424553302
 30
0.0
 11
69.7954481734
 21
84.9424553302
 31
0.0
  0
LINE
  5
BC
330
1F
100
AcDbEntity
  8
0
  6
Continuous
 62
     7
370
    15
100
AcDbLine
 10
69.8954481734
 20
90.9424553302
 30
0.0
 11
69.8954481734
 21
84.9424553302
 31
0.0
  0
LINE
  5
BD
330
1F
100
AcDbEntity
  8
0
  6
Continuous
 62
     7
370
    15
100
AcDbLine
 10
69.8954481734
 20
90.9424553302
 30
0.0
 11
69.7954481734
 21
90.9424553302
 31
0.0
  0
LINE
  5
BE
330
1F
100
AcDbEntity
  8
0
  6
Continuous
 62
     7
370
    15
100
AcDbLine
 10
69.7954481734
 20
84.6424553302
 30
0.0
 11
69.7954481734
 21
78.6424553302
 31
0.0
  0
LINE
  5
BF
330
1F
100
AcDbEntity
  8
0
  6
Continuous
 62
     7
370
    15
100
AcDbLine
 10
69.8954481734
 20
78.6424553302
 30
0.0
 11
69.7954481734
 21
78.6424553302
 31
0.0
  0
LINE
  5
C0
330
1F
100
AcDbEntity
  8
0
  6
Continuous
 62
     7
370
    15
100
AcDbLine
 10
69.8954481734
 20
84.6424553302
 30
0.0
 11
69.8954481734
 21
78.6424553302
 31
0.0
  0
LINE
  5
C1
330
1F
100
AcDbEntity
  8
0
  6
Continuous
 62
     7
370
    15
100
AcDbLine
 10
69.8954481734
 20
84.6424553302
 30
0.0
 11
69.7954481734
 21
84.6424553302
 31
0.0
  0
LINE
  5
C2
330
1F
100
AcDbEntity
  8
0
  6
Continuous
 62
     7
370
    15
100
AcDbLine
 10
69.7954481734
 20
78.3424553302
 30
0.0
 11
69.7954481734
 21
72.3424553302
 31
0.0
  0
LINE
  5
C3
330
1F
100
AcDbEntity
  8
0
  6
Continuous
 62
     7
370
    15
100
AcDbLine
 10
69.8954481734
 20
72.3424553302
 30
0.0
 11
69.7954481734
 21
72.3424553302
 31
0.0
  0
LINE
  5
C4
330
1F
100
AcDbEntity
  8
0
  6
Continuous
 62
     7
370
    15
100
AcDbLine
 10
69.8954481734
 20
78.3424553302
 30
0.0
 11
69.8954481734
 21
72.3424553302
 31
0.0
  0
LINE
  5
C5
330
1F
100
AcDbEntity
  8
0
  6
Continuous
 62
     7
370
    15
100
AcDbLine
 10
69.8954481734
 20
78.3424553302
 30
0.0
 11
69.7954481734
 21
78.3424553302
 31
0.0
  0
LINE
  5
C6
330
1F
100
AcDbEntity
  8
0
  6
Continuous
 62
     7
370
    15
100
AcDbLine
 10
69.7954481734
 20
72.0424553302
 30
0.0
 11
69.7954481734
 21
66.0424553302
 31
0.0
  0
LINE
  5
C7
330
1F
100
AcDbEntity
  8
0
  6
Continuous
 62
     7
370
    15
100
AcDbLine
 10
69.8954481734
 20
66.0424553302
 30
0.0
 11
69.7954481734
 21
66.0424553302
 31
0.0
  0
LINE
  5
C8
330
1F
100
AcDbEntity
  8
0
  6
Continuous
 62
     7
370
    15
100
AcDbLine
 10
69.8954481734
 20
72.0424553302
 30
0.0
 11
69.8954481734
 21
66.0424553302
 31
0.0
  0
LINE
  5
C9
330
1F
100
AcDbEntity
  8
0
  6
Continuous
 62
     7
370
    15
100
AcDbLine
 10
69.8954481734
 20
72.0424553302
 30
0.0
 11
69.7954481734
 21
72.0424553302
 31
0.0
  0
LINE
  5
CA
330
1F
100
AcDbEntity
  8
0
  6
Continuous
 62
     7
370
    15
100
AcDbLine
 10
69.7954481734
 20
65.7424553302
 30
0.0
 11
69.7954481734
 21
59.7424553302
 31
0.0
  0
LINE
  5
CB
330
1F
100
AcDbEntity
  8
0
  6
Continuous
 62
     7
370
    15
100
AcDbLine
 10
69.8954481734
 20
59.7424553302
 30
0.0
 11
69.7954481734
 21
59.7424553302
 31
0.0
  0
LINE
  5
CC
330
1F
100
AcDbEntity
  8
0
  6
Continuous
 62
     7
370
    15
100
AcDbLine
 10
69.8954481734
 20
65.7424553302
 30
0.0
 11
69.8954481734
 21
59.7424553302
 31
0.0
  0
LINE
  5
CD
330
1F
100
AcDbEntity
  8
0
  6
Continuous
 62
     7
370
    15
100
AcDbLine
 10
69.8954481734
 20
65.7424553302
 30
0.0
 11
69.7954481734
 21
65.7424553302
 31
0.0
  0
LINE
  5
CE
330
1F
100
AcDbEntity
  8
0
  6
Continuous
 62
     7
370
    15
100
AcDbLine
 10
76.0954481734
 20
65.7424553302
 30
0.0
 11
76.0954481734
 21
59.7424553302
 31
0.0
  0
LINE
  5
CF
330
1F
100
AcDbEntity
  8
0
  6
Continuous
 62
     7
370
    15
100
AcDbLine
 10
76.0954481734
 20
65.7424553302
 30
0.0
 11
70.0954481734
 21
65.7424553302
 31
0.0
  0
LINE
  5
D0
330
1F
100
AcDbEntity
  8
0
  6
Continuous
 62
     7
370
    15
100
AcDbLine
 10
70.0954481734
 20
65.7424553302
 30
0.0
 11
70.0954481734
 21
59.7424553302
 31
0.0
  0
LINE
  5
D1
330
1F
100
AcDbEntity
  8
0
  6
Continuous
 62
     7
370
    15
100
AcDbLine
 10
76.0954481734
 20
59.7424553302
 30
0.0
 11
70.0954481734
 21
59.7424553302
 31
0.0
  0
LINE
  5
D2
330
1F
100
AcDbEntity
  8
0
  6
Continuous
 62
     7
370
    15
100
AcDbLine
 10
76.0954481734
 20
72.0424553302
 30
0.0
 11
76.0954481734
 21
66.0424553302
 31
0.0
  0
LINE
  5
D3
330
1F
100
AcDbEntity
  8
0
  6
Continuous
 62
     7
370
    15
100
AcDbLine
 10
76.0954481734
 20
72.0424553302
 30
0.0
 11
70.0954481734
 21
72.0424553302
 31
0.0
  0
LINE
  5
D4
330
1F
100
AcDbEntity
  8
0
  6
Continuous
 62
     7
370
    15
100
AcDbLine
 10
70.0954481734
 20
72.0424553302
 30
0.0
 11
70.0954481734
 21
66.0424553302
 31
0.0
  0
LINE
  5
D5
330
1F
100
AcDbEntity
  8
0
  6
Continuous
 62
     7
370
    15
100
AcDbLine
 10
76.0954481734
 20
66.0424553302
 30
0.0
 11
70.0954481734
 21
66.0424553302
 31
0.0
  0
LINE
  5
D6
330
1F
100
AcDbEntity
  8
0
  6
Continuous
 62
     7
370
    15
100
AcDbLine
 10
76.0954481734
 20
78.3424553302
 30
0.0
 11
76.0954481734
 21
72.3424553302
 31
0.0
  0
LINE
  5
D7
330
1F
100
AcDbEntity
  8
0
  6
Continuous
 62
     7
370
    15
100
AcDbLine
 10
76.0954481734
 20
78.3424553302
 30
0.0
 11
70.0954481734
 21
78.3424553302
 31
0.0
  0
LINE
  5
D8
330
1F
100
AcDbEntity
  8
0
  6
Continuous
 62
     7
370
    15
100
AcDbLine
 10
70.0954481734
 20
78.3424553302
 30
0.0
 11
70.0954481734
 21
72.3424553302
 31
0.0
  0
LINE
  5
D9
330
1F
100
AcDbEntity
  8
0
  6
Continuous
 62
     7
370
    15
100
AcDbLine
 10
76.0954481734
 20
72.3424553302
 30
0.0
 11
70.0954481734
 21
72.3424553302
 31
0.0
  0
LINE
  5
DA
330
1F
100
AcDbEntity
  8
0
  6
Continuous
 62
     7
370
    15
100
AcDbLine
 10
76.0954481734
 20
84.6424553302
 30
0.0
 11
76.0954481734
 21
78.6424553302
 31
0.0
  0
LINE
  5
DB
330
1F
100
AcDbEntity
  8
0
  6
Continuous
 62
     7
370
    15
100
AcDbLine
 10
76.0954481734
 20
84.6424553302
 30
0.0
 11
70.0954481734
 21
84.6424553302
 31
0.0
  0
LINE
  5
DC
330
1F
100
AcDbEntity
  8
0
  6
Continuous
 62
     7
370
    15
100
AcDbLine
 10
70.0954481734
 20
84.6424553302
 30
0.0
 11
70.0954481734
 21
78.6424553302
 31
0.0
  0
LINE
  5
DD
330
1F
100
AcDbEntity
  8
0
  6
Continuous
 62
     7
370
    15
100
AcDbLine
 10
76.0954481734
 20
78.6424553302
 30
0.0
 11
70.0954481734
 21
78.6424553302
 31
0.0
  0
LINE
  5
DE
330
1F
100
AcDbEntity
  8
0
  6
Continuous
 62
     7
370
    15
100
AcDbLine
 10
76.0954481734
 20
90.9424553302
 30
0.0
 11
76.0954481734
 21
84.9424553302
 31
0.0
  0
LINE
  5
DF
330
1F
100
AcDbEntity
  8
0
  6
Continuous
 62
     7
370
    15
100
AcDbLine
 10
76.0954481734
 20
90.9424553302
 30
0.0
 11
70.0954481734
 21
90.9424553302
 31
0.0
  0
LINE
  5
E0
330
1F
100
AcDbEntity
  8
0
  6
Continuous
 62
     7
370
    15
100
AcDbLine
 10
70.0954481734
 20
90.9424553302
 30
0.0
 11
70.0954481734
 21
84.9424553302
 31
0.0
  0
LINE
  5
E1
330
1F
100
AcDbEntity
  8
0
  6
Continuous
 62
     7
370
    15
100
AcDbLine
 10
76.0954481734
 20
84.9424553302
 30
0.0
 11
70.0954481734
 21
84.9424553302
 31
0.0
  0
LINE
  5
E2
330
1F
100
AcDbEntity
  8
0
  6
Continuous
 62
     7
370
    15
100
AcDbLine
 10
76.0954481734
 20
97.2424553302
 30
0.0
 11
76.0954481734
 21
91.2424553302
 31
0.0
  0
LINE
  5
E3
330
1F
100
AcDbEntity
  8
0
  6
Continuous
 62
     7
370
    15
100
AcDbLine
 10
76.0954481734
 20
97.2424553302
 30
0.0
 11
70.0954481734
 21
97.2424553302
 31
0.0
  0
LINE
  5
E4
330
1F
100
AcDbEntity
  8
0
  6
Continuous
 62
     7
370
    15
100
AcDbLine
 10
70.0954481734
 20
97.2424553302
 30
0.0
 11
70.0954481734
 21
91.2424553302
 31
0.0
  0
LINE
  5
E5
330
1F
100
AcDbEntity
  8
0
  6
Continuous
 62
     7
370
    15
100
AcDbLine
 10
76.0954481734
 20
91.2424553302
 30
0.0
 11
70.0954481734
 21
91.2424553302
 31
0.0
  0
LINE
  5
E6
330
1F
100
AcDbEntity
  8
0
  6
Continuous
 62
     7
370
    15
100
AcDbLine
 10
76.0954481734
 20
103.5424553302
 30
0.0
 11
76.0954481734
 21
97.5424553302
 31
0.0
  0
LINE
  5
E7
330
1F
100
AcDbEntity
  8
0
  6
Continuous
 62
     7
370
    15
100
AcDbLine
 10
76.0954481734
 20
103.5424553302
 30
0.0
 11
70.0954481734
 21
103.5424553302
 31
0.0
  0
LINE
  5
E8
330
1F
100
AcDbEntity
  8
0
  6
Continuous
 62
     7
370
    15
100
AcDbLine
 10
70.0954481734
 20
103.5424553302
 30
0.0
 11
70.0954481734
 21
97.5424553302
 31
0.0
  0
LINE
  5
E9
330
1F
100
AcDbEntity
  8
0
  6
Continuous
 62
     7
370
    15
100
AcDbLine
 10
76.0954481734
 20
97.5424553302
 30
0.0
 11
70.0954481734
 21
97.5424553302
 31
0.0
  0
LINE
  5
EA
330
1F
100
AcDbEntity
  8
0
  6
Continuous
 62
     7
370
    15
100
AcDbLine
 10
76.0954481734
 20
109.8424553302
 30
0.0
 11
76.0954481734
 21
103.8424553302
 31
0.0
  0
LINE
  5
EB
330
1F
100
AcDbEntity
  8
0
  6
Continuous
 62
     7
370
    15
100
AcDbLine
 10
76.0954481734
 20
109.8424553302
 30
0.0
 11
70.0954481734
 21
109.8424553302
 31
0.0
  0
LINE
  5
EC
330
1F
100
AcDbEntity
  8
0
  6
Continuous
 62
     7
370
    15
100
AcDbLine
 10
70.0954481734
 20
109.8424553302
 30
0.0
 11
70.0954481734
 21
103.8424553302
 31
0.0
  0
LINE
  5
ED
330
1F
100
AcDbEntity
  8
0
  6
Continuous
 62
     7
370
    15
100
AcDbLine
 10
76.0954481734
 20
103.8424553302
 30
0.0
 11
70.0954481734
 21
103.8424553302
 31
0.0
  0
LINE
  5
EE
330
1F
100
AcDbEntity
  8
0
  6
Continuous
 62
     7
370
    15
100
AcDbLine
 10
76.0954481734
 20
116.1424553302
 30
0.0
 11
76.0954481734
 21
110.1424553302
 31
0.0
  0
LINE
  5
EF
330
1F
100
AcDbEntity
  8
0
  6
Continuous
 62
     7
370
    15
100
AcDbLine
 10
76.0954481734
 20
116.1424553302
 30
0.0
 11
70.0954481734
 21
116.1424553302
 31
0.0
  0
LINE
  5
F0
330
1F
100
AcDbEntity
  8
0
  6
Continuous
 62
     7
370
    15
100
AcDbLine
 10
70.0954481734
 20
116.1424553302
 30
0.0
 11
70.0954481734
 21
110.1424553302
 31
0.0
  0
LINE
  5
F1
330
1F
100
AcDbEntity
  8
0
  6
Continuous
 62
     7
370
    15
100
AcDbLine
 10
76.0954481734
 20
110.1424553302
 30
0.0
 11
70.0954481734
 21
110.1424553302
 31
0.0
  0
LINE
  5
F2
330
1F
100
AcDbEntity
  8
0
  6
Continuous
 62
     7
370
    15
100
AcDbLine
 10
76.0954481734
 20
122.4424553302
 30
0.0
 11
76.0954481734
 21
116.4424553302
 31
0.0
  0
LINE
  5
F3
330
1F
100
AcDbEntity
  8
0
  6
Continuous
 62
     7
370
    15
100
AcDbLine
 10
76.0954481734
 20
122.4424553302
 30
0.0
 11
70.0954481734
 21
122.4424553302
 31
0.0
  0
LINE
  5
F4
330
1F
100
AcDbEntity
  8
0
  6
Continuous
 62
     7
370
    15
100
AcDbLine
 10
70.0954481734
 20
122.4424553302
 30
0.0
 11
70.0954481734
 21
116.4424553302
 31
0.0
  0
LINE
  5
F5
330
1F
100
AcDbEntity
  8
0
  6
Continuous
 62
     7
370
    15
100
AcDbLine
 10
76.0954481734
 20
116.4424553302
 30
0.0
 11
70.0954481734
 21
116.4424553302
 31
0.0
  0
LINE
  5
F6
330
1F
100
AcDbEntity
  8
0
  6
Continuous
 62
     7
370
    15
100
AcDbLine
 10
82.2954481734
 20
122.7424553302
 30
0.0
 11
76.2954481734
 21
122.7424553302
 31
0.0
  0
LINE
  5
F7
330
1F
100
AcDbEntity
  8
0
  6
Continuous
 62
     7
370
    15
100
AcDbLine
 10
82.2954481734
 20
128.4924553302
 30
0.0
 11
82.2954481734
 21
122.7424553302
 31
0.0
  0
LINE
  5
F8
330
1F
100
AcDbEntity
  8
0
  6
Continuous
 62
     7
370
    15
100
AcDbLine
 10
76.2954481734
 20
128.4924553302
 30
0.0
 11
82.2954481734
 21
128.4924553302
 31
0.0
  0
LINE
  5
F9
330
1F
100
AcDbEntity
  8
0
  6
Continuous
 62
     7
370
    15
100
AcDbLine
 10
76.2954481734
 20
128.4924553302
 30
0.0
 11
76.2954481734
 21
122.7424553302
 31
0.0
  0
LINE
  5
FA
330
1F
100
AcDbEntity
  8
0
  6
Continuous
 62
     7
370
    15
100
AcDbLine
 10
82.2954481734
 20
59.4424553302
 30
0.0
 11
82.2954481734
 21
53.6924553302
 31
0.0
  0
LINE
  5
FB
330
1F
100
AcDbEntity
  8
0
  6
Continuous
 62
     7
370
    15
100
AcDbLine
 10
82.2954481734
 20
59.4424553302
 30
0.0
 11
76.2954481734
 21
59.4424553302
 31
0.0
  0
LINE
  5
FC
330
1F
100
AcDbEntity
  8
0
  6
Continuous
 62
     7
370
    15
100
AcDbLine
 10
76.2954481734
 20
59.4424553302
 30
0.0
 11
76.2954481734
 21
53.6924553302
 31
0.0
  0
LINE
  5
FD
330
1F
100
AcDbEntity
  8
0
  6
Continuous
 62
     7
370
    15
100
AcDbLine
 10
82.2954481734
 20
53.6924553302
 30
0.0
 11
76.2954481734
 21
53.6924553302
 31
0.0
  0
LINE
  5
FE
330
1F
100
AcDbEntity
  8
0
  6
Continuous
 62
     7
370
    15
100
AcDbLine
 10
82.2954481734
 20
65.7424553302
 30
0.0
 11
82.2954481734
 21
59.7424553302
 31
0.0
  0
LINE
  5
FF
330
1F
100
AcDbEntity
  8
0
  6
Continuous
 62
     7
370
    15
100
AcDbLine
 10
82.2954481734
 20
65.7424553302
 30
0.0
 11
76.2954481734
 21
65.7424553302
 31
0.0
  0
LINE
  5
100
330
1F
100
AcDbEntity
  8
0
  6
Continuous
 62
     7
370
    15
100
AcDbLine
 10
76.2954481734
 20
65.7424553302
 30
0.0
 11
76.2954481734
 21
59.7424553302
 31
0.0
  0
LINE
  5
101
330
1F
100
AcDbEntity
  8
0
  6
Continuous
 62
     7
370
    15
100
AcDbLine
 10
82.2954481734
 20
59.7424553302
 30
0.0
 11
76.2954481734
 21
59.7424553302
 31
0.0
  0
LINE
  5
102
330
1F
100
AcDbEntity
  8
0
  6
Continuous
 62
     7
370
    15
100
AcDbLine
 10
82.2954481734
 20
72.0424553302
 30
0.0
 11
82.2954481734
 21
66.0424553302
 31
0.0
  0
LINE
  5
103
330
1F
100
AcDbEntity
  8
0
  6
Continuous
 62
     7
370
    15
100
AcDbLine
 10
82.2954481734
 20
72.0424553302
 30
0.0
 11
76.2954481734
 21
72.0424553302
 31
0.0
  0
LINE
  5
104
330
1F
100
AcDbEntity
  8
0
  6
Continuous
 62
     7
370
    15
100
AcDbLine
 10
76.2954481734
 20
72.0424553302
 30
0.0
 11
76.2954481734
 21
66.0424553302
 31
0.0
  0
LINE
  5
105
330
1F
100
AcDbEntity
  8
0
  6
Continuous
 62
     7
370
    15
100
AcDbLine
 10
82.2954481734
 20
66.0424553302
 30
0.0
 11
76.2954481734
 21
66.0424553302
 31
0.0
  0
LINE
  5
106
330
1F
100
AcDbEntity
  8
0
  6
Continuous
 62
     7
370
    15
100
AcDbLine
 10
82.2954481734
 20
78.3424553302
 30
0.0
 11
82.2954481734
 21
72.3424553302
 31
0.0
  0
LINE
  5
107
330
1F
100
AcDbEntity
  8
0
  6
Continuous
 62
     7
370
    15
100
AcDbLine
 10
82.2954481734
 20
78.3424553302
 30
0.0
 11
76.2954481734
 21
78.3424553302
 31
0.0
  0
LINE
  5
108
330
1F
100
AcDbEntity
  8
0
  6
Continuous
 62
     7
370
    15
100
AcDbLine
 10
76.2954481734
 20
78.3424553302
 30
0.0
 11
76.2954481734
 21
72.3424553302
 31
0.0
  0
LINE
  5
109
330
1F
100
AcDbEntity
  8
0
  6
Continuous
 62
     7
370
    15
100
AcDbLine
 10
82.2954481734
 20
72.3424553302
 30
0.0
 11
76.2954481734
 21
72.3424553302
 31
0.0
  0
LINE
  5
10A
330
1F
100
AcDbEntity
  8
0
  6
Continuous
 62
     7
370
    15
100
AcDbLine
 10
82.2954481734
 20
84.6424553302
 30
0.0
 11
82.2954481734
 21
78.6424553302
 31
0.0
  0
LINE
  5
10B
330
1F
100
AcDbEntity
  8
0
  6
Continuous
 62
     7
370
    15
100
AcDbLine
 10
82.2954481734
 20
84.6424553302
 30
0.0
 11
76.2954481734
 21
84.6424553302
 31
0.0
  0
LINE
  5
10C
330
1F
100
AcDbEntity
  8
0
  6
Continuous
 62
     7
370
    15
100
AcDbLine
 10
76.2954481734
 20
84.6424553302
 30
0.0
 11
76.2954481734
 21
78.6424553302
 31
0.0
  0
LINE
  5
10D
330
1F
100
AcDbEntity
  8
0
  6
Continuous
 62
     7
370
    15
100
AcDbLine
 10
82.2954481734
 20
78.6424553302
 30
0.0
 11
76.2954481734
 21
78.6424553302
 31
0.0
  0
LINE
  5
10E
330
1F
100
AcDbEntity
  8
0
  6
Continuous
 62
     7
370
    15
100
AcDbLine
 10
82.2954481734
 20
90.9424553302
 30
0.0
 11
82.2954481734
 21
84.9424553302
 31
0.0
  0
LINE
  5
10F
330
1F
100
AcDbEntity
  8
0
  6
Continuous
 62
     7
370
    15
100
AcDbLine
 10
82.2954481734
 20
90.9424553302
 30
0.0
 11
76.2954481734
 21
90.9424553302
 31
0.0
  0
LINE
  5
110
330
1F
100
AcDbEntity
  8
0
  6
Continuous
 62
     7
370
    15
100
AcDbLine
 10
76.2954481734
 20
90.9424553302
 30
0.0
 11
76.2954481734
 21
84.9424553302
 31
0.0
  0
LINE
  5
111
330
1F
100
AcDbEntity
  8
0
  6
Continuous
 62
     7
370
    15
100
AcDbLine
 10
82.2954481734
 20
84.9424553302
 30
0.0
 11
76.2954481734
 21
84.9424553302
 31
0.0
  0
LINE
  5
112
330
1F
100
AcDbEntity
  8
0
  6
Continuous
 62
     7
370
    15
100
AcDbLine
 10
82.2954481734
 20
97.2424553302
 30
0.0
 11
82.2954481734
 21
91.2424553302
 31
0.0
  0
LINE
  5
113
330
1F
100
AcDbEntity
  8
0
  6
Continuous
 62
     7
370
    15
100
AcDbLine
 10
82.2954481734
 20
97.2424553302
 30
0.0
 11
76.2954481734
 21
97.2424553302
 31
0.0
  0
LINE
  5
114
330
1F
100
AcDbEntity
  8
0
  6
Continuous
 62
     7
370
    15
100
AcDbLine
 10
76.2954481734
 20
97.2424553302
 30
0.0
 11
76.2954481734
 21
91.2424553302
 31
0.0
  0
LINE
  5
115
330
1F
100
AcDbEntity
  8
0
  6
Continuous
 62
     7
370
    15
100
AcDbLine
 10
82.2954481734
 20
91.2424553302
 30
0.0
 11
76.2954481734
 21
91.2424553302
 31
0.0
  0
LINE
  5
116
330
1F
100
AcDbEntity
  8
0
  6
Continuous
 62
     7
370
    15
100
AcDbLine
 10
82.2954481734
 20
103.5424553302
 30
0.0
 11
82.2954481734
 21
97.5424553302
 31
0.0
  0
LINE
  5
117
330
1F
100
AcDbEntity
  8
0
  6
Continuous
 62
     7
370
    15
100
AcDbLine
 10
82.2954481734
 20
103.5424553302
 30
0.0
 11
76.2954481734
 21
103.5424553302
 31
0.0
  0
LINE
  5
118
330
1F
100
AcDbEntity
  8
0
  6
Continuous
 62
     7
370
    15
100
AcDbLine
 10
76.2954481734
 20
103.5424553302
 30
0.0
 11
76.2954481734
 21
97.5424553302
 31
0.0
  0
LINE
  5
119
330
1F
100
AcDbEntity
  8
0
  6
Continuous
 62
     7
370
    15
100
AcDbLine
 10
82.2954481734
 20
97.5424553302
 30
0.0
 11
76.2954481734
 21
97.5424553302
 31
0.0
  0
LINE
  5
11A
330
1F
100
AcDbEntity
  8
0
  6
Continuous
 62
     7
370
    15
100
AcDbLine
 10
82.2954481734
 20
109.8424553302
 30
0.0
 11
82.2954481734
 21
103.8424553302
 31
0.0
  0
LINE
  5
11B
330
1F
100
AcDbEntity
  8
0
  6
Continuous
 62
     7
370
    15
100
AcDbLine
 10
82.2954481734
 20
109.8424553302
 30
0.0
 11
76.2954481734
 21
109.8424553302
 31
0.0
  0
LINE
  5
11C
330
1F
100
AcDbEntity
  8
0
  6
Continuous
 62
     7
370
    15
100
AcDbLine
 10
76.2954481734
 20
109.8424553302
 30
0.0
 11
76.2954481734
 21
103.8424553302
 31
0.0
  0
LINE
  5
11D
330
1F
100
AcDbEntity
  8
0
  6
Continuous
 62
     7
370
    15
100
AcDbLine
 10
82.2954481734
 20
103.8424553302
 30
0.0
 11
76.2954481734
 21
103.8424553302
 31
0.0
  0
LINE
  5
11E
330
1F
100
AcDbEntity
  8
0
  6
Continuous
 62
     7
370
    15
100
AcDbLine
 10
82.2954481734
 20
116.1424553302
 30
0.0
 11
82.2954481734
 21
110.1424553302
 31
0.0
  0
LINE
  5
11F
330
1F
100
AcDbEntity
  8
0
  6
Continuous
 62
     7
370
    15
100
AcDbLine
 10
82.2954481734
 20
116.1424553302
 30
0.0
 11
76.2954481734
 21
116.1424553302
 31
0.0
  0
LINE
  5
120
330
1F
100
AcDbEntity
  8
0
  6
Continuous
 62
     7
370
    15
100
AcDbLine
 10
76.2954481734
 20
116.1424553302
 30
0.0
 11
76.2954481734
 21
110.1424553302
 31
0.0
  0
LINE
  5
121
330
1F
100
AcDbEntity
  8
0
  6
Continuous
 62
     7
370
    15
100
AcDbLine
 10
82.2954481734
 20
110.1424553302
 30
0.0
 11
76.2954481734
 21
110.1424553302
 31
0.0
  0
LINE
  5
122
330
1F
100
AcDbEntity
  8
0
  6
Continuous
 62
     7
370
    15
100
AcDbLine
 10
82.2954481734
 20
122.4424553302
 30
0.0
 11
82.2954481734
 21
116.4424553302
 31
0.0
  0
LINE
  5
123
330
1F
100
AcDbEntity
  8
0
  6
Continuous
 62
     7
370
    15
100
AcDbLine
 10
82.2954481734
 20
122.4424553302
 30
0.0
 11
76.2954481734
 21
122.4424553302
 31
0.0
  0
LINE
  5
124
330
1F
100
AcDbEntity
  8
0
  6
Continuous
 62
     7
370
    15
100
AcDbLine
 10
76.2954481734
 20
122.4424553302
 30
0.0
 11
76.2954481734
 21
116.4424553302
 31
0.0
  0
LINE
  5
125
330
1F
100
AcDbEntity
  8
0
  6
Continuous
 62
     7
370
    15
100
AcDbLine
 10
82.2954481734
 20
116.4424553302
 30
0.0
 11
76.2954481734
 21
116.4424553302
 31
0.0
  0
LINE
  5
126
330
1F
100
AcDbEntity
  8
0
  6
Continuous
 62
     7
370
    15
100
AcDbLine
 10
88.4954481734
 20
122.7424553302
 30
0.0
 11
82.4954481734
 21
122.7424553302
 31
0.0
  0
LINE
  5
127
330
1F
100
AcDbEntity
  8
0
  6
Continuous
 62
     7
370
    15
100
AcDbLine
 10
88.4954481734
 20
128.4924553302
 30
0.0
 11
88.4954481734
 21
122.7424553302
 31
0.0
  0
LINE
  5
128
330
1F
100
AcDbEntity
  8
0
  6
Continuous
 62
     7
370
    15
100
AcDbLine
 10
82.4954481734
 20
128.4924553302
 30
0.0
 11
88.4954481734
 21
128.4924553302
 31
0.0
  0
LINE
  5
129
330
1F
100
AcDbEntity
  8
0
  6
Continuous
 62
     7
370
    15
100
AcDbLine
 10
82.4954481734
 20
128.4924553302
 30
0.0
 11
82.4954481734
 21
122.7424553302
 31
0.0
  0
LINE
  5
12A
330
1F
100
AcDbEntity
  8
0
  6
Continuous
 62
     7
370
    15
100
AcDbLine
 10
88.4954481734
 20
59.4424553302
 30
0.0
 11
88.4954481734
 21
53.6924553302
 31
0.0
  0
LINE
  5
12B
330
1F
100
AcDbEntity
  8
0
  6
Continuous
 62
     7
370
    15
100
AcDbLine
 10
88.4954481734
 20
59.4424553302
 30
0.0
 11
82.4954481734
 21
59.4424553302
 31
0.0
  0
LINE
  5
12C
330
1F
100
AcDbEntity
  8
0
  6
Continuous
 62
     7
370
    15
100
AcDbLine
 10
82.4954481734
 20
59.4424553302
 30
0.0
 11
82.4954481734
 21
53.6924553302
 31
0.0
  0
LINE
  5
12D
330
1F
100
AcDbEntity
  8
0
  6
Continuous
 62
     7
370
    15
100
AcDbLine
 10
88.4954481734
 20
53.6924553302
 30
0.0
 11
82.4954481734
 21
53.6924553302
 31
0.0
  0
LINE
  5
12E
330
1F
100
AcDbEntity
  8
0
  6
Continuous
 62
     7
370
    15
100
AcDbLine
 10
88.4954481734
 20
65.7424553302
 30
0.0
 11
88.4954481734
 21
59.7424553302
 31
0.0
  0
LINE
  5
12F
330
1F
100
AcDbEntity
  8
0
  6
Continuous
 62
     7
370
    15
100
AcDbLine
 10
88.4954481734
 20
65.7424553302
 30
0.0
 11
82.4954481734
 21
65.7424553302
 31
0.0
  0
LINE
  5
130
330
1F
100
AcDbEntity
  8
0
  6
Continuous
 62
     7
370
    15
100
AcDbLine
 10
82.4954481734
 20
65.7424553302
 30
0.0
 11
82.4954481734
 21
59.7424553302
 31
0.0
  0
LINE
  5
131
330
1F
100
AcDbEntity
  8
0
  6
Continuous
 62
     7
370
    15
100
AcDbLine
 10
88.4954481734
 20
59.7424553302
 30
0.0
 11
82.4954481734
 21
59.7424553302
 31
0.0
  0
LINE
  5
132
330
1F
100
AcDbEntity
  8
0
  6
Continuous
 62
     7
370
    15
100
AcDbLine
 10
88.4954481734
 20
72.0424553302
 30
0.0
 11
88.4954481734
 21
66.0424553302
 31
0.0
  0
LINE
  5
133
330
1F
100
AcDbEntity
  8
0
  6
Continuous
 62
     7
370
    15
100
AcDbLine
 10
88.4954481734
 20
72.0424553302
 30
0.0
 11
82.4954481734
 21
72.0424553302
 31
0.0
  0
LINE
  5
134
330
1F
100
AcDbEntity
  8
0
  6
Continuous
 62
     7
370
    15
100
AcDbLine
 10
82.4954481734
 20
72.0424553302
 30
0.0
 11
82.4954481734
 21
66.0424553302
 31
0.0
  0
LINE
  5
135
330
1F
100
AcDbEntity
  8
0
  6
Continuous
 62
     7
370
    15
100
AcDbLine
 10
88.4954481734
 20
66.0424553302
 30
0.0
 11
82.4954481734
 21
66.0424553302
 31
0.0
  0
LINE
  5
136
330
1F
100
AcDbEntity
  8
0
  6
Continuous
 62
     7
370
    15
100
AcDbLine
 10
88.4954481734
 20
78.3424553302
 30
0.0
 11
88.4954481734
 21
72.3424553302
 31
0.0
  0
LINE
  5
137
330
1F
100
AcDbEntity
  8
0
  6
Continuous
 62
     7
370
    15
100
AcDbLine
 10
88.4954481734
 20
78.3424553302
 30
0.0
 11
82.4954481734
 21
78.3424553302
 31
0.0
  0
LINE
  5
138
330
1F
100
AcDbEntity
  8
0
  6
Continuous
 62
     7
370
    15
100
AcDbLine
 10
82.4954481734
 20
78.3424553302
 30
0.0
 11
82.4954481734
 21
72.3424553302
 31
0.0
  0
LINE
  5
139
330
1F
100
AcDbEntity
  8
0
  6
Continuous
 62
     7
370
    15
100
AcDbLine
 10
88.4954481734
 20
72.3424553302
 30
0.0
 11
82.4954481734
 21
72.3424553302
 31
0.0
  0
LINE
  5
13A
330
1F
100
AcDbEntity
  8
0
  6
Continuous
 62
     7
370
    15
100
AcDbLine
 10
88.4954481734
 20
84.6424553302
 30
0.0
 11
88.4954481734
 21
78.6424553302
 31
0.0
  0
LINE
  5
13B
330
1F
100
AcDbEntity
  8
0
  6
Continuous
 62
     7
370
    15
100
AcDbLine
 10
88.4954481734
 20
84.6424553302
 30
0.0
 11
82.4954481734
 21
84.6424553302
 31
0.0
  0
LINE
  5
13C
330
1F
100
AcDbEntity
  8
0
  6
Continuous
 62
     7
370
    15
100
AcDbLine
 10
82.4954481734
 20
84.6424553302
 30
0.0
 11
82.4954481734
 21
78.6424553302
 31
0.0
  0
LINE
  5
13D
330
1F
100
AcDbEntity
  8
0
  6
Continuous
 62
     7
370
    15
100
AcDbLine
 10
88.4954481734
 20
78.6424553302
 30
0.0
 11
82.4954481734
 21
78.6424553302
 31
0.0
  0
LINE
  5
13E
330
1F
100
AcDbEntity
  8
0
  6
Continuous
 62
     7
370
    15
100
AcDbLine
 10
88.4954481734
 20
90.9424553302
 30
0.0
 11
88.4954481734
 21
84.9424553302
 31
0.0
  0
LINE
  5
13F
330
1F
100
AcDbEntity
  8
0
  6
Continuous
 62
     7
370
    15
100
AcDbLine
 10
88.4954481734
 20
90.9424553302
 30
0.0
 11
82.4954481734
 21
90.9424553302
 31
0.0
  0
LINE
  5
140
330
1F
100
AcDbEntity
  8
0
  6
Continuous
 62
     7
370
    15
100
AcDbLine
 10
82.4954481734
 20
90.9424553302
 30
0.0
 11
82.4954481734
 21
84.9424553302
 31
0.0
  0
LINE
  5
141
330
1F
100
AcDbEntity
  8
0
  6
Continuous
 62
     7
370
    15
100
AcDbLine
 10
88.4954481734
 20
84.9424553302
 30
0.0
 11
82.4954481734
 21
84.9424553302
 31
0.0
  0
LINE
  5
142
330
1F
100
AcDbEntity
  8
0
  6
Continuous
 62
     7
370
    15
100
AcDbLine
 10
88.4954481734
 20
97.2424553302
 30
0.0
 11
88.4954481734
 21
91.2424553302
 31
0.0
  0
LINE
  5
143
330
1F
100
AcDbEntity
  8
0
  6
Continuous
 62
     7
370
    15
100
AcDbLine
 10
88.4954481734
 20
97.2424553302
 30
0.0
 11
82.4954481734
 21
97.2424553302
 31
0.0
  0
LINE
  5
144
330
1F
100
AcDbEntity
  8
0
  6
Continuous
 62
     7
370
    15
100
AcDbLine
 10
82.4954481734
 20
97.2424553302
 30
0.0
 11
82.4954481734
 21
91.2424553302
 31
0.0
  0
LINE
  5
145
330
1F
100
AcDbEntity
  8
0
  6
Continuous
 62
     7
370
    15
100
AcDbLine
 10
88.4954481734
 20
91.2424553302
 30
0.0
 11
82.4954481734
 21
91.2424553302
 31
0.0
  0
LINE
  5
146
330
1F
100
AcDbEntity
  8
0
  6
Continuous
 62
     7
370
    15
100
AcDbLine
 10
88.4954481734
 20
103.5424553302
 30
0.0
 11
88.4954481734
 21
97.5424553302
 31
0.0
  0
LINE
  5
147
330
1F
100
AcDbEntity
  8
0
  6
Continuous
 62
     7
370
    15
100
AcDbLine
 10
88.4954481734
 20
103.5424553302
 30
0.0
 11
82.4954481734
 21
103.5424553302
 31
0.0
  0
LINE
  5
148
330
1F
100
AcDbEntity
  8
0
  6
Continuous
 62
     7
370
    15
100
AcDbLine
 10
82.4954481734
 20
103.5424553302
 30
0.0
 11
82.4954481734
 21
97.5424553302
 31
0.0
  0
LINE
  5
149
330
1F
100
AcDbEntity
  8
0
  6
Continuous
 62
     7
370
    15
100
AcDbLine
 10
88.4954481734
 20
97.5424553302
 30
0.0
 11
82.4954481734
 21
97.5424553302
 31
0.0
  0
LINE
  5
14A
330
1F
100
AcDbEntity
  8
0
  6
Continuous
 62
     7
370
    15
100
AcDbLine
 10
88.4954481734
 20
109.8424553302
 30
0.0
 11
88.4954481734
 21
103.8424553302
 31
0.0
  0
LINE
  5
14B
330
1F
100
AcDbEntity
  8
0
  6
Continuous
 62
     7
370
    15
100
AcDbLine
 10
88.4954481734
 20
109.8424553302
 30
0.0
 11
82.4954481734
 21
109.8424553302
 31
0.0
  0
LINE
  5
14C
330
1F
100
AcDbEntity
  8
0
  6
Continuous
 62
     7
370
    15
100
AcDbLine
 10
82.4954481734
 20
109.8424553302
 30
0.0
 11
82.4954481734
 21
103.8424553302
 31
0.0
  0
LINE
  5
14D
330
1F
100
AcDbEntity
  8
0
  6
Continuous
 62
     7
370
    15
100
AcDbLine
 10
88.4954481734
 20
103.8424553302
 30
0.0
 11
82.4954481734
 21
103.8424553302
 31
0.0
  0
LINE
  5
14E
330
1F
100
AcDbEntity
  8
0
  6
Continuous
 62
     7
370
    15
100
AcDbLine
 10
88.4954481734
 20
116.1424553302
 30
0.0
 11
88.4954481734
 21
110.1424553302
 31
0.0
  0
LINE
  5
14F
330
1F
100
AcDbEntity
  8
0
  6
Continuous
 62
     7
370
    15
100
AcDbLine
 10
88.4954481734
 20
116.1424553302
 30
0.0
 11
82.4954481734
 21
116.1424553302
 31
0.0
  0
LINE
  5
150
330
1F
100
AcDbEntity
  8
0
  6
Continuous
 62
     7
370
    15
100
AcDbLine
 10
82.4954481734
 20
116.1424553302
 30
0.0
 11
82.4954481734
 21
110.1424553302
 31
0.0
  0
LINE
  5
151
330
1F
100
AcDbEntity
  8
0
  6
Continuous
 62
     7
370
    15
100
AcDbLine
 10
88.4954481734
 20
110.1424553302
 30
0.0
 11
82.4954481734
 21
110.1424553302
 31
0.0
  0
LINE
  5
152
330
1F
100
AcDbEntity
  8
0
  6
Continuous
 62
     7
370
    15
100
AcDbLine
 10
88.4954481734
 20
122.4424553302
 30
0.0
 11
88.4954481734
 21
116.4424553302
 31
0.0
  0
LINE
  5
153
330
1F
100
AcDbEntity
  8
0
  6
Continuous
 62
     7
370
    15
100
AcDbLine
 10
88.4954481734
 20
122.4424553302
 30
0.0
 11
82.4954481734
 21
122.4424553302
 31
0.0
  0
LINE
  5
154
330
1F
100
AcDbEntity
  8
0
  6
Continuous
 62
     7
370
    15
100
AcDbLine
 10
82.4954481734
 20
122.4424553302
 30
0.0
 11
82.4954481734
 21
116.4424553302
 31
0.0
  0
LINE
  5
155
330
1F
100
AcDbEntity
  8
0
  6
Continuous
 62
     7
370
    15
100
AcDbLine
 10
88.4954481734
 20
116.4424553302
 30
0.0
 11
82.4954481734
 21
116.4424553302
 31
0.0
  0
LINE
  5
156
330
1F
100
AcDbEntity
  8
0
  6
Continuous
 62
     7
370
    15
100
AcDbLine
 10
94.6954481734
 20
122.7424553302
 30
0.0
 11
88.6954481734
 21
122.7424553302
 31
0.0
  0
LINE
  5
157
330
1F
100
AcDbEntity
  8
0
  6
Continuous
 62
     7
370
    15
100
AcDbLine
 10
94.6954481734
 20
128.4924553302
 30
0.0
 11
94.6954481734
 21
122.7424553302
 31
0.0
  0
LINE
  5
158
330
1F
100
AcDbEntity
  8
0
  6
Continuous
 62
     7
370
    15
100
AcDbLine
 10
88.6954481734
 20
128.4924553302
 30
0.0
 11
94.6954481734
 21
128.4924553302
 31
0.0
  0
LINE
  5
159
330
1F
100
AcDbEntity
  8
0
  6
Continuous
 62
     7
370
    15
100
AcDbLine
 10
88.6954481734
 20
128.4924553302
 30
0.0
 11
88.6954481734
 21
122.7424553302
 31
0.0
  0
LINE
  5
15A
330
1F
100
AcDbEntity
  8
0
  6
Continuous
 62
     7
370
    15
100
AcDbLine
 10
94.6954481734
 20
59.4424553302
 30
0.0
 11
94.6954481734
 21
53.6924553302
 31
0.0
  0
LINE
  5
15B
330
1F
100
AcDbEntity
  8
0
  6
Continuous
 62
     7
370
    15
100
AcDbLine
 10
94.6954481734
 20
59.4424553302
 30
0.0
 11
88.6954481734
 21
59.4424553302
 31
0.0
  0
LINE
  5
15C
330
1F
100
AcDbEntity
  8
0
  6
Continuous
 62
     7
370
    15
100
AcDbLine
 10
88.6954481734
 20
59.4424553302
 30
0.0
 11
88.6954481734
 21
53.6924553302
 31
0.0
  0
LINE
  5
15D
330
1F
100
AcDbEntity
  8
0
  6
Continuous
 62
     7
370
    15
100
AcDbLine
 10
94.6954481734
 20
53.6924553302
 30
0.0
 11
88.6954481734
 21
53.6924553302
 31
0.0
  0
LINE
  5
15E
330
1F
100
AcDbEntity
  8
0
  6
Continuous
 62
     7
370
    15
100
AcDbLine
 10
94.6954481734
 20
65.7424553302
 30
0.0
 11
94.6954481734
 21
59.7424553302
 31
0.0
  0
LINE
  5
15F
330
1F
100
AcDbEntity
  8
0
  6
Continuous
 62
     7
370
    15
100
AcDbLine
 10
94.6954481734
 20
65.7424553302
 30
0.0
 11
88.6954481734
 21
65.7424553302
 31
0.0
  0
LINE
  5
160
330
1F
100
AcDbEntity
  8
0
  6
Continuous
 62
     7
370
    15
100
AcDbLine
 10
88.6954481734
 20
65.7424553302
 30
0.0
 11
88.6954481734
 21
59.7424553302
 31
0.0
  0
LINE
  5
161
330
1F
100
AcDbEntity
  8
0
  6
Continuous
 62
     7
370
    15
100
AcDbLine
 10
94.6954481734
 20
59.7424553302
 30
0.0
 11
88.6954481734
 21
59.7424553302
 31
0.0
  0
LINE
  5
162
330
1F
100
AcDbEntity
  8
0
  6
Continuous
 62
     7
370
    15
100
AcDbLine
 10
94.6954481734
 20
72.0424553302
 30
0.0
 11
94.6954481734
 21
66.0424553302
 31
0.0
  0
LINE
  5
163
330
1F
100
AcDbEntity
  8
0
  6
Continuous
 62
     7
370
    15
100
AcDbLine
 10
94.6954481734
 20
72.0424553302
 30
0.0
 11
88.6954481734
 21
72.0424553302
 31
0.0
  0
LINE
  5
164
330
1F
100
AcDbEntity
  8
0
  6
Continuous
 62
     7
370
    15
100
AcDbLine
 10
88.6954481734
 20
72.0424553302
 30
0.0
 11
88.6954481734
 21
66.0424553302
 31
0.0
  0
LINE
  5
165
330
1F
100
AcDbEntity
  8
0
  6
Continuous
 62
     7
370
    15
100
AcDbLine
 10
94.6954481734
 20
66.0424553302
 30
0.0
 11
88.6954481734
 21
66.0424553302
 31
0.0
  0
LINE
  5
166
330
1F
100
AcDbEntity
  8
0
  6
Continuous
 62
     7
370
    15
100
AcDbLine
 10
94.6954481734
 20
78.3424553302
 30
0.0
 11
94.6954481734
 21
72.3424553302
 31
0.0
  0
LINE
  5
167
330
1F
100
AcDbEntity
  8
0
  6
Continuous
 62
     7
370
    15
100
AcDbLine
 10
94.6954481734
 20
78.3424553302
 30
0.0
 11
88.6954481734
 21
78.3424553302
 31
0.0
  0
LINE
  5
168
330
1F
100
AcDbEntity
  8
0
  6
Continuous
 62
     7
370
    15
100
AcDbLine
 10
88.6954481734
 20
78.3424553302
 30
0.0
 11
88.6954481734
 21
72.3424553302
 31
0.0
  0
LINE
  5
169
330
1F
100
AcDbEntity
  8
0
  6
Continuous
 62
     7
370
    15
100
AcDbLine
 10
94.6954481734
 20
72.3424553302
 30
0.0
 11
88.6954481734
 21
72.3424553302
 31
0.0
  0
LINE
  5
16A
330
1F
100
AcDbEntity
  8
0
  6
Continuous
 62
     7
370
    15
100
AcDbLine
 10
94.6954481734
 20
84.6424553302
 30
0.0
 11
94.6954481734
 21
78.6424553302
 31
0.0
  0
LINE
  5
16B
330
1F
100
AcDbEntity
  8
0
  6
Continuous
 62
     7
370
    15
100
AcDbLine
 10
94.6954481734
 20
84.6424553302
 30
0.0
 11
88.6954481734
 21
84.6424553302
 31
0.0
  0
LINE
  5
16C
330
1F
100
AcDbEntity
  8
0
  6
Continuous
 62
     7
370
    15
100
AcDbLine
 10
88.6954481734
 20
84.6424553302
 30
0.0
 11
88.6954481734
 21
78.6424553302
 31
0.0
  0
LINE
  5
16D
330
1F
100
AcDbEntity
  8
0
  6
Continuous
 62
     7
370
    15
100
AcDbLine
 10
94.6954481734
 20
78.6424553302
 30
0.0
 11
88.6954481734
 21
78.6424553302
 31
0.0
  0
LINE
  5
16E
330
1F
100
AcDbEntity
  8
0
  6
Continuous
 62
     7
370
    15
100
AcDbLine
 10
94.6954481734
 20
90.9424553302
 30
0.0
 11
94.6954481734
 21
84.9424553302
 31
0.0
  0
LINE
  5
16F
330
1F
100
AcDbEntity
  8
0
  6
Continuous
 62
     7
370
    15
100
AcDbLine
 10
94.6954481734
 20
90.9424553302
 30
0.0
 11
88.6954481734
 21
90.9424553302
 31
0.0
  0
LINE
  5
170
330
1F
100
AcDbEntity
  8
0
  6
Continuous
 62
     7
370
    15
100
AcDbLine
 10
88.6954481734
 20
90.9424553302
 30
0.0
 11
88.6954481734
 21
84.9424553302
 31
0.0
  0
LINE
  5
171
330
1F
100
AcDbEntity
  8
0
  6
Continuous
 62
     7
370
    15
100
AcDbLine
 10
94.6954481734
 20
84.9424553302
 30
0.0
 11
88.6954481734
 21
84.9424553302
 31
0.0
  0
LINE
  5
172
330
1F
100
AcDbEntity
  8
0
  6
Continuous
 62
     7
370
    15
100
AcDbLine
 10
94.6954481734
 20
97.2424553302
 30
0.0
 11
94.6954481734
 21
91.2424553302
 31
0.0
  0
LINE
  5
173
330
1F
100
AcDbEntity
  8
0
  6
Continuous
 62
     7
370
    15
100
AcDbLine
 10
94.6954481734
 20
97.2424553302
 30
0.0
 11
88.6954481734
 21
97.2424553302
 31
0.0
  0
LINE
  5
174
330
1F
100
AcDbEntity
  8
0
  6
Continuous
 62
     7
370
    15
100
AcDbLine
 10
88.6954481734
 20
97.2424553302
 30
0.0
 11
88.6954481734
 21
91.2424553302
 31
0.0
  0
LINE
  5
175
330
1F
100
AcDbEntity
  8
0
  6
Continuous
 62
     7
370
    15
100
AcDbLine
 10
94.6954481734
 20
91.2424553302
 30
0.0
 11
88.6954481734
 21
91.2424553302
 31
0.0
  0
LINE
  5
176
330
1F
100
AcDbEntity
  8
0
  6
Continuous
 62
     7
370
    15
100
AcDbLine
 10
94.6954481734
 20
103.5424553302
 30
0.0
 11
94.6954481734
 21
97.5424553302
 31
0.0
  0
LINE
  5
177
330
1F
100
AcDbEntity
  8
0
  6
Continuous
 62
     7
370
    15
100
AcDbLine
 10
94.6954481734
 20
103.5424553302
 30
0.0
 11
88.6954481734
 21
103.5424553302
 31
0.0
  0
LINE
  5
178
330
1F
100
AcDbEntity
  8
0
  6
Continuous
 62
     7
370
    15
100
AcDbLine
 10
88.6954481734
 20
103.5424553302
 30
0.0
 11
88.6954481734
 21
97.5424553302
 31
0.0
  0
LINE
  5
179
330
1F
100
AcDbEntity
  8
0
  6
Continuous
 62
     7
370
    15
100
AcDbLine
 10
94.6954481734
 20
97.5424553302
 30
0.0
 11
88.6954481734
 21
97.5424553302
 31
0.0
  0
LINE
  5
17A
330
1F
100
AcDbEntity
  8
0
  6
Continuous
 62
     7
370
    15
100
AcDbLine
 10
94.6954481734
 20
109.8424553302
 30
0.0
 11
94.6954481734
 21
103.8424553302
 31
0.0
  0
LINE
  5
17B
330
1F
100
AcDbEntity
  8
0
  6
Continuous
 62
     7
370
    15
100
AcDbLine
 10
94.6954481734
 20
109.8424553302
 30
0.0
 11
88.6954481734
 21
109.8424553302
 31
0.0
  0
LINE
  5
17C
330
1F
100
AcDbEntity
  8
0
  6
Continuous
 62
     7
370
    15
100
AcDbLine
 10
88.6954481734
 20
109.8424553302
 30
0.0
 11
88.6954481734
 21
103.8424553302
 31
0.0
  0
LINE
  5
17D
330
1F
100
AcDbEntity
  8
0
  6
Continuous
 62
     7
370
    15
100
AcDbLine
 10
94.6954481734
 20
103.8424553302
 30
0.0
 11
88.6954481734
 21
103.8424553302
 31
0.0
  0
LINE
  5
17E
330
1F
100
AcDbEntity
  8
0
  6
Continuous
 62
     7
370
    15
100
AcDbLine
 10
94.6954481734
 20
116.1424553302
 30
0.0
 11
94.6954481734
 21
110.1424553302
 31
0.0
  0
LINE
  5
17F
330
1F
100
AcDbEntity
  8
0
  6
Continuous
 62
     7
370
    15
100
AcDbLine
 10
94.6954481734
 20
116.1424553302
 30
0.0
 11
88.6954481734
 21
116.1424553302
 31
0.0
  0
LINE
  5
180
330
1F
100
AcDbEntity
  8
0
  6
Continuous
 62
     7
370
    15
100
AcDbLine
 10
88.6954481734
 20
116.1424553302
 30
0.0
 11
88.6954481734
 21
110.1424553302
 31
0.0
  0
LINE
  5
181
330
1F
100
AcDbEntity
  8
0
  6
Continuous
 62
     7
370
    15
100
AcDbLine
 10
94.6954481734
 20
110.1424553302
 30
0.0
 11
88.6954481734
 21
110.1424553302
 31
0.0
  0
LINE
  5
182
330
1F
100
AcDbEntity
  8
0
  6
Continuous
 62
     7
370
    15
100
AcDbLine
 10
94.6954481734
 20
122.4424553302
 30
0.0
 11
94.6954481734
 21
116.4424553302
 31
0.0
  0
LINE
  5
183
330
1F
100
AcDbEntity
  8
0
  6
Continuous
 62
     7
370
    15
100
AcDbLine
 10
94.6954481734
 20
122.4424553302
 30
0.0
 11
88.6954481734
 21
122.4424553302
 31
0.0
  0
LINE
  5
184
330
1F
100
AcDbEntity
  8
0
  6
Continuous
 62
     7
370
    15
100
AcDbLine
 10
88.6954481734
 20
122.4424553302
 30
0.0
 11
88.6954481734
 21
116.4424553302
 31
0.0
  0
LINE
  5
185
330
1F
100
AcDbEntity
  8
0
  6
Continuous
 62
     7
370
    15
100
AcDbLine
 10
94.6954481734
 20
116.4424553302
 30
0.0
 11
88.6954481734
 21
116.4424553302
 31
0.0
  0
LINE
  5
186
330
1F
100
AcDbEntity
  8
0
  6
Continuous
 62
     7
370
    15
100
AcDbLine
 10
100.8954481734
 20
122.7424553302
 30
0.0
 11
94.8954481734
 21
122.7424553302
 31
0.0
  0
LINE
  5
187
330
1F
100
AcDbEntity
  8
0
  6
Continuous
 62
     7
370
    15
100
AcDbLine
 10
100.8954481734
 20
128.4924553302
 30
0.0
 11
100.8954481734
 21
122.7424553302
 31
0.0
  0
LINE
  5
188
330
1F
100
AcDbEntity
  8
0
  6
Continuous
 62
     7
370
    15
100
AcDbLine
 10
94.8954481734
 20
128.4924553302
 30
0.0
 11
100.8954481734
 21
128.4924553302
 31
0.0
  0
LINE
  5
189
330
1F
100
AcDbEntity
  8
0
  6
Continuous
 62
     7
370
    15
100
AcDbLine
 10
94.8954481734
 20
128.4924553302
 30
0.0
 11
94.8954481734
 21
122.7424553302
 31
0.0
  0
LINE
  5
18A
330
1F
100
AcDbEntity
  8
0
  6
Continuous
 62
     7
370
    15
100
AcDbLine
 10
100.8954481734
 20
59.4424553302
 30
0.0
 11
100.8954481734
 21
53.6924553302
 31
0.0
  0
LINE
  5
18B
330
1F
100
AcDbEntity
  8
0
  6
Continuous
 62
     7
370
    15
100
AcDbLine
 10
100.8954481734
 20
59.4424553302
 30
0.0
 11
94.8954481734
 21
59.4424553302
 31
0.0
  0
LINE
  5
18C
330
1F
100
AcDbEntity
  8
0
  6
Continuous
 62
     7
370
    15
100
AcDbLine
 10
94.8954481734
 20
59.4424553302
 30
0.0
 11
94.8954481734
 21
53.6924553302
 31
0.0
  0
LINE
  5
18D
330
1F
100
AcDbEntity
  8
0
  6
Continuous
 62
     7
370
    15
100
AcDbLine
 10
100.8954481734
 20
53.6924553302
 30
0.0
 11
94.8954481734
 21
53.6924553302
 31
0.0
  0
LINE
  5
18E
330
1F
100
AcDbEntity
  8
0
  6
Continuous
 62
     7
370
    15
100
AcDbLine
 10
100.8954481734
 20
65.7424553302
 30
0.0
 11
100.8954481734
 21
59.7424553302
 31
0.0
  0
LINE
  5
18F
330
1F
100
AcDbEntity
  8
0
  6
Continuous
 62
     7
370
    15
100
AcDbLine
 10
100.8954481734
 20
65.7424553302
 30
0.0
 11
94.8954481734
 21
65.7424553302
 31
0.0
  0
LINE
  5
190
330
1F
100
AcDbEntity
  8
0
  6
Continuous
 62
     7
370
    15
100
AcDbLine
 10
94.8954481734
 20
65.7424553302
 30
0.0
 11
94.8954481734
 21
59.7424553302
 31
0.0
  0
LINE
  5
191
330
1F
100
AcDbEntity
  8
0
  6
Continuous
 62
     7
370
    15
100
AcDbLine
 10
100.8954481734
 20
59.7424553302
 30
0.0
 11
94.8954481734
 21
59.7424553302
 31
0.0
  0
LINE
  5
192
330
1F
100
AcDbEntity
  8
0
  6
Continuous
 62
     7
370
    15
100
AcDbLine
 10
100.8954481734
 20
72.0424553302
 30
0.0
 11
100.8954481734
 21
66.0424553302
 31
0.0
  0
LINE
  5
193
330
1F
100
AcDbEntity
  8
0
  6
Continuous
 62
     7
370
    15
100
AcDbLine
 10
100.8954481734
 20
72.0424553302
 30
0.0
 11
94.8954481734
 21
72.0424553302
 31
0.0
  0
LINE
  5
194
330
1F
100
AcDbEntity
  8
0
  6
Continuous
 62
     7
370
    15
100
AcDbLine
 10
94.8954481734
 20
72.0424553302
 30
0.0
 11
94.8954481734
 21
66.0424553302
 31
0.0
  0
LINE
  5
195
330
1F
100
AcDbEntity
  8
0
  6
Continuous
 62
     7
370
    15
100
AcDbLine
 10
100.8954481734
 20
66.0424553302
 30
0.0
 11
94.8954481734
 21
66.0424553302
 31
0.0
  0
LINE
  5
196
330
1F
100
AcDbEntity
  8
0
  6
Continuous
 62
     7
370
    15
100
AcDbLine
 10
100.8954481734
 20
78.3424553302
 30
0.0
 11
100.8954481734
 21
72.3424553302
 31
0.0
  0
LINE
  5
197
330
1F
100
AcDbEntity
  8
0
  6
Continuous
 62
     7
370
    15
100
AcDbLine
 10
100.8954481734
 20
78.3424553302
 30
0.0
 11
94.8954481734
 21
78.3424553302
 31
0.0
  0
LINE
  5
198
330
1F
100
AcDbEntity
  8
0
  6
Continuous
 62
     7
370
    15
100
AcDbLine
 10
94.8954481734
 20
78.3424553302
 30
0.0
 11
94.8954481734
 21
72.3424553302
 31
0.0
  0
LINE
  5
199
330
1F
100
AcDbEntity
  8
0
  6
Continuous
 62
     7
370
    15
100
AcDbLine
 10
100.8954481734
 20
72.3424553302
 30
0.0
 11
94.8954481734
 21
72.3424553302
 31
0.0
  0
LINE
  5
19A
330
1F
100
AcDbEntity
  8
0
  6
Continuous
 62
     7
370
    15
100
AcDbLine
 10
100.8954481734
 20
84.6424553302
 30
0.0
 11
100.8954481734
 21
78.6424553302
 31
0.0
  0
LINE
  5
19B
330
1F
100
AcDbEntity
  8
0
  6
Continuous
 62
     7
370
    15
100
AcDbLine
 10
100.8954481734
 20
84.6424553302
 30
0.0
 11
94.8954481734
 21
84.6424553302
 31
0.0
  0
LINE
  5
19C
330
1F
100
AcDbEntity
  8
0
  6
Continuous
 62
     7
370
    15
100
AcDbLine
 10
94.8954481734
 20
84.6424553302
 30
0.0
 11
94.8954481734
 21
78.6424553302
 31
0.0
  0
LINE
  5
19D
330
1F
100
AcDbEntity
  8
0
  6
Continuous
 62
     7
370
    15
100
AcDbLine
 10
100.8954481734
 20
78.6424553302
 30
0.0
 11
94.8954481734
 21
78.6424553302
 31
0.0
  0
LINE
  5
19E
330
1F
100
AcDbEntity
  8
0
  6
Continuous
 62
     7
370
    15
100
AcDbLine
 10
100.8954481734
 20
90.9424553302
 30
0.0
 11
100.8954481734
 21
84.9424553302
 31
0.0
  0
LINE
  5
19F
330
1F
100
AcDbEntity
  8
0
  6
Continuous
 62
     7
370
    15
100
AcDbLine
 10
100.8954481734
 20
90.9424553302
 30
0.0
 11
94.8954481734
 21
90.9424553302
 31
0.0
  0
LINE
  5
1A0
330
1F
100
AcDbEntity
  8
0
  6
Continuous
 62
     7
370
    15
100
AcDbLine
 10
94.8954481734
 20
90.9424553302
 30
0.0
 11
94.8954481734
 21
84.9424553302
 31
0.0
  0
LINE
  5
1A1
330
1F
100
AcDbEntity
  8
0
  6
Continuous
 62
     7
370
    15
100
AcDbLine
 10
100.8954481734
 20
84.9424553302
 30
0.0
 11
94.8954481734
 21
84.9424553302
 31
0.0
  0
LINE
  5
1A2
330
1F
100
AcDbEntity
  8
0
  6
Continuous
 62
     7
370
    15
100
AcDbLine
 10
100.8954481734
 20
97.2424553302
 30
0.0
 11
100.8954481734
 21
91.2424553302
 31
0.0
  0
LINE
  5
1A3
330
1F
100
AcDbEntity
  8
0
  6
Continuous
 62
     7
370
    15
100
AcDbLine
 10
100.8954481734
 20
97.2424553302
 30
0.0
 11
94.8954481734
 21
97.2424553302
 31
0.0
  0
LINE
  5
1A4
330
1F
100
AcDbEntity
  8
0
  6
Continuous
 62
     7
370
    15
100
AcDbLine
 10
94.8954481734
 20
97.2424553302
 30
0.0
 11
94.8954481734
 21
91.2424553302
 31
0.0
  0
LINE
  5
1A5
330
1F
100
AcDbEntity
  8
0
  6
Continuous
 62
     7
370
    15
100
AcDbLine
 10
100.8954481734
 20
91.2424553302
 30
0.0
 11
94.8954481734
 21
91.2424553302
 31
0.0
  0
LINE
  5
1A6
330
1F
100
AcDbEntity
  8
0
  6
Continuous
 62
     7
370
    15
100
AcDbLine
 10
100.8954481734
 20
103.5424553302
 30
0.0
 11
100.8954481734
 21
97.5424553302
 31
0.0
  0
LINE
  5
1A7
330
1F
100
AcDbEntity
  8
0
  6
Continuous
 62
     7
370
    15
100
AcDbLine
 10
100.8954481734
 20
103.5424553302
 30
0.0
 11
94.8954481734
 21
103.5424553302
 31
0.0
  0
LINE
  5
1A8
330
1F
100
AcDbEntity
  8
0
  6
Continuous
 62
     7
370
    15
100
AcDbLine
 10
94.8954481734
 20
103.5424553302
 30
0.0
 11
94.8954481734
 21
97.5424553302
 31
0.0
  0
LINE
  5
1A9
330
1F
100
AcDbEntity
  8
0
  6
Continuous
 62
     7
370
    15
100
AcDbLine
 10
100.8954481734
 20
97.5424553302
 30
0.0
 11
94.8954481734
 21
97.5424553302
 31
0.0
  0
LINE
  5
1AA
330
1F
100
AcDbEntity
  8
0
  6
Continuous
 62
     7
370
    15
100
AcDbLine
 10
100.8954481734
 20
109.8424553302
 30
0.0
 11
100.8954481734
 21
103.8424553302
 31
0.0
  0
LINE
  5
1AB
330
1F
100
AcDbEntity
  8
0
  6
Continuous
 62
     7
370
    15
100
AcDbLine
 10
100.8954481734
 20
109.8424553302
 30
0.0
 11
94.8954481734
 21
109.8424553302
 31
0.0
  0
LINE
  5
1AC
330
1F
100
AcDbEntity
  8
0
  6
Continuous
 62
     7
370
    15
100
AcDbLine
 10
94.8954481734
 20
109.8424553302
 30
0.0
 11
94.8954481734
 21
103.8424553302
 31
0.0
  0
LINE
  5
1AD
330
1F
100
AcDbEntity
  8
0
  6
Continuous
 62
     7
370
    15
100
AcDbLine
 10
100.8954481734
 20
103.8424553302
 30
0.0
 11
94.8954481734
 21
103.8424553302
 31
0.0
  0
LINE
  5
1AE
330
1F
100
AcDbEntity
  8
0
  6
Continuous
 62
     7
370
    15
100
AcDbLine
 10
100.8954481734
 20
116.1424553302
 30
0.0
 11
100.8954481734
 21
110.1424553302
 31
0.0
  0
LINE
  5
1AF
330
1F
100
AcDbEntity
  8
0
  6
Continuous
 62
     7
370
    15
100
AcDbLine
 10
100.8954481734
 20
116.1424553302
 30
0.0
 11
94.8954481734
 21
116.1424553302
 31
0.0
  0
LINE
  5
1B0
330
1F
100
AcDbEntity
  8
0
  6
Continuous
 62
     7
370
    15
100
AcDbLine
 10
94.8954481734
 20
116.1424553302
 30
0.0
 11
94.8954481734
 21
110.1424553302
 31
0.0
  0
LINE
  5
1B1
330
1F
100
AcDbEntity
  8
0
  6
Continuous
 62
     7
370
    15
100
AcDbLine
 10
100.8954481734
 20
110.1424553302
 30
0.0
 11
94.8954481734
 21
110.1424553302
 31
0.0
  0
LINE
  5
1B2
330
1F
100
AcDbEntity
  8
0
  6
Continuous
 62
     7
370
    15
100
AcDbLine
 10
100.8954481734
 20
122.4424553302
 30
0.0
 11
100.8954481734
 21
116.4424553302
 31
0.0
  0
LINE
  5
1B3
330
1F
100
AcDbEntity
  8
0
  6
Continuous
 62
     7
370
    15
100
AcDbLine
 10
100.8954481734
 20
122.4424553302
 30
0.0
 11
94.8954481734
 21
122.4424553302
 31
0.0
  0
LINE
  5
1B4
330
1F
100
AcDbEntity
  8
0
  6
Continuous
 62
     7
370
    15
100
AcDbLine
 10
94.8954481734
 20
122.4424553302
 30
0.0
 11
94.8954481734
 21
116.4424553302
 31
0.0
  0
LINE
  5
1B5
330
1F
100
AcDbEntity
  8
0
  6
Continuous
 62
     7
370
    15
100
AcDbLine
 10
100.8954481734
 20
116.4424553302
 30
0.0
 11
94.8954481734
 21
116.4424553302
 31
0.0
  0
LINE
  5
1B6
330
1F
100
AcDbEntity
  8
0
  6
Continuous
 62
     7
370
    15
100
AcDbLine
 10
101.0954481734
 20
128.4924553302
 30
0.0
 11
107.0954481734
 21
128.4924553302
 31
0.0
  0
LINE
  5
1B7
330
1F
100
AcDbEntity
  8
0
  6
Continuous
 62
     7
370
    15
100
AcDbLine
 10
101.0954481734
 20
128.4924553302
 30
0.0
 11
101.0954481734
 21
122.7424553302
 31
0.0
  0
LINE
  5
1B8
330
1F
100
AcDbEntity
  8
0
  6
Continuous
 62
     7
370
    15
100
AcDbLine
 10
107.0954481734
 20
122.7424553302
 30
0.0
 11
101.0954481734
 21
122.7424553302
 31
0.0
  0
LINE
  5
1B9
330
1F
100
AcDbEntity
  8
0
  6
Continuous
 62
     7
370
    15
100
AcDbLine
 10
107.0954481734
 20
128.4924553302
 30
0.0
 11
107.0954481734
 21
122.7424553302
 31
0.0
  0
LINE
  5
1BA
330
1F
100
AcDbEntity
  8
0
  6
Continuous
 62
     7
370
    15
100
AcDbLine
 10
107.0954481734
 20
122.4424553302
 30
0.0
 11
101.0954481734
 21
122.4424553302
 31
0.0
  0
LINE
  5
1BB
330
1F
100
AcDbEntity
  8
0
  6
Continuous
 62
     7
370
    15
100
AcDbLine
 10
101.0954481734
 20
122.4424553302
 30
0.0
 11
101.0954481734
 21
116.4424553302
 31
0.0
  0
LINE
  5
1BC
330
1F
100
AcDbEntity
  8
0
  6
Continuous
 62
     7
370
    15
100
AcDbLine
 10
107.0954481734
 20
116.4424553302
 30
0.0
 11
101.0954481734
 21
116.4424553302
 31
0.0
  0
LINE
  5
1BD
330
1F
100
AcDbEntity
  8
0
  6
Continuous
 62
     7
370
    15
100
AcDbLine
 10
107.0954481734
 20
122.4424553302
 30
0.0
 11
107.0954481734
 21
116.4424553302
 31
0.0
  0
LINE
  5
1BE
330
1F
100
AcDbEntity
  8
0
  6
Continuous
 62
     7
370
    15
100
AcDbLine
 10
107.0954481734
 20
116.1424553302
 30
0.0
 11
101.0954481734
 21
116.1424553302
 31
0.0
  0
LINE
  5
1BF
330
1F
100
AcDbEntity
  8
0
  6
Continuous
 62
     7
370
    15
100
AcDbLine
 10
101.0954481734
 20
116.1424553302
 30
0.0
 11
101.0954481734
 21
110.1424553302
 31
0.0
  0
LINE
  5
1C0
330
1F
100
AcDbEntity
  8
0
  6
Continuous
 62
     7
370
    15
100
AcDbLine
 10
107.0954481734
 20
110.1424553302
 30
0.0
 11
101.0954481734
 21
110.1424553302
 31
0.0
  0
LINE
  5
1C1
330
1F
100
AcDbEntity
  8
0
  6
Continuous
 62
     7
370
    15
100
AcDbLine
 10
107.0954481734
 20
116.1424553302
 30
0.0
 11
107.0954481734
 21
110.1424553302
 31
0.0
  0
LINE
  5
1C2
330
1F
100
AcDbEntity
  8
0
  6
Continuous
 62
     7
370
    15
100
AcDbLine
 10
107.0954481734
 20
109.8424553302
 30
0.0
 11
101.0954481734
 21
109.8424553302
 31
0.0
  0
LINE
  5
1C3
330
1F
100
AcDbEntity
  8
0
  6
Continuous
 62
     7
370
    15
100
AcDbLine
 10
101.0954481734
 20
109.8424553302
 30
0.0
 11
101.0954481734
 21
103.8424553302
 31
0.0
  0
LINE
  5
1C4
330
1F
100
AcDbEntity
  8
0
  6
Continuous
 62
     7
370
    15
100
AcDbLine
 10
107.0954481734
 20
103.8424553302
 30
0.0
 11
101.0954481734
 21
103.8424553302
 31
0.0
  0
LINE
  5
1C5
330
1F
100
AcDbEntity
  8
0
  6
Continuous
 62
     7
370
    15
100
AcDbLine
 10
107.0954481734
 20
109.8424553302
 30
0.0
 11
107.0954481734
 21
103.8424553302
 31
0.0
  0
LINE
  5
1C6
330
1F
100
AcDbEntity
  8
0
  6
Continuous
 62
     7
370
    15
100
AcDbLine
 10
107.0954481734
 20
103.5424553302
 30
0.0
 11
101.0954481734
 21
103.5424553302
 31
0.0
  0
LINE
  5
1C7
330
1F
100
AcDbEntity
  8
0
  6
Continuous
 62
     7
370
    15
100
AcDbLine
 10
101.0954481734
 20
103.5424553302
 30
0.0
 11
101.0954481734
 21
97.5424553302
 31
0.0
  0
LINE
  5
1C8
330
1F
100
AcDbEntity
  8
0
  6
Continuous
 62
     7
370
    15
100
AcDbLine
 10
107.0954481734
 20
97.5424553302
 30
0.0
 11
101.0954481734
 21
97.5424553302
 31
0.0
  0
LINE
  5
1C9
330
1F
100
AcDbEntity
  8
0
  6
Continuous
 62
     7
370
    15
100
AcDbLine
 10
107.0954481734
 20
103.5424553302
 30
0.0
 11
107.0954481734
 21
97.5424553302
 31
0.0
  0
LINE
  5
1CA
330
1F
100
AcDbEntity
  8
0
  6
Continuous
 62
     7
370
    15
100
AcDbLine
 10
107.0954481734
 20
97.2424553302
 30
0.0
 11
101.0954481734
 21
97.2424553302
 31
0.0
  0
LINE
  5
1CB
330
1F
100
AcDbEntity
  8
0
  6
Continuous
 62
     7
370
    15
100
AcDbLine
 10
101.0954481734
 20
97.2424553302
 30
0.0
 11
101.0954481734
 21
91.2424553302
 31
0.0
  0
LINE
  5
1CC
330
1F
100
AcDbEntity
  8
0
  6
Continuous
 62
     7
370
    15
100
AcDbLine
 10
107.0954481734
 20
91.2424553302
 30
0.0
 11
101.0954481734
 21
91.2424553302
 31
0.0
  0
LINE
  5
1CD
330
1F
100
AcDbEntity
  8
0
  6
Continuous
 62
     7
370
    15
100
AcDbLine
 10
107.0954481734
 20
97.2424553302
 30
0.0
 11
107.0954481734
 21
91.2424553302
 31
0.0
  0
LINE
  5
1CE
330
1F
100
AcDbEntity
  8
0
  6
Continuous
 62
     7
370
    15
100
AcDbLine
 10
107.0954481734
 20
90.9424553302
 30
0.0
 11
101.0954481734
 21
90.9424553302
 31
0.0
  0
LINE
  5
1CF
330
1F
100
AcDbEntity
  8
0
  6
Continuous
 62
     7
370
    15
100
AcDbLine
 10
101.0954481734
 20
90.9424553302
 30
0.0
 11
101.0954481734
 21
84.9424553302
 31
0.0
  0
LINE
  5
1D0
330
1F
100
AcDbEntity
  8
0
  6
Continuous
 62
     7
370
    15
100
AcDbLine
 10
107.0954481734
 20
84.9424553302
 30
0.0
 11
101.0954481734
 21
84.9424553302
 31
0.0
  0
LINE
  5
1D1
330
1F
100
AcDbEntity
  8
0
  6
Continuous
 62
     7
370
    15
100
AcDbLine
 10
107.0954481734
 20
90.9424553302
 30
0.0
 11
107.0954481734
 21
84.9424553302
 31
0.0
  0
LINE
  5
1D2
330
1F
100
AcDbEntity
  8
0
  6
Continuous
 62
     7
370
    15
100
AcDbLine
 10
107.0954481734
 20
84.6424553302
 30
0.0
 11
101.0954481734
 21
84.6424553302
 31
0.0
  0
LINE
  5
1D3
330
1F
100
AcDbEntity
  8
0
  6
Continuous
 62
     7
370
    15
100
AcDbLine
 10
101.0954481734
 20
84.6424553302
 30
0.0
 11
101.0954481734
 21
78.6424553302
 31
0.0
  0
LINE
  5
1D4
330
1F
100
AcDbEntity
  8
0
  6
Continuous
 62
     7
370
    15
100
AcDbLine
 10
107.0954481734
 20
78.6424553302
 30
0.0
 11
101.0954481734
 21
78.6424553302
 31
0.0
  0
LINE
  5
1D5
330
1F
100
AcDbEntity
  8
0
  6
Continuous
 62
     7
370
    15
100
AcDbLine
 10
107.0954481734
 20
84.6424553302
 30
0.0
 11
107.0954481734
 21
78.6424553302
 31
0.0
  0
LINE
  5
1D6
330
1F
100
AcDbEntity
  8
0
  6
Continuous
 62
     7
370
    15
100
AcDbLine
 10
107.0954481734
 20
78.3424553302
 30
0.0
 11
101.0954481734
 21
78.3424553302
 31
0.0
  0
LINE
  5
1D7
330
1F
100
AcDbEntity
  8
0
  6
Continuous
 62
     7
370
    15
100
AcDbLine
 10
101.0954481734
 20
78.3424553302
 30
0.0
 11
101.0954481734
 21
72.3424553302
 31
0.0
  0
LINE
  5
1D8
330
1F
100
AcDbEntity
  8
0
  6
Continuous
 62
     7
370
    15
100
AcDbLine
 10
107.0954481734
 20
72.3424553302
 30
0.0
 11
101.0954481734
 21
72.3424553302
 31
0.0
  0
LINE
  5
1D9
330
1F
100
AcDbEntity
  8
0
  6
Continuous
 62
     7
370
    15
100
AcDbLine
 10
107.0954481734
 20
78.3424553302
 30
0.0
 11
107.0954481734
 21
72.3424553302
 31
0.0
  0
LINE
  5
1DA
330
1F
100
AcDbEntity
  8
0
  6
Continuous
 62
     7
370
    15
100
AcDbLine
 10
107.0954481734
 20
72.0424553302
 30
0.0
 11
101.0954481734
 21
72.0424553302
 31
0.0
  0
LINE
  5
1DB
330
1F
100
AcDbEntity
  8
0
  6
Continuous
 62
     7
370
    15
100
AcDbLine
 10
101.0954481734
 20
72.0424553302
 30
0.0
 11
101.0954481734
 21
66.0424553302
 31
0.0
  0
LINE
  5
1DC
330
1F
100
AcDbEntity
  8
0
  6
Continuous
 62
     7
370
    15
100
AcDbLine
 10
107.0954481734
 20
66.0424553302
 30
0.0
 11
101.0954481734
 21
66.0424553302
 31
0.0
  0
LINE
  5
1DD
330
1F
100
AcDbEntity
  8
0
  6
Continuous
 62
     7
370
    15
100
AcDbLine
 10
107.0954481734
 20
72.0424553302
 30
0.0
 11
107.0954481734
 21
66.0424553302
 31
0.0
  0
LINE
  5
1DE
330
1F
100
AcDbEntity
  8
0
  6
Continuous
 62
     7
370
    15
100
AcDbLine
 10
107.0954481734
 20
65.7424553302
 30
0.0
 11
101.0954481734
 21
65.7424553302
 31
0.0
  0
LINE
  5
1DF
330
1F
100
AcDbEntity
  8
0
  6
Continuous
 62
     7
370
    15
100
AcDbLine
 10
101.0954481734
 20
65.7424553302
 30
0.0
 11
101.0954481734
 21
59.7424553302
 31
0.0
  0
LINE
  5
1E0
330
1F
100
AcDbEntity
  8
0
  6
Continuous
 62
     7
370
    15
100
AcDbLine
 10
107.0954481734
 20
59.7424553302
 30
0.0
 11
101.0954481734
 21
59.7424553302
 31
0.0
  0
LINE
  5
1E1
330
1F
100
AcDbEntity
  8
0
  6
Continuous
 62
     7
370
    15
100
AcDbLine
 10
107.0954481734
 20
65.7424553302
 30
0.0
 11
107.0954481734
 21
59.7424553302
 31
0.0
  0
LINE
  5
1E2
330
1F
100
AcDbEntity
  8
0
  6
Continuous
 62
     7
370
    15
100
AcDbLine
 10
107.0954481734
 20
59.4424553302
 30
0.0
 11
101.0954481734
 21
59.4424553302
 31
0.0
  0
LINE
  5
1E3
330
1F
100
AcDbEntity
  8
0
  6
Continuous
 62
     7
370
    15
100
AcDbLine
 10
101.0954481734
 20
59.4424553302
 30
0.0
 11
101.0954481734
 21
53.6924553302
 31
0.0
  0
LINE
  5
1E4
330
1F
100
AcDbEntity
  8
0
  6
Continuous
 62
     7
370
    15
100
AcDbLine
 10
107.0954481734
 20
53.6924553302
 30
0.0
 11
101.0954481734
 21
53.6924553302
 31
0.0
  0
LINE
  5
1E5
330
1F
100
AcDbEntity
  8
0
  6
Continuous
 62
     7
370
    15
100
AcDbLine
 10
107.0954481734
 20
59.4424553302
 30
0.0
 11
107.0954481734
 21
53.6924553302
 31
0.0
  0
LINE
  5
1E6
330
1F
100
AcDbEntity
  8
0
  6
Continuous
 62
     7
370
    15
100
AcDbLine
 10
113.2954481734
 20
122.4424553302
 30
0.0
 11
107.2954481734
 21
122.4424553302
 31
0.0
  0
LINE
  5
1E7
330
1F
100
AcDbEntity
  8
0
  6
Continuous
 62
     7
370
    15
100
AcDbLine
 10
107.2954481734
 20
122.4424553302
 30
0.0
 11
107.2954481734
 21
116.4424553302
 31
0.0
  0
LINE
  5
1E8
330
1F
100
AcDbEntity
  8
0
  6
Continuous
 62
     7
370
    15
100
AcDbLine
 10
113.2954481734
 20
116.4424553302
 30
0.0
 11
107.2954481734
 21
116.4424553302
 31
0.0
  0
LINE
  5
1E9
330
1F
100
AcDbEntity
  8
0
  6
Continuous
 62
     7
370
    15
100
AcDbLine
 10
113.2954481734
 20
122.4424553302
 30
0.0
 11
113.2954481734
 21
116.4424553302
 31
0.0
  0
LINE
  5
1EA
330
1F
100
AcDbEntity
  8
0
  6
Continuous
 62
     7
370
    15
100
AcDbLine
 10
113.2954481734
 20
116.1424553302
 30
0.0
 11
107.2954481734
 21
116.1424553302
 31
0.0
  0
LINE
  5
1EB
330
1F
100
AcDbEntity
  8
0
  6
Continuous
 62
     7
370
    15
100
AcDbLine
 10
107.2954481734
 20
116.1424553302
 30
0.0
 11
107.2954481734
 21
110.1424553302
 31
0.0
  0
LINE
  5
1EC
330
1F
100
AcDbEntity
  8
0
  6
Continuous
 62
     7
370
    15
100
AcDbLine
 10
113.2954481734
 20
110.1424553302
 30
0.0
 11
107.2954481734
 21
110.1424553302
 31
0.0
  0
LINE
  5
1ED
330
1F
100
AcDbEntity
  8
0
  6
Continuous
 62
     7
370
    15
100
AcDbLine
 10
113.2954481734
 20
116.1424553302
 30
0.0
 11
113.2954481734
 21
110.1424553302
 31
0.0
  0
LINE
  5
1EE
330
1F
100
AcDbEntity
  8
0
  6
Continuous
 62
     7
370
    15
100
AcDbLine
 10
113.2954481734
 20
109.8424553302
 30
0.0
 11
107.2954481734
 21
109.8424553302
 31
0.0
  0
LINE
  5
1EF
330
1F
100
AcDbEntity
  8
0
  6
Continuous
 62
     7
370
    15
100
AcDbLine
 10
107.2954481734
 20
109.8424553302
 30
0.0
 11
107.2954481734
 21
103.8424553302
 31
0.0
  0
LINE
  5
1F0
330
1F
100
AcDbEntity
  8
0
  6
Continuous
 62
     7
370
    15
100
AcDbLine
 10
113.2954481734
 20
103.8424553302
 30
0.0
 11
107.2954481734
 21
103.8424553302
 31
0.0
  0
LINE
  5
1F1
330
1F
100
AcDbEntity
  8
0
  6
Continuous
 62
     7
370
    15
100
AcDbLine
 10
113.2954481734
 20
109.8424553302
 30
0.0
 11
113.2954481734
 21
103.8424553302
 31
0.0
  0
LINE
  5
1F2
330
1F
100
AcDbEntity
  8
0
  6
Continuous
 62
     7
370
    15
100
AcDbLine
 10
113.2954481734
 20
103.5424553302
 30
0.0
 11
107.2954481734
 21
103.5424553302
 31
0.0
  0
LINE
  5
1F3
330
1F
100
AcDbEntity
  8
0
  6
Continuous
 62
     7
370
    15
100
AcDbLine
 10
107.2954481734
 20
103.5424553302
 30
0.0
 11
107.2954481734
 21
97.5424553302
 31
0.0
  0
LINE
  5
1F4
330
1F
100
AcDbEntity
  8
0
  6
Continuous
 62
     7
370
    15
100
AcDbLine
 10
113.2954481734
 20
97.5424553302
 30
0.0
 11
107.2954481734
 21
97.5424553302
 31
0.0
  0
LINE
  5
1F5
330
1F
100
AcDbEntity
  8
0
  6
Continuous
 62
     7
370
    15
100
AcDbLine
 10
113.2954481734
 20
103.5424553302
 30
0.0
 11
113.2954481734
 21
97.5424553302
 31
0.0
  0
LINE
  5
1F6
330
1F
100
AcDbEntity
  8
0
  6
Continuous
 62
     7
370
    15
100
AcDbLine
 10
113.2954481734
 20
97.2424553302
 30
0.0
 11
107.2954481734
 21
97.2424553302
 31
0.0
  0
LINE
  5
1F7
330
1F
100
AcDbEntity
  8
0
  6
Continuous
 62
     7
370
    15
100
AcDbLine
 10
107.2954481734
 20
97.2424553302
 30
0.0
 11
107.2954481734
 21
91.2424553302
 31
0.0
  0
LINE
  5
1F8
330
1F
100
AcDbEntity
  8
0
  6
Continuous
 62
     7
370
    15
100
AcDbLine
 10
113.2954481734
 20
91.2424553302
 30
0.0
 11
107.2954481734
 21
91.2424553302
 31
0.0
  0
LINE
  5
1F9
330
1F
100
AcDbEntity
  8
0
  6
Continuous
 62
     7
370
    15
100
AcDbLine
 10
113.2954481734
 20
97.2424553302
 30
0.0
 11
113.2954481734
 21
91.2424553302
 31
0.0
  0
LINE
  5
1FA
330
1F
100
AcDbEntity
  8
0
  6
Continuous
 62
     7
370
    15
100
AcDbLine
 10
113.2954481734
 20
90.9424553302
 30
0.0
 11
107.2954481734
 21
90.9424553302
 31
0.0
  0
LINE
  5
1FB
330
1F
100
AcDbEntity
  8
0
  6
Continuous
 62
     7
370
    15
100
AcDbLine
 10
107.2954481734
 20
90.9424553302
 30
0.0
 11
107.2954481734
 21
84.9424553302
 31
0.0
  0
LINE
  5
1FC
330
1F
100
AcDbEntity
  8
0
  6
Continuous
 62
     7
370
    15
100
AcDbLine
 10
113.2954481734
 20
84.9424553302
 30
0.0
 11
107.2954481734
 21
84.9424553302
 31
0.0
  0
LINE
  5
1FD
330
1F
100
AcDbEntity
  8
0
  6
Continuous
 62
     7
370
    15
100
AcDbLine
 10
113.2954481734
 20
90.9424553302
 30
0.0
 11
113.2954481734
 21
84.9424553302
 31
0.0
  0
LINE
  5
1FE
330
1F
100
AcDbEntity
  8
0
  6
Continuous
 62
     7
370
    15
100
AcDbLine
 10
113.2954481734
 20
84.6424553302
 30
0.0
 11
107.2954481734
 21
84.6424553302
 31
0.0
  0
LINE
  5
1FF
330
1F
100
AcDbEntity
  8
0
  6
Continuous
 62
     7
370
    15
100
AcDbLine
 10
107.2954481734
 20
84.6424553302
 30
0.0
 11
107.2954481734
 21
78.6424553302
 31
0.0
  0
LINE
  5
200
330
1F
100
AcDbEntity
  8
0
  6
Continuous
 62
     7
370
    15
100
AcDbLine
 10
113.2954481734
 20
78.6424553302
 30
0.0
 11
107.2954481734
 21
78.6424553302
 31
0.0
  0
LINE
  5
201
330
1F
100
AcDbEntity
  8
0
  6
Continuous
 62
     7
370
    15
100
AcDbLine
 10
113.2954481734
 20
84.6424553302
 30
0.0
 11
113.2954481734
 21
78.6424553302
 31
0.0
  0
LINE
  5
202
330
1F
100
AcDbEntity
  8
0
  6
Continuous
 62
     7
370
    15
100
AcDbLine
 10
113.2954481734
 20
78.3424553302
 30
0.0
 11
107.2954481734
 21
78.3424553302
 31
0.0
  0
LINE
  5
203
330
1F
100
AcDbEntity
  8
0
  6
Continuous
 62
     7
370
    15
100
AcDbLine
 10
107.2954481734
 20
78.3424553302
 30
0.0
 11
107.2954481734
 21
72.3424553302
 31
0.0
  0
LINE
  5
204
330
1F
100
AcDbEntity
  8
0
  6
Continuous
 62
     7
370
    15
100
AcDbLine
 10
113.2954481734
 20
72.3424553302
 30
0.0
 11
107.2954481734
 21
72.3424553302
 31
0.0
  0
LINE
  5
205
330
1F
100
AcDbEntity
  8
0
  6
Continuous
 62
     7
370
    15
100
AcDbLine
 10
113.2954481734
 20
78.3424553302
 30
0.0
 11
113.2954481734
 21
72.3424553302
 31
0.0
  0
LINE
  5
206
330
1F
100
AcDbEntity
  8
0
  6
Continuous
 62
     7
370
    15
100
AcDbLine
 10
113.2954481734
 20
72.0424553302
 30
0.0
 11
107.2954481734
 21
72.0424553302
 31
0.0
  0
LINE
  5
207
330
1F
100
AcDbEntity
  8
0
  6
Continuous
 62
     7
370
    15
100
AcDbLine
 10
107.2954481734
 20
72.0424553302
 30
0.0
 11
107.2954481734
 21
66.0424553302
 31
0.0
  0
LINE
  5
208
330
1F
100
AcDbEntity
  8
0
  6
Continuous
 62
     7
370
    15
100
AcDbLine
 10
113.2954481734
 20
66.0424553302
 30
0.0
 11
107.2954481734
 21
66.0424553302
 31
0.0
  0
LINE
  5
209
330
1F
100
AcDbEntity
  8
0
  6
Continuous
 62
     7
370
    15
100
AcDbLine
 10
113.2954481734
 20
72.0424553302
 30
0.0
 11
113.2954481734
 21
66.0424553302
 31
0.0
  0
LINE
  5
20A
330
1F
100
AcDbEntity
  8
0
  6
Continuous
 62
     7
370
    15
100
AcDbLine
 10
113.2954481734
 20
65.7424553302
 30
0.0
 11
107.2954481734
 21
65.7424553302
 31
0.0
  0
LINE
  5
20B
330
1F
100
AcDbEntity
  8
0
  6
Continuous
 62
     7
370
    15
100
AcDbLine
 10
107.2954481734
 20
65.7424553302
 30
0.0
 11
107.2954481734
 21
59.7424553302
 31
0.0
  0
LINE
  5
20C
330
1F
100
AcDbEntity
  8
0
  6
Continuous
 62
     7
370
    15
100
AcDbLine
 10
113.2954481734
 20
59.7424553302
 30
0.0
 11
107.2954481734
 21
59.7424553302
 31
0.0
  0
LINE
  5
20D
330
1F
100
AcDbEntity
  8
0
  6
Continuous
 62
     7
370
    15
100
AcDbLine
 10
113.2954481734
 20
65.7424553302
 30
0.0
 11
113.2954481734
 21
59.7424553302
 31
0.0
  0
LINE
  5
20E
330
1F
100
AcDbEntity
  8
0
  6
Continuous
 62
     7
370
    15
100
AcDbLine
 10
113.2954481734
 20
59.4424553302
 30
0.0
 11
107.2954481734
 21
59.4424553302
 31
0.0
  0
LINE
  5
20F
330
1F
100
AcDbEntity
  8
0
  6
Continuous
 62
     7
370
    15
100
AcDbLine
 10
107.2954481734
 20
59.4424553302
 30
0.0
 11
107.2954481734
 21
53.6924553302
 31
0.0
  0
LINE
  5
210
330
1F
100
AcDbEntity
  8
0
  6
Continuous
 62
     7
370
    15
100
AcDbLine
 10
113.2954481734
 20
53.6924553302
 30
0.0
 11
107.2954481734
 21
53.6924553302
 31
0.0
  0
LINE
  5
211
330
1F
100
AcDbEntity
  8
0
  6
Continuous
 62
     7
370
    15
100
AcDbLine
 10
113.2954481734
 20
59.4424553302
 30
0.0
 11
113.2954481734
 21
53.6924553302
 31
0.0
  0
LINE
  5
212
330
1F
100
AcDbEntity
  8
0
  6
Continuous
 62
     7
370
    15
100
AcDbLine
 10
107.2954481734
 20
128.4924553302
 30
0.0
 11
107.2954481734
 21
122.7424553302
 31
0.0
  0
LINE
  5
213
330
1F
100
AcDbEntity
  8
0
  6
Continuous
 62
     7
370
    15
100
AcDbLine
 10
113.2954481734
 20
122.7424553302
 30
0.0
 11
107.2954481734
 21
122.7424553302
 31
0.0
  0
LINE
  5
214
330
1F
100
AcDbEntity
  8
0
  6
Continuous
 62
     7
370
    15
100
AcDbLine
 10
113.2954481734
 20
128.4924553302
 30
0.0
 11
113.2954481734
 21
122.7424553302
 31
0.0
  0
LINE
  5
215
330
1F
100
AcDbEntity
  8
0
  6
Continuous
 62
     7
370
    15
100
AcDbLine
 10
107.2954481734
 20
128.4924553302
 30
0.0
 11
113.2954481734
 21
128.4924553302
 31
0.0
  0
LINE
  5
216
330
1F
100
AcDbEntity
  8
0
  6
Continuous
 62
     7
370
    15
100
AcDbLine
 10
113.4954481734
 20
128.4924553302
 30
0.0
 11
113.4954481734
 21
122.7424553302
 31
0.0
  0
LINE
  5
217
330
1F
100
AcDbEntity
  8
0
  6
Continuous
 62
     7
370
    15
100
AcDbLine
 10
119.4954481734
 20
122.7424553302
 30
0.0
 11
113.4954481734
 21
122.7424553302
 31
0.0
  0
LINE
  5
218
330
1F
100
AcDbEntity
  8
0
  6
Continuous
 62
     7
370
    15
100
AcDbLine
 10
119.4954481734
 20
128.4924553302
 30
0.0
 11
119.4954481734
 21
122.7424553302
 31
0.0
  0
LINE
  5
219
330
1F
100
AcDbEntity
  8
0
  6
Continuous
 62
     7
370
    15
100
AcDbLine
 10
113.4954481734
 20
128.4924553302
 30
0.0
 11
119.4954481734
 21
128.4924553302
 31
0.0
  0
LINE
  5
21A
330
1F
100
AcDbEntity
  8
0
  6
Continuous
 62
     7
370
    15
100
AcDbLine
 10
119.4954481734
 20
122.4424553302
 30
0.0
 11
113.4954481734
 21
122.4424553302
 31
0.0
  0
LINE
  5
21B
330
1F
100
AcDbEntity
  8
0
  6
Continuous
 62
     7
370
    15
100
AcDbLine
 10
113.4954481734
 20
122.4424553302
 30
0.0
 11
113.4954481734
 21
116.4424553302
 31
0.0
  0
LINE
  5
21C
330
1F
100
AcDbEntity
  8
0
  6
Continuous
 62
     7
370
    15
100
AcDbLine
 10
119.4954481734
 20
116.4424553302
 30
0.0
 11
113.4954481734
 21
116.4424553302
 31
0.0
  0
LINE
  5
21D
330
1F
100
AcDbEntity
  8
0
  6
Continuous
 62
     7
370
    15
100
AcDbLine
 10
119.4954481734
 20
122.4424553302
 30
0.0
 11
119.4954481734
 21
116.4424553302
 31
0.0
  0
LINE
  5
21E
330
1F
100
AcDbEntity
  8
0
  6
Continuous
 62
     7
370
    15
100
AcDbLine
 10
119.4954481734
 20
116.1424553302
 30
0.0
 11
113.4954481734
 21
116.1424553302
 31
0.0
  0
LINE
  5
21F
330
1F
100
AcDbEntity
  8
0
  6
Continuous
 62
     7
370
    15
100
AcDbLine
 10
113.4954481734
 20
116.1424553302
 30
0.0
 11
113.4954481734
 21
110.1424553302
 31
0.0
  0
LINE
  5
220
330
1F
100
AcDbEntity
  8
0
  6
Continuous
 62
     7
370
    15
100
AcDbLine
 10
119.4954481734
 20
110.1424553302
 30
0.0
 11
113.4954481734
 21
110.1424553302
 31
0.0
  0
LINE
  5
221
330
1F
100
AcDbEntity
  8
0
  6
Continuous
 62
     7
370
    15
100
AcDbLine
 10
119.4954481734
 20
116.1424553302
 30
0.0
 11
119.4954481734
 21
110.1424553302
 31
0.0
  0
LINE
  5
222
330
1F
100
AcDbEntity
  8
0
  6
Continuous
 62
     7
370
    15
100
AcDbLine
 10
119.4954481734
 20
109.8424553302
 30
0.0
 11
113.4954481734
 21
109.8424553302
 31
0.0
  0
LINE
  5
223
330
1F
100
AcDbEntity
  8
0
  6
Continuous
 62
     7
370
    15
100
AcDbLine
 10
113.4954481734
 20
109.8424553302
 30
0.0
 11
113.4954481734
 21
103.8424553302
 31
0.0
  0
LINE
  5
224
330
1F
100
AcDbEntity
  8
0
  6
Continuous
 62
     7
370
    15
100
AcDbLine
 10
119.4954481734
 20
103.8424553302
 30
0.0
 11
113.4954481734
 21
103.8424553302
 31
0.0
  0
LINE
  5
225
330
1F
100
AcDbEntity
  8
0
  6
Continuous
 62
     7
370
    15
100
AcDbLine
 10
119.4954481734
 20
109.8424553302
 30
0.0
 11
119.4954481734
 21
103.8424553302
 31
0.0
  0
LINE
  5
226
330
1F
100
AcDbEntity
  8
0
  6
Continuous
 62
     7
370
    15
100
AcDbLine
 10
119.4954481734
 20
103.5424553302
 30
0.0
 11
113.4954481734
 21
103.5424553302
 31
0.0
  0
LINE
  5
227
330
1F
100
AcDbEntity
  8
0
  6
Continuous
 62
     7
370
    15
100
AcDbLine
 10
113.4954481734
 20
103.5424553302
 30
0.0
 11
113.4954481734
 21
97.5424553302
 31
0.0
  0
LINE
  5
228
330
1F
100
AcDbEntity
  8
0
  6
Continuous
 62
     7
370
    15
100
AcDbLine
 10
119.4954481734
 20
97.5424553302
 30
0.0
 11
113.4954481734
 21
97.5424553302
 31
0.0
  0
LINE
  5
229
330
1F
100
AcDbEntity
  8
0
  6
Continuous
 62
     7
370
    15
100
AcDbLine
 10
119.4954481734
 20
103.5424553302
 30
0.0
 11
119.4954481734
 21
97.5424553302
 31
0.0
  0
LINE
  5
22A
330
1F
100
AcDbEntity
  8
0
  6
Continuous
 62
     7
370
    15
100
AcDbLine
 10
113.4954481734
 20
65.7424553302
 30
0.0
 11
113.4954481734
 21
59.7424553302
 31
0.0
  0
LINE
  5
22B
330
1F
100
AcDbEntity
  8
0
  6
Continuous
 62
     7
370
    15
100
AcDbLine
 10
119.4954481734
 20
59.7424553302
 30
0.0
 11
113.4954481734
 21
59.7424553302
 31
0.0
  0
LINE
  5
22C
330
1F
100
AcDbEntity
  8
0
  6
Continuous
 62
     7
370
    15
100
AcDbLine
 10
119.4954481734
 20
65.7424553302
 30
0.0
 11
119.4954481734
 21
59.7424553302
 31
0.0
  0
LINE
  5
22D
330
1F
100
AcDbEntity
  8
0
  6
Continuous
 62
     7
370
    15
100
AcDbLine
 10
119.4954481734
 20
65.7424553302
 30
0.0
 11
113.4954481734
 21
65.7424553302
 31
0.0
  0
LINE
  5
22E
330
1F
100
AcDbEntity
  8
0
  6
Continuous
 62
     7
370
    15
100
AcDbLine
 10
113.4954481734
 20
72.0424553302
 30
0.0
 11
113.4954481734
 21
66.0424553302
 31
0.0
  0
LINE
  5
22F
330
1F
100
AcDbEntity
  8
0
  6
Continuous
 62
     7
370
    15
100
AcDbLine
 10
119.4954481734
 20
66.0424553302
 30
0.0
 11
113.4954481734
 21
66.0424553302
 31
0.0
  0
LINE
  5
230
330
1F
100
AcDbEntity
  8
0
  6
Continuous
 62
     7
370
    15
100
AcDbLine
 10
119.4954481734
 20
72.0424553302
 30
0.0
 11
119.4954481734
 21
66.0424553302
 31
0.0
  0
LINE
  5
231
330
1F
100
AcDbEntity
  8
0
  6
Continuous
 62
     7
370
    15
100
AcDbLine
 10
119.4954481734
 20
72.0424553302
 30
0.0
 11
113.4954481734
 21
72.0424553302
 31
0.0
  0
LINE
  5
232
330
1F
100
AcDbEntity
  8
0
  6
Continuous
 62
     7
370
    15
100
AcDbLine
 10
113.4954481734
 20
78.3424553302
 30
0.0
 11
113.4954481734
 21
72.3424553302
 31
0.0
  0
LINE
  5
233
330
1F
100
AcDbEntity
  8
0
  6
Continuous
 62
     7
370
    15
100
AcDbLine
 10
119.4954481734
 20
72.3424553302
 30
0.0
 11
113.4954481734
 21
72.3424553302
 31
0.0
  0
LINE
  5
234
330
1F
100
AcDbEntity
  8
0
  6
Continuous
 62
     7
370
    15
100
AcDbLine
 10
119.4954481734
 20
78.3424553302
 30
0.0
 11
119.4954481734
 21
72.3424553302
 31
0.0
  0
LINE
  5
235
330
1F
100
AcDbEntity
  8
0
  6
Continuous
 62
     7
370
    15
100
AcDbLine
 10
119.4954481734
 20
78.3424553302
 30
0.0
 11
113.4954481734
 21
78.3424553302
 31
0.0
  0
LINE
  5
236
330
1F
100
AcDbEntity
  8
0
  6
Continuous
 62
     7
370
    15
100
AcDbLine
 10
113.4954481734
 20
84.6424553302
 30
0.0
 11
113.4954481734
 21
78.6424553302
 31
0.0
  0
LINE
  5
237
330
1F
100
AcDbEntity
  8
0
  6
Continuous
 62
     7
370
    15
100
AcDbLine
 10
119.4954481734
 20
78.6424553302
 30
0.0
 11
113.4954481734
 21
78.6424553302
 31
0.0
  0
LINE
  5
238
330
1F
100
AcDbEntity
  8
0
  6
Continuous
 62
     7
370
    15
100
AcDbLine
 10
119.4954481734
 20
84.6424553302
 30
0.0
 11
119.4954481734
 21
78.6424553302
 31
0.0
  0
LINE
  5
239
330
1F
100
AcDbEntity
  8
0
  6
Continuous
 62
     7
370
    15
100
AcDbLine
 10
119.4954481734
 20
84.6424553302
 30
0.0
 11
113.4954481734
 21
84.6424553302
 31
0.0
  0
LINE
  5
23A
330
1F
100
AcDbEntity
  8
0
  6
Continuous
 62
     7
370
    15
100
AcDbLine
 10
113.4954481734
 20
90.9424553302
 30
0.0
 11
113.4954481734
 21
84.9424553302
 31
0.0
  0
LINE
  5
23B
330
1F
100
AcDbEntity
  8
0
  6
Continuous
 62
     7
370
    15
100
AcDbLine
 10
119.4954481734
 20
84.9424553302
 30
0.0
 11
113.4954481734
 21
84.9424553302
 31
0.0
  0
LINE
  5
23C
330
1F
100
AcDbEntity
  8
0
  6
Continuous
 62
     7
370
    15
100
AcDbLine
 10
119.4954481734
 20
90.9424553302
 30
0.0
 11
119.4954481734
 21
84.9424553302
 31
0.0
  0
LINE
  5
23D
330
1F
100
AcDbEntity
  8
0
  6
Continuous
 62
     7
370
    15
100
AcDbLine
 10
119.4954481734
 20
90.9424553302
 30
0.0
 11
113.4954481734
 21
90.9424553302
 31
0.0
  0
LINE
  5
23E
330
1F
100
AcDbEntity
  8
0
  6
Continuous
 62
     7
370
    15
100
AcDbLine
 10
119.4954481734
 20
97.2424553302
 30
0.0
 11
113.4954481734
 21
97.2424553302
 31
0.0
  0
LINE
  5
23F
330
1F
100
AcDbEntity
  8
0
  6
Continuous
 62
     7
370
    15
100
AcDbLine
 10
113.4954481734
 20
97.2424553302
 30
0.0
 11
113.4954481734
 21
91.2424553302
 31
0.0
  0
LINE
  5
240
330
1F
100
AcDbEntity
  8
0
  6
Continuous
 62
     7
370
    15
100
AcDbLine
 10
119.4954481734
 20
91.2424553302
 30
0.0
 11
113.4954481734
 21
91.2424553302
 31
0.0
  0
LINE
  5
241
330
1F
100
AcDbEntity
  8
0
  6
Continuous
 62
     7
370
    15
100
AcDbLine
 10
119.4954481734
 20
97.2424553302
 30
0.0
 11
119.4954481734
 21
91.2424553302
 31
0.0
  0
LINE
  5
242
330
1F
100
AcDbEntity
  8
0
  6
Continuous
 62
     7
370
    15
100
AcDbLine
 10
119.4954481734
 20
59.4424553302
 30
0.0
 11
113.4954481734
 21
59.4424553302
 31
0.0
  0
LINE
  5
243
330
1F
100
AcDbEntity
  8
0
  6
Continuous
 62
     7
370
    15
100
AcDbLine
 10
113.4954481734
 20
59.4424553302
 30
0.0
 11
113.4954481734
 21
53.6924553302
 31
0.0
  0
LINE
  5
244
330
1F
100
AcDbEntity
  8
0
  6
Continuous
 62
     7
370
    15
100
AcDbLine
 10
119.4954481734
 20
53.6924553302
 30
0.0
 11
113.4954481734
 21
53.6924553302
 31
0.0
  0
LINE
  5
245
330
1F
100
AcDbEntity
  8
0
  6
Continuous
 62
     7
370
    15
100
AcDbLine
 10
119.4954481734
 20
59.4424553302
 30
0.0
 11
119.4954481734
 21
53.6924553302
 31
0.0
  0
LINE
  5
246
330
1F
100
AcDbEntity
  8
0
  6
Continuous
 62
     7
370
    15
100
AcDbLine
 10
119.6954481734
 20
128.4924553302
 30
0.0
 11
119.6954481734
 21
122.7424553302
 31
0.0
  0
LINE
  5
247
330
1F
100
AcDbEntity
  8
0
  6
Continuous
 62
     7
370
    15
100
AcDbLine
 10
125.6954481734
 20
122.7424553302
 30
0.0
 11
119.6954481734
 21
122.7424553302
 31
0.0
  0
LINE
  5
248
330
1F
100
AcDbEntity
  8
0
  6
Continuous
 62
     7
370
    15
100
AcDbLine
 10
125.6954481734
 20
128.4924553302
 30
0.0
 11
125.6954481734
 21
122.7424553302
 31
0.0
  0
LINE
  5
249
330
1F
100
AcDbEntity
  8
0
  6
Continuous
 62
     7
370
    15
100
AcDbLine
 10
119.6954481734
 20
128.4924553302
 30
0.0
 11
125.6954481734
 21
128.4924553302
 31
0.0
  0
LINE
  5
24A
330
1F
100
AcDbEntity
  8
0
  6
Continuous
 62
     7
370
    15
100
AcDbLine
 10
125.6954481734
 20
122.4424553302
 30
0.0
 11
119.6954481734
 21
122.4424553302
 31
0.0
  0
LINE
  5
24B
330
1F
100
AcDbEntity
  8
0
  6
Continuous
 62
     7
370
    15
100
AcDbLine
 10
119.6954481734
 20
122.4424553302
 30
0.0
 11
119.6954481734
 21
116.4424553302
 31
0.0
  0
LINE
  5
24C
330
1F
100
AcDbEntity
  8
0
  6
Continuous
 62
     7
370
    15
100
AcDbLine
 10
125.6954481734
 20
116.4424553302
 30
0.0
 11
119.6954481734
 21
116.4424553302
 31
0.0
  0
LINE
  5
24D
330
1F
100
AcDbEntity
  8
0
  6
Continuous
 62
     7
370
    15
100
AcDbLine
 10
125.6954481734
 20
122.4424553302
 30
0.0
 11
125.6954481734
 21
116.4424553302
 31
0.0
  0
LINE
  5
24E
330
1F
100
AcDbEntity
  8
0
  6
Continuous
 62
     7
370
    15
100
AcDbLine
 10
125.6954481734
 20
116.1424553302
 30
0.0
 11
119.6954481734
 21
116.1424553302
 31
0.0
  0
LINE
  5
24F
330
1F
100
AcDbEntity
  8
0
  6
Continuous
 62
     7
370
    15
100
AcDbLine
 10
119.6954481734
 20
116.1424553302
 30
0.0
 11
119.6954481734
 21
110.1424553302
 31
0.0
  0
LINE
  5
250
330
1F
100
AcDbEntity
  8
0
  6
Continuous
 62
     7
370
    15
100
AcDbLine
 10
125.6954481734
 20
110.1424553302
 30
0.0
 11
119.6954481734
 21
110.1424553302
 31
0.0
  0
LINE
  5
251
330
1F
100
AcDbEntity
  8
0
  6
Continuous
 62
     7
370
    15
100
AcDbLine
 10
125.6954481734
 20
116.1424553302
 30
0.0
 11
125.6954481734
 21
110.1424553302
 31
0.0
  0
LINE
  5
252
330
1F
100
AcDbEntity
  8
0
  6
Continuous
 62
     7
370
    15
100
AcDbLine
 10
125.6954481734
 20
109.8424553302
 30
0.0
 11
119.6954481734
 21
109.8424553302
 31
0.0
  0
LINE
  5
253
330
1F
100
AcDbEntity
  8
0
  6
Continuous
 62
     7
370
    15
100
AcDbLine
 10
119.6954481734
 20
109.8424553302
 30
0.0
 11
119.6954481734
 21
103.8424553302
 31
0.0
  0
LINE
  5
254
330
1F
100
AcDbEntity
  8
0
  6
Continuous
 62
     7
370
    15
100
AcDbLine
 10
125.6954481734
 20
103.8424553302
 30
0.0
 11
119.6954481734
 21
103.8424553302
 31
0.0
  0
LINE
  5
255
330
1F
100
AcDbEntity
  8
0
  6
Continuous
 62
     7
370
    15
100
AcDbLine
 10
125.6954481734
 20
109.8424553302
 30
0.0
 11
125.6954481734
 21
103.8424553302
 31
0.0
  0
LINE
  5
256
330
1F
100
AcDbEntity
  8
0
  6
Continuous
 62
     7
370
    15
100
AcDbLine
 10
125.6954481734
 20
103.5424553302
 30
0.0
 11
119.6954481734
 21
103.5424553302
 31
0.0
  0
LINE
  5
257
330
1F
100
AcDbEntity
  8
0
  6
Continuous
 62
     7
370
    15
100
AcDbLine
 10
119.6954481734
 20
103.5424553302
 30
0.0
 11
119.6954481734
 21
97.5424553302
 31
0.0
  0
LINE
  5
258
330
1F
100
AcDbEntity
  8
0
  6
Continuous
 62
     7
370
    15
100
AcDbLine
 10
125.6954481734
 20
97.5424553302
 30
0.0
 11
119.6954481734
 21
97.5424553302
 31
0.0
  0
LINE
  5
259
330
1F
100
AcDbEntity
  8
0
  6
Continuous
 62
     7
370
    15
100
AcDbLine
 10
125.6954481734
 20
103.5424553302
 30
0.0
 11
125.6954481734
 21
97.5424553302
 31
0.0
  0
LINE
  5
25A
330
1F
100
AcDbEntity
  8
0
  6
Continuous
 62
     7
370
    15
100
AcDbLine
 10
119.6954481734
 20
65.7424553302
 30
0.0
 11
119.6954481734
 21
59.7424553302
 31
0.0
  0
LINE
  5
25B
330
1F
100
AcDbEntity
  8
0
  6
Continuous
 62
     7
370
    15
100
AcDbLine
 10
125.6954481734
 20
59.7424553302
 30
0.0
 11
119.6954481734
 21
59.7424553302
 31
0.0
  0
LINE
  5
25C
330
1F
100
AcDbEntity
  8
0
  6
Continuous
 62
     7
370
    15
100
AcDbLine
 10
125.6954481734
 20
65.7424553302
 30
0.0
 11
125.6954481734
 21
59.7424553302
 31
0.0
  0
LINE
  5
25D
330
1F
100
AcDbEntity
  8
0
  6
Continuous
 62
     7
370
    15
100
AcDbLine
 10
125.6954481734
 20
65.7424553302
 30
0.0
 11
119.6954481734
 21
65.7424553302
 31
0.0
  0
LINE
  5
25E
330
1F
100
AcDbEntity
  8
0
  6
Continuous
 62
     7
370
    15
100
AcDbLine
 10
119.6954481734
 20
72.0424553302
 30
0.0
 11
119.6954481734
 21
66.0424553302
 31
0.0
  0
LINE
  5
25F
330
1F
100
AcDbEntity
  8
0
  6
Continuous
 62
     7
370
    15
100
AcDbLine
 10
125.6954481734
 20
66.0424553302
 30
0.0
 11
119.6954481734
 21
66.0424553302
 31
0.0
  0
LINE
  5
260
330
1F
100
AcDbEntity
  8
0
  6
Continuous
 62
     7
370
    15
100
AcDbLine
 10
125.6954481734
 20
72.0424553302
 30
0.0
 11
125.6954481734
 21
66.0424553302
 31
0.0
  0
LINE
  5
261
330
1F
100
AcDbEntity
  8
0
  6
Continuous
 62
     7
370
    15
100
AcDbLine
 10
125.6954481734
 20
72.0424553302
 30
0.0
 11
119.6954481734
 21
72.0424553302
 31
0.0
  0
LINE
  5
262
330
1F
100
AcDbEntity
  8
0
  6
Continuous
 62
     7
370
    15
100
AcDbLine
 10
119.6954481734
 20
78.3424553302
 30
0.0
 11
119.6954481734
 21
72.3424553302
 31
0.0
  0
LINE
  5
263
330
1F
100
AcDbEntity
  8
0
  6
Continuous
 62
     7
370
    15
100
AcDbLine
 10
125.6954481734
 20
72.3424553302
 30
0.0
 11
119.6954481734
 21
72.3424553302
 31
0.0
  0
LINE
  5
264
330
1F
100
AcDbEntity
  8
0
  6
Continuous
 62
     7
370
    15
100
AcDbLine
 10
125.6954481734
 20
78.3424553302
 30
0.0
 11
125.6954481734
 21
72.3424553302
 31
0.0
  0
LINE
  5
265
330
1F
100
AcDbEntity
  8
0
  6
Continuous
 62
     7
370
    15
100
AcDbLine
 10
125.6954481734
 20
78.3424553302
 30
0.0
 11
119.6954481734
 21
78.3424553302
 31
0.0
  0
LINE
  5
266
330
1F
100
AcDbEntity
  8
0
  6
Continuous
 62
     7
370
    15
100
AcDbLine
 10
119.6954481734
 20
84.6424553302
 30
0.0
 11
119.6954481734
 21
78.6424553302
 31
0.0
  0
LINE
  5
267
330
1F
100
AcDbEntity
  8
0
  6
Continuous
 62
     7
370
    15
100
AcDbLine
 10
125.6954481734
 20
78.6424553302
 30
0.0
 11
119.6954481734
 21
78.6424553302
 31
0.0
  0
LINE
  5
268
330
1F
100
AcDbEntity
  8
0
  6
Continuous
 62
     7
370
    15
100
AcDbLine
 10
125.6954481734
 20
84.6424553302
 30
0.0
 11
125.6954481734
 21
78.6424553302
 31
0.0
  0
LINE
  5
269
330
1F
100
AcDbEntity
  8
0
  6
Continuous
 62
     7
370
    15
100
AcDbLine
 10
125.6954481734
 20
84.6424553302
 30
0.0
 11
119.6954481734
 21
84.6424553302
 31
0.0
  0
LINE
  5
26A
330
1F
100
AcDbEntity
  8
0
  6
Continuous
 62
     7
370
    15
100
AcDbLine
 10
119.6954481734
 20
90.9424553302
 30
0.0
 11
119.6954481734
 21
84.9424553302
 31
0.0
  0
LINE
  5
26B
330
1F
100
AcDbEntity
  8
0
  6
Continuous
 62
     7
370
    15
100
AcDbLine
 10
125.6954481734
 20
84.9424553302
 30
0.0
 11
119.6954481734
 21
84.9424553302
 31
0.0
  0
LINE
  5
26C
330
1F
100
AcDbEntity
  8
0
  6
Continuous
 62
     7
370
    15
100
AcDbLine
 10
125.6954481734
 20
90.9424553302
 30
0.0
 11
125.6954481734
 21
84.9424553302
 31
0.0
  0
LINE
  5
26D
330
1F
100
AcDbEntity
  8
0
  6
Continuous
 62
     7
370
    15
100
AcDbLine
 10
125.6954481734
 20
90.9424553302
 30
0.0
 11
119.6954481734
 21
90.9424553302
 31
0.0
  0
LINE
  5
26E
330
1F
100
AcDbEntity
  8
0
  6
Continuous
 62
     7
370
    15
100
AcDbLine
 10
125.6954481734
 20
97.2424553302
 30
0.0
 11
119.6954481734
 21
97.2424553302
 31
0.0
  0
LINE
  5
26F
330
1F
100
AcDbEntity
  8
0
  6
Continuous
 62
     7
370
    15
100
AcDbLine
 10
119.6954481734
 20
97.2424553302
 30
0.0
 11
119.6954481734
 21
91.2424553302
 31
0.0
  0
LINE
  5
270
330
1F
100
AcDbEntity
  8
0
  6
Continuous
 62
     7
370
    15
100
AcDbLine
 10
125.6954481734
 20
91.2424553302
 30
0.0
 11
119.6954481734
 21
91.2424553302
 31
0.0
  0
LINE
  5
271
330
1F
100
AcDbEntity
  8
0
  6
Continuous
 62
     7
370
    15
100
AcDbLine
 10
125.6954481734
 20
97.2424553302
 30
0.0
 11
125.6954481734
 21
91.2424553302
 31
0.0
  0
LINE
  5
272
330
1F
100
AcDbEntity
  8
0
  6
Continuous
 62
     7
370
    15
100
AcDbLine
 10
125.6954481734
 20
59.4424553302
 30
0.0
 11
119.6954481734
 21
59.4424553302
 31
0.0
  0
LINE
  5
273
330
1F
100
AcDbEntity
  8
0
  6
Continuous
 62
     7
370
    15
100
AcDbLine
 10
119.6954481734
 20
59.4424553302
 30
0.0
 11
119.6954481734
 21
53.6924553302
 31
0.0
  0
LINE
  5
274
330
1F
100
AcDbEntity
  8
0
  6
Continuous
 62
     7
370
    15
100
AcDbLine
 10
125.6954481734
 20
53.6924553302
 30
0.0
 11
119.6954481734
 21
53.6924553302
 31
0.0
  0
LINE
  5
275
330
1F
100
AcDbEntity
  8
0
  6
Continuous
 62
     7
370
    15
100
AcDbLine
 10
125.6954481734
 20
59.4424553302
 30
0.0
 11
125.6954481734
 21
53.6924553302
 31
0.0
  0
LINE
  5
276
330
1F
100
AcDbEntity
  8
0
  6
Continuous
 62
     7
370
    15
100
AcDbLine
 10
125.8954481734
 20
128.4924553302
 30
0.0
 11
125.8954481734
 21
122.7424553302
 31
0.0
  0
LINE
  5
277
330
1F
100
AcDbEntity
  8
0
  6
Continuous
 62
     7
370
    15
100
AcDbLine
 10
131.8954481734
 20
122.7424553302
 30
0.0
 11
125.8954481734
 21
122.7424553302
 31
0.0
  0
LINE
  5
278
330
1F
100
AcDbEntity
  8
0
  6
Continuous
 62
     7
370
    15
100
AcDbLine
 10
131.8954481734
 20
128.4924553302
 30
0.0
 11
131.8954481734
 21
122.7424553302
 31
0.0
  0
LINE
  5
279
330
1F
100
AcDbEntity
  8
0
  6
Continuous
 62
     7
370
    15
100
AcDbLine
 10
125.8954481734
 20
128.4924553302
 30
0.0
 11
131.8954481734
 21
128.4924553302
 31
0.0
  0
LINE
  5
27A
330
1F
100
AcDbEntity
  8
0
  6
Continuous
 62
     7
370
    15
100
AcDbLine
 10
131.8954481734
 20
122.4424553302
 30
0.0
 11
125.8954481734
 21
122.4424553302
 31
0.0
  0
LINE
  5
27B
330
1F
100
AcDbEntity
  8
0
  6
Continuous
 62
     7
370
    15
100
AcDbLine
 10
125.8954481734
 20
122.4424553302
 30
0.0
 11
125.8954481734
 21
116.4424553302
 31
0.0
  0
LINE
  5
27C
330
1F
100
AcDbEntity
  8
0
  6
Continuous
 62
     7
370
    15
100
AcDbLine
 10
131.8954481734
 20
116.4424553302
 30
0.0
 11
125.8954481734
 21
116.4424553302
 31
0.0
  0
LINE
  5
27D
330
1F
100
AcDbEntity
  8
0
  6
Continuous
 62
     7
370
    15
100
AcDbLine
 10
131.8954481734
 20
122.4424553302
 30
0.0
 11
131.8954481734
 21
116.4424553302
 31
0.0
  0
LINE
  5
27E
330
1F
100
AcDbEntity
  8
0
  6
Continuous
 62
     7
370
    15
100
AcDbLine
 10
131.8954481734
 20
116.1424553302
 30
0.0
 11
125.8954481734
 21
116.1424553302
 31
0.0
  0
LINE
  5
27F
330
1F
100
AcDbEntity
  8
0
  6
Continuous
 62
     7
370
    15
100
AcDbLine
 10
125.8954481734
 20
116.1424553302
 30
0.0
 11
125.8954481734
 21
110.1424553302
 31
0.0
  0
LINE
  5
280
330
1F
100
AcDbEntity
  8
0
  6
Continuous
 62
     7
370
    15
100
AcDbLine
 10
131.8954481734
 20
110.1424553302
 30
0.0
 11
125.8954481734
 21
110.1424553302
 31
0.0
  0
LINE
  5
281
330
1F
100
AcDbEntity
  8
0
  6
Continuous
 62
     7
370
    15
100
AcDbLine
 10
131.8954481734
 20
116.1424553302
 30
0.0
 11
131.8954481734
 21
110.1424553302
 31
0.0
  0
LINE
  5
282
330
1F
100
AcDbEntity
  8
0
  6
Continuous
 62
     7
370
    15
100
AcDbLine
 10
131.8954481734
 20
109.8424553302
 30
0.0
 11
125.8954481734
 21
109.8424553302
 31
0.0
  0
LINE
  5
283
330
1F
100
AcDbEntity
  8
0
  6
Continuous
 62
     7
370
    15
100
AcDbLine
 10
125.8954481734
 20
109.8424553302
 30
0.0
 11
125.8954481734
 21
103.8424553302
 31
0.0
  0
LINE
  5
284
330
1F
100
AcDbEntity
  8
0
  6
Continuous
 62
     7
370
    15
100
AcDbLine
 10
131.8954481734
 20
103.8424553302
 30
0.0
 11
125.8954481734
 21
103.8424553302
 31
0.0
  0
LINE
  5
285
330
1F
100
AcDbEntity
  8
0
  6
Continuous
 62
     7
370
    15
100
AcDbLine
 10
131.8954481734
 20
109.8424553302
 30
0.0
 11
131.8954481734
 21
103.8424553302
 31
0.0
  0
LINE
  5
286
330
1F
100
AcDbEntity
  8
0
  6
Continuous
 62
     7
370
    15
100
AcDbLine
 10
131.8954481734
 20
103.5424553302
 30
0.0
 11
125.8954481734
 21
103.5424553302
 31
0.0
  0
LINE
  5
287
330
1F
100
AcDbEntity
  8
0
  6
Continuous
 62
     7
370
    15
100
AcDbLine
 10
125.8954481734
 20
103.5424553302
 30
0.0
 11
125.8954481734
 21
97.5424553302
 31
0.0
  0
LINE
  5
288
330
1F
100
AcDbEntity
  8
0
  6
Continuous
 62
     7
370
    15
100
AcDbLine
 10
131.8954481734
 20
97.5424553302
 30
0.0
 11
125.8954481734
 21
97.5424553302
 31
0.0
  0
LINE
  5
289
330
1F
100
AcDbEntity
  8
0
  6
Continuous
 62
     7
370
    15
100
AcDbLine
 10
131.8954481734
 20
103.5424553302
 30
0.0
 11
131.8954481734
 21
97.5424553302
 31
0.0
  0
LINE
  5
28A
330
1F
100
AcDbEntity
  8
0
  6
Continuous
 62
     7
370
    15
100
AcDbLine
 10
125.8954481734
 20
65.7424553302
 30
0.0
 11
125.8954481734
 21
59.7424553302
 31
0.0
  0
LINE
  5
28B
330
1F
100
AcDbEntity
  8
0
  6
Continuous
 62
     7
370
    15
100
AcDbLine
 10
131.8954481734
 20
59.7424553302
 30
0.0
 11
125.8954481734
 21
59.7424553302
 31
0.0
  0
LINE
  5
28C
330
1F
100
AcDbEntity
  8
0
  6
Continuous
 62
     7
370
    15
100
AcDbLine
 10
131.8954481734
 20
65.7424553302
 30
0.0
 11
131.8954481734
 21
59.7424553302
 31
0.0
  0
LINE
  5
28D
330
1F
100
AcDbEntity
  8
0
  6
Continuous
 62
     7
370
    15
100
AcDbLine
 10
131.8954481734
 20
65.7424553302
 30
0.0
 11
125.8954481734
 21
65.7424553302
 31
0.0
  0
LINE
  5
28E
330
1F
100
AcDbEntity
  8
0
  6
Continuous
 62
     7
370
    15
100
AcDbLine
 10
125.8954481734
 20
72.0424553302
 30
0.0
 11
125.8954481734
 21
66.0424553302
 31
0.0
  0
LINE
  5
28F
330
1F
100
AcDbEntity
  8
0
  6
Continuous
 62
     7
370
    15
100
AcDbLine
 10
131.8954481734
 20
66.0424553302
 30
0.0
 11
125.8954481734
 21
66.0424553302
 31
0.0
  0
LINE
  5
290
330
1F
100
AcDbEntity
  8
0
  6
Continuous
 62
     7
370
    15
100
AcDbLine
 10
131.8954481734
 20
72.0424553302
 30
0.0
 11
131.8954481734
 21
66.0424553302
 31
0.0
  0
LINE
  5
291
330
1F
100
AcDbEntity
  8
0
  6
Continuous
 62
     7
370
    15
100
AcDbLine
 10
131.8954481734
 20
72.0424553302
 30
0.0
 11
125.8954481734
 21
72.0424553302
 31
0.0
  0
LINE
  5
292
330
1F
100
AcDbEntity
  8
0
  6
Continuous
 62
     7
370
    15
100
AcDbLine
 10
125.8954481734
 20
78.3424553302
 30
0.0
 11
125.8954481734
 21
72.3424553302
 31
0.0
  0
LINE
  5
293
330
1F
100
AcDbEntity
  8
0
  6
Continuous
 62
     7
370
    15
100
AcDbLine
 10
131.8954481734
 20
72.3424553302
 30
0.0
 11
125.8954481734
 21
72.3424553302
 31
0.0
  0
LINE
  5
294
330
1F
100
AcDbEntity
  8
0
  6
Continuous
 62
     7
370
    15
100
AcDbLine
 10
131.8954481734
 20
78.3424553302
 30
0.0
 11
131.8954481734
 21
72.3424553302
 31
0.0
  0
LINE
  5
295
330
1F
100
AcDbEntity
  8
0
  6
Continuous
 62
     7
370
    15
100
AcDbLine
 10
131.8954481734
 20
78.3424553302
 30
0.0
 11
125.8954481734
 21
78.3424553302
 31
0.0
  0
LINE
  5
296
330
1F
100
AcDbEntity
  8
0
  6
Continuous
 62
     7
370
    15
100
AcDbLine
 10
125.8954481734
 20
84.6424553302
 30
0.0
 11
125.8954481734
 21
78.6424553302
 31
0.0
  0
LINE
  5
297
330
1F
100
AcDbEntity
  8
0
  6
Continuous
 62
     7
370
    15
100
AcDbLine
 10
131.8954481734
 20
78.6424553302
 30
0.0
 11
125.8954481734
 21
78.6424553302
 31
0.0
  0
LINE
  5
298
330
1F
100
AcDbEntity
  8
0
  6
Continuous
 62
     7
370
    15
100
AcDbLine
 10
131.8954481734
 20
84.6424553302
 30
0.0
 11
131.8954481734
 21
78.6424553302
 31
0.0
  0
LINE
  5
299
330
1F
100
AcDbEntity
  8
0
  6
Continuous
 62
     7
370
    15
100
AcDbLine
 10
131.8954481734
 20
84.6424553302
 30
0.0
 11
125.8954481734
 21
84.6424553302
 31
0.0
  0
LINE
  5
29A
330
1F
100
AcDbEntity
  8
0
  6
Continuous
 62
     7
370
    15
100
AcDbLine
 10
125.8954481734
 20
90.9424553302
 30
0.0
 11
125.8954481734
 21
84.9424553302
 31
0.0
  0
LINE
  5
29B
330
1F
100
AcDbEntity
  8
0
  6
Continuous
 62
     7
370
    15
100
AcDbLine
 10
131.8954481734
 20
84.9424553302
 30
0.0
 11
125.8954481734
 21
84.9424553302
 31
0.0
  0
LINE
  5
29C
330
1F
100
AcDbEntity
  8
0
  6
Continuous
 62
     7
370
    15
100
AcDbLine
 10
131.8954481734
 20
90.9424553302
 30
0.0
 11
131.8954481734
 21
84.9424553302
 31
0.0
  0
LINE
  5
29D
330
1F
100
AcDbEntity
  8
0
  6
Continuous
 62
     7
370
    15
100
AcDbLine
 10
131.8954481734
 20
90.9424553302
 30
0.0
 11
125.8954481734
 21
90.9424553302
 31
0.0
  0
LINE
  5
29E
330
1F
100
AcDbEntity
  8
0
  6
Continuous
 62
     7
370
    15
100
AcDbLine
 10
131.8954481734
 20
97.2424553302
 30
0.0
 11
125.8954481734
 21
97.2424553302
 31
0.0
  0
LINE
  5
29F
330
1F
100
AcDbEntity
  8
0
  6
Continuous
 62
     7
370
    15
100
AcDbLine
 10
125.8954481734
 20
97.2424553302
 30
0.0
 11
125.8954481734
 21
91.2424553302
 31
0.0
  0
LINE
  5
2A0
330
1F
100
AcDbEntity
  8
0
  6
Continuous
 62
     7
370
    15
100
AcDbLine
 10
131.8954481734
 20
91.2424553302
 30
0.0
 11
125.8954481734
 21
91.2424553302
 31
0.0
  0
LINE
  5
2A1
330
1F
100
AcDbEntity
  8
0
  6
Continuous
 62
     7
370
    15
100
AcDbLine
 10
131.8954481734
 20
97.2424553302
 30
0.0
 11
131.8954481734
 21
91.2424553302
 31
0.0
  0
LINE
  5
2A2
330
1F
100
AcDbEntity
  8
0
  6
Continuous
 62
     7
370
    15
100
AcDbLine
 10
131.8954481734
 20
59.4424553302
 30
0.0
 11
125.8954481734
 21
59.4424553302
 31
0.0
  0
LINE
  5
2A3
330
1F
100
AcDbEntity
  8
0
  6
Continuous
 62
     7
370
    15
100
AcDbLine
 10
125.8954481734
 20
59.4424553302
 30
0.0
 11
125.8954481734
 21
53.6924553302
 31
0.0
  0
LINE
  5
2A4
330
1F
100
AcDbEntity
  8
0
  6
Continuous
 62
     7
370
    15
100
AcDbLine
 10
131.8954481734
 20
53.6924553302
 30
0.0
 11
125.8954481734
 21
53.6924553302
 31
0.0
  0
LINE
  5
2A5
330
1F
100
AcDbEntity
  8
0
  6
Continuous
 62
     7
370
    15
100
AcDbLine
 10
131.8954481734
 20
59.4424553302
 30
0.0
 11
131.8954481734
 21
53.6924553302
 31
0.0
  0
LINE
  5
2A6
330
1F
100
AcDbEntity
  8
0
  6
Continuous
 62
     7
370
    15
100
AcDbLine
 10
132.0954481734
 20
128.4924553302
 30
0.0
 11
132.0954481734
 21
122.7424553302
 31
0.0
  0
LINE
  5
2A7
330
1F
100
AcDbEntity
  8
0
  6
Continuous
 62
     7
370
    15
100
AcDbLine
 10
138.0954481734
 20
122.7424553302
 30
0.0
 11
132.0954481734
 21
122.7424553302
 31
0.0
  0
LINE
  5
2A8
330
1F
100
AcDbEntity
  8
0
  6
Continuous
 62
     7
370
    15
100
AcDbLine
 10
138.0954481734
 20
128.4924553302
 30
0.0
 11
138.0954481734
 21
122.7424553302
 31
0.0
  0
LINE
  5
2A9
330
1F
100
AcDbEntity
  8
0
  6
Continuous
 62
     7
370
    15
100
AcDbLine
 10
132.0954481734
 20
128.4924553302
 30
0.0
 11
138.0954481734
 21
128.4924553302
 31
0.0
  0
LINE
  5
2AA
330
1F
100
AcDbEntity
  8
0
  6
Continuous
 62
     7
370
    15
100
AcDbLine
 10
138.0954481734
 20
122.4424553302
 30
0.0
 11
132.0954481734
 21
122.4424553302
 31
0.0
  0
LINE
  5
2AB
330
1F
100
AcDbEntity
  8
0
  6
Continuous
 62
     7
370
    15
100
AcDbLine
 10
132.0954481734
 20
122.4424553302
 30
0.0
 11
132.0954481734
 21
116.4424553302
 31
0.0
  0
LINE
  5
2AC
330
1F
100
AcDbEntity
  8
0
  6
Continuous
 62
     7
370
    15
100
AcDbLine
 10
138.0954481734
 20
116.4424553302
 30
0.0
 11
132.0954481734
 21
116.4424553302
 31
0.0
  0
LINE
  5
2AD
330
1F
100
AcDbEntity
  8
0
  6
Continuous
 62
     7
370
    15
100
AcDbLine
 10
138.0954481734
 20
122.4424553302
 30
0.0
 11
138.0954481734
 21
116.4424553302
 31
0.0
  0
LINE
  5
2AE
330
1F
100
AcDbEntity
  8
0
  6
Continuous
 62
     7
370
    15
100
AcDbLine
 10
138.0954481734
 20
116.1424553302
 30
0.0
 11
132.0954481734
 21
116.1424553302
 31
0.0
  0
LINE
  5
2AF
330
1F
100
AcDbEntity
  8
0
  6
Continuous
 62
     7
370
    15
100
AcDbLine
 10
132.0954481734
 20
116.1424553302
 30
0.0
 11
132.0954481734
 21
110.1424553302
 31
0.0
  0
LINE
  5
2B0
330
1F
100
AcDbEntity
  8
0
  6
Continuous
 62
     7
370
    15
100
AcDbLine
 10
138.0954481734
 20
110.1424553302
 30
0.0
 11
132.0954481734
 21
110.1424553302
 31
0.0
  0
LINE
  5
2B1
330
1F
100
AcDbEntity
  8
0
  6
Continuous
 62
     7
370
    15
100
AcDbLine
 10
138.0954481734
 20
116.1424553302
 30
0.0
 11
138.0954481734
 21
110.1424553302
 31
0.0
  0
LINE
  5
2B2
330
1F
100
AcDbEntity
  8
0
  6
Continuous
 62
     7
370
    15
100
AcDbLine
 10
138.0954481734
 20
109.8424553302
 30
0.0
 11
132.0954481734
 21
109.8424553302
 31
0.0
  0
LINE
  5
2B3
330
1F
100
AcDbEntity
  8
0
  6
Continuous
 62
     7
370
    15
100
AcDbLine
 10
132.0954481734
 20
109.8424553302
 30
0.0
 11
132.0954481734
 21
103.8424553302
 31
0.0
  0
LINE
  5
2B4
330
1F
100
AcDbEntity
  8
0
  6
Continuous
 62
     7
370
    15
100
AcDbLine
 10
138.0954481734
 20
103.8424553302
 30
0.0
 11
132.0954481734
 21
103.8424553302
 31
0.0
  0
LINE
  5
2B5
330
1F
100
AcDbEntity
  8
0
  6
Continuous
 62
     7
370
    15
100
AcDbLine
 10
138.0954481734
 20
109.8424553302
 30
0.0
 11
138.0954481734
 21
103.8424553302
 31
0.0
  0
LINE
  5
2B6
330
1F
100
AcDbEntity
  8
0
  6
Continuous
 62
     7
370
    15
100
AcDbLine
 10
138.0954481734
 20
103.5424553302
 30
0.0
 11
132.0954481734
 21
103.5424553302
 31
0.0
  0
LINE
  5
2B7
330
1F
100
AcDbEntity
  8
0
  6
Continuous
 62
     7
370
    15
100
AcDbLine
 10
132.0954481734
 20
103.5424553302
 30
0.0
 11
132.0954481734
 21
97.5424553302
 31
0.0
  0
LINE
  5
2B8
330
1F
100
AcDbEntity
  8
0
  6
Continuous
 62
     7
370
    15
100
AcDbLine
 10
138.0954481734
 20
97.5424553302
 30
0.0
 11
132.0954481734
 21
97.5424553302
 31
0.0
  0
LINE
  5
2B9
330
1F
100
AcDbEntity
  8
0
  6
Continuous
 62
     7
370
    15
100
AcDbLine
 10
138.0954481734
 20
103.5424553302
 30
0.0
 11
138.0954481734
 21
97.5424553302
 31
0.0
  0
LINE
  5
2BA
330
1F
100
AcDbEntity
  8
0
  6
Continuous
 62
     7
370
    15
100
AcDbLine
 10
132.0954481734
 20
65.7424553302
 30
0.0
 11
132.0954481734
 21
59.7424553302
 31
0.0
  0
LINE
  5
2BB
330
1F
100
AcDbEntity
  8
0
  6
Continuous
 62
     7
370
    15
100
AcDbLine
 10
138.0954481734
 20
59.7424553302
 30
0.0
 11
132.0954481734
 21
59.7424553302
 31
0.0
  0
LINE
  5
2BC
330
1F
100
AcDbEntity
  8
0
  6
Continuous
 62
     7
370
    15
100
AcDbLine
 10
138.0954481734
 20
65.7424553302
 30
0.0
 11
138.0954481734
 21
59.7424553302
 31
0.0
  0
LINE
  5
2BD
330
1F
100
AcDbEntity
  8
0
  6
Continuous
 62
     7
370
    15
100
AcDbLine
 10
138.0954481734
 20
65.7424553302
 30
0.0
 11
132.0954481734
 21
65.7424553302
 31
0.0
  0
LINE
  5
2BE
330
1F
100
AcDbEntity
  8
0
  6
Continuous
 62
     7
370
    15
100
AcDbLine
 10
132.0954481734
 20
72.0424553302
 30
0.0
 11
132.0954481734
 21
66.0424553302
 31
0.0
  0
LINE
  5
2BF
330
1F
100
AcDbEntity
  8
0
  6
Continuous
 62
     7
370
    15
100
AcDbLine
 10
138.0954481734
 20
66.0424553302
 30
0.0
 11
132.0954481734
 21
66.0424553302
 31
0.0
  0
LINE
  5
2C0
330
1F
100
AcDbEntity
  8
0
  6
Continuous
 62
     7
370
    15
100
AcDbLine
 10
138.0954481734
 20
72.0424553302
 30
0.0
 11
138.0954481734
 21
66.0424553302
 31
0.0
  0
LINE
  5
2C1
330
1F
100
AcDbEntity
  8
0
  6
Continuous
 62
     7
370
    15
100
AcDbLine
 10
138.0954481734
 20
72.0424553302
 30
0.0
 11
132.0954481734
 21
72.0424553302
 31
0.0
  0
LINE
  5
2C2
330
1F
100
AcDbEntity
  8
0
  6
Continuous
 62
     7
370
    15
100
AcDbLine
 10
132.0954481734
 20
78.3424553302
 30
0.0
 11
132.0954481734
 21
72.3424553302
 31
0.0
  0
LINE
  5
2C3
330
1F
100
AcDbEntity
  8
0
  6
Continuous
 62
     7
370
    15
100
AcDbLine
 10
138.0954481734
 20
72.3424553302
 30
0.0
 11
132.0954481734
 21
72.3424553302
 31
0.0
  0
LINE
  5
2C4
330
1F
100
AcDbEntity
  8
0
  6
Continuous
 62
     7
370
    15
100
AcDbLine
 10
138.0954481734
 20
78.3424553302
 30
0.0
 11
138.0954481734
 21
72.3424553302
 31
0.0
  0
LINE
  5
2C5
330
1F
100
AcDbEntity
  8
0
  6
Continuous
 62
     7
370
    15
100
AcDbLine
 10
138.0954481734
 20
78.3424553302
 30
0.0
 11
132.0954481734
 21
78.3424553302
 31
0.0
  0
LINE
  5
2C6
330
1F
100
AcDbEntity
  8
0
  6
Continuous
 62
     7
370
    15
100
AcDbLine
 10
132.0954481734
 20
84.6424553302
 30
0.0
 11
132.0954481734
 21
78.6424553302
 31
0.0
  0
LINE
  5
2C7
330
1F
100
AcDbEntity
  8
0
  6
Continuous
 62
     7
370
    15
100
AcDbLine
 10
138.0954481734
 20
78.6424553302
 30
0.0
 11
132.0954481734
 21
78.6424553302
 31
0.0
  0
LINE
  5
2C8
330
1F
100
AcDbEntity
  8
0
  6
Continuous
 62
     7
370
    15
100
AcDbLine
 10
138.0954481734
 20
84.6424553302
 30
0.0
 11
138.0954481734
 21
78.6424553302
 31
0.0
  0
LINE
  5
2C9
330
1F
100
AcDbEntity
  8
0
  6
Continuous
 62
     7
370
    15
100
AcDbLine
 10
138.0954481734
 20
84.6424553302
 30
0.0
 11
132.0954481734
 21
84.6424553302
 31
0.0
  0
LINE
  5
2CA
330
1F
100
AcDbEntity
  8
0
  6
Continuous
 62
     7
370
    15
100
AcDbLine
 10
132.0954481734
 20
90.9424553302
 30
0.0
 11
132.0954481734
 21
84.9424553302
 31
0.0
  0
LINE
  5
2CB
330
1F
100
AcDbEntity
  8
0
  6
Continuous
 62
     7
370
    15
100
AcDbLine
 10
138.0954481734
 20
84.9424553302
 30
0.0
 11
132.0954481734
 21
84.9424553302
 31
0.0
  0
LINE
  5
2CC
330
1F
100
AcDbEntity
  8
0
  6
Continuous
 62
     7
370
    15
100
AcDbLine
 10
138.0954481734
 20
90.9424553302
 30
0.0
 11
138.0954481734
 21
84.9424553302
 31
0.0
  0
LINE
  5
2CD
330
1F
100
AcDbEntity
  8
0
  6
Continuous
 62
     7
370
    15
100
AcDbLine
 10
138.0954481734
 20
90.9424553302
 30
0.0
 11
132.0954481734
 21
90.9424553302
 31
0.0
  0
LINE
  5
2CE
330
1F
100
AcDbEntity
  8
0
  6
Continuous
 62
     7
370
    15
100
AcDbLine
 10
138.0954481734
 20
97.2424553302
 30
0.0
 11
132.0954481734
 21
97.2424553302
 31
0.0
  0
LINE
  5
2CF
330
1F
100
AcDbEntity
  8
0
  6
Continuous
 62
     7
370
    15
100
AcDbLine
 10
132.0954481734
 20
97.2424553302
 30
0.0
 11
132.0954481734
 21
91.2424553302
 31
0.0
  0
LINE
  5
2D0
330
1F
100
AcDbEntity
  8
0
  6
Continuous
 62
     7
370
    15
100
AcDbLine
 10
138.0954481734
 20
91.2424553302
 30
0.0
 11
132.0954481734
 21
91.2424553302
 31
0.0
  0
LINE
  5
2D1
330
1F
100
AcDbEntity
  8
0
  6
Continuous
 62
     7
370
    15
100
AcDbLine
 10
138.0954481734
 20
97.2424553302
 30
0.0
 11
138.0954481734
 21
91.2424553302
 31
0.0
  0
LINE
  5
2D2
330
1F
100
AcDbEntity
  8
0
  6
Continuous
 62
     7
370
    15
100
AcDbLine
 10
138.0954481734
 20
59.4424553302
 30
0.0
 11
132.0954481734
 21
59.4424553302
 31
0.0
  0
LINE
  5
2D3
330
1F
100
AcDbEntity
  8
0
  6
Continuous
 62
     7
370
    15
100
AcDbLine
 10
132.0954481734
 20
59.4424553302
 30
0.0
 11
132.0954481734
 21
53.6924553302
 31
0.0
  0
LINE
  5
2D4
330
1F
100
AcDbEntity
  8
0
  6
Continuous
 62
     7
370
    15
100
AcDbLine
 10
138.0954481734
 20
53.6924553302
 30
0.0
 11
132.0954481734
 21
53.6924553302
 31
0.0
  0
LINE
  5
2D5
330
1F
100
AcDbEntity
  8
0
  6
Continuous
 62
     7
370
    15
100
AcDbLine
 10
138.0954481734
 20
59.4424553302
 30
0.0
 11
138.0954481734
 21
53.6924553302
 31
0.0
  0
LINE
  5
2D6
330
1F
100
AcDbEntity
  8
0
  6
Continuous
 62
     7
370
    15
100
AcDbLine
 10
144.5954481734
 20
59.7424553302
 30
0.0
 11
144.4954481734
 21
59.7424553302
 31
0.0
  0
LINE
  5
2D7
330
1F
100
AcDbEntity
  8
0
  6
Continuous
 62
     7
370
    15
100
AcDbLine
 10
144.5954481734
 20
65.7424553302
 30
0.0
 11
144.5954481734
 21
59.7424553302
 31
0.0
  0
LINE
  5
2D8
330
1F
100
AcDbEntity
  8
0
  6
Continuous
 62
     7
370
    15
100
AcDbLine
 10
144.5954481734
 20
65.7424553302
 30
0.0
 11
144.4954481734
 21
65.7424553302
 31
0.0
  0
LINE
  5
2D9
330
1F
100
AcDbEntity
  8
0
  6
Continuous
 62
     7
370
    15
100
AcDbLine
 10
144.4954481734
 20
65.7424553302
 30
0.0
 11
144.4954481734
 21
59.7424553302
 31
0.0
  0
LINE
  5
2DA
330
1F
100
AcDbEntity
  8
0
  6
Continuous
 62
     7
370
    15
100
AcDbLine
 10
144.5954481734
 20
66.0424553302
 30
0.0
 11
144.4954481734
 21
66.0424553302
 31
0.0
  0
LINE
  5
2DB
330
1F
100
AcDbEntity
  8
0
  6
Continuous
 62
     7
370
    15
100
AcDbLine
 10
144.5954481734
 20
72.0424553302
 30
0.0
 11
144.5954481734
 21
66.0424553302
 31
0.0
  0
LINE
  5
2DC
330
1F
100
AcDbEntity
  8
0
  6
Continuous
 62
     7
370
    15
100
AcDbLine
 10
144.5954481734
 20
72.0424553302
 30
0.0
 11
144.4954481734
 21
72.0424553302
 31
0.0
  0
LINE
  5
2DD
330
1F
100
AcDbEntity
  8
0
  6
Continuous
 62
     7
370
    15
100
AcDbLine
 10
144.4954481734
 20
72.0424553302
 30
0.0
 11
144.4954481734
 21
66.0424553302
 31
0.0
  0
LINE
  5
2DE
330
1F
100
AcDbEntity
  8
0
  6
Continuous
 62
     7
370
    15
100
AcDbLine
 10
144.5954481734
 20
72.3424553302
 30
0.0
 11
144.4954481734
 21
72.3424553302
 31
0.0
  0
LINE
  5
2DF
330
1F
100
AcDbEntity
  8
0
  6
Continuous
 62
     7
370
    15
100
AcDbLine
 10
144.5954481734
 20
78.3424553302
 30
0.0
 11
144.5954481734
 21
72.3424553302
 31
0.0
  0
LINE
  5
2E0
330
1F
100
AcDbEntity
  8
0
  6
Continuous
 62
     7
370
    15
100
AcDbLine
 10
144.5954481734
 20
78.3424553302
 30
0.0
 11
144.4954481734
 21
78.3424553302
 31
0.0
  0
LINE
  5
2E1
330
1F
100
AcDbEntity
  8
0
  6
Continuous
 62
     7
370
    15
100
AcDbLine
 10
144.4954481734
 20
78.3424553302
 30
0.0
 11
144.4954481734
 21
72.3424553302
 31
0.0
  0
LINE
  5
2E2
330
1F
100
AcDbEntity
  8
0
  6
Continuous
 62
     7
370
    15
100
AcDbLine
 10
144.5954481734
 20
78.6424553302
 30
0.0
 11
144.4954481734
 21
78.6424553302
 31
0.0
  0
LINE
  5
2E3
330
1F
100
AcDbEntity
  8
0
  6
Continuous
 62
     7
370
    15
100
AcDbLine
 10
144.5954481734
 20
84.6424553302
 30
0.0
 11
144.5954481734
 21
78.6424553302
 31
0.0
  0
LINE
  5
2E4
330
1F
100
AcDbEntity
  8
0
  6
Continuous
 62
     7
370
    15
100
AcDbLine
 10
144.5954481734
 20
84.6424553302
 30
0.0
 11
144.4954481734
 21
84.6424553302
 31
0.0
  0
LINE
  5
2E5
330
1F
100
AcDbEntity
  8
0
  6
Continuous
 62
     7
370
    15
100
AcDbLine
 10
144.4954481734
 20
84.6424553302
 30
0.0
 11
144.4954481734
 21
78.6424553302
 31
0.0
  0
LINE
  5
2E6
330
1F
100
AcDbEntity
  8
0
  6
Continuous
 62
     7
370
    15
100
AcDbLine
 10
144.5954481734
 20
84.9424553302
 30
0.0
 11
144.4954481734
 21
84.9424553302
 31
0.0
  0
LINE
  5
2E7
330
1F
100
AcDbEntity
  8
0
  6
Continuous
 62
     7
370
    15
100
AcDbLine
 10
144.5954481734
 20
90.9424553302
 30
0.0
 11
144.5954481734
 21
84.9424553302
 31
0.0
  0
LINE
  5
2E8
330
1F
100
AcDbEntity
  8
0
  6
Continuous
 62
     7
370
    15
100
AcDbLine
 10
144.5954481734
 20
90.9424553302
 30
0.0
 11
144.4954481734
 21
90.9424553302
 31
0.0
  0
LINE
  5
2E9
330
1F
100
AcDbEntity
  8
0
  6
Continuous
 62
     7
370
    15
100
AcDbLine
 10
144.4954481734
 20
90.9424553302
 30
0.0
 11
144.4954481734
 21
84.9424553302
 31
0.0
  0
LINE
  5
2EA
330
1F
100
AcDbEntity
  8
0
  6
Continuous
 62
     7
370
    15
100
AcDbLine
 10
144.5954481734
 20
97.2424553302
 30
0.0
 11
144.5954481734
 21
91.2424553302
 31
0.0
  0
LINE
  5
2EB
330
1F
100
AcDbEntity
  8
0
  6
Continuous
 62
     7
370
    15
100
AcDbLine
 10
144.5954481734
 20
97.2424553302
 30
0.0
 11
144.4954481734
 21
97.2424553302
 31
0.0
  0
LINE
  5
2EC
330
1F
100
AcDbEntity
  8
0
  6
Continuous
 62
     7
370
    15
100
AcDbLine
 10
144.4954481734
 20
97.2424553302
 30
0.0
 11
144.4954481734
 21
91.2424553302
 31
0.0
  0
LINE
  5
2ED
330
1F
100
AcDbEntity
  8
0
  6
Continuous
 62
     7
370
    15
100
AcDbLine
 10
144.5954481734
 20
91.2424553302
 30
0.0
 11
144.4954481734
 21
91.2424553302
 31
0.0
  0
LINE
  5
2EE
330
1F
100
AcDbEntity
  8
0
  6
Continuous
 62
     7
370
    15
100
AcDbLine
 10
144.5954481734
 20
103.5424553302
 30
0.0
 11
144.5954481734
 21
97.5424553302
 31
0.0
  0
LINE
  5
2EF
330
1F
100
AcDbEntity
  8
0
  6
Continuous
 62
     7
370
    15
100
AcDbLine
 10
144.5954481734
 20
103.5424553302
 30
0.0
 11
144.4954481734
 21
103.5424553302
 31
0.0
  0
LINE
  5
2F0
330
1F
100
AcDbEntity
  8
0
  6
Continuous
 62
     7
370
    15
100
AcDbLine
 10
144.4954481734
 20
103.5424553302
 30
0.0
 11
144.4954481734
 21
97.5424553302
 31
0.0
  0
LINE
  5
2F1
330
1F
100
AcDbEntity
  8
0
  6
Continuous
 62
     7
370
    15
100
AcDbLine
 10
144.5954481734
 20
97.5424553302
 30
0.0
 11
144.4954481734
 21
97.5424553302
 31
0.0
  0
LINE
  5
2F2
330
1F
100
AcDbEntity
  8
0
  6
Continuous
 62
     7
370
    15
100
AcDbLine
 10
144.5954481734
 20
109.8424553302
 30
0.0
 11
144.5954481734
 21
103.8424553302
 31
0.0
  0
LINE
  5
2F3
330
1F
100
AcDbEntity
  8
0
  6
Continuous
 62
     7
370
    15
100
AcDbLine
 10
144.5954481734
 20
109.8424553302
 30
0.0
 11
144.4954481734
 21
109.8424553302
 31
0.0
  0
LINE
  5
2F4
330
1F
100
AcDbEntity
  8
0
  6
Continuous
 62
     7
370
    15
100
AcDbLine
 10
144.4954481734
 20
109.8424553302
 30
0.0
 11
144.4954481734
 21
103.8424553302
 31
0.0
  0
LINE
  5
2F5
330
1F
100
AcDbEntity
  8
0
  6
Continuous
 62
     7
370
    15
100
AcDbLine
 10
144.5954481734
 20
103.8424553302
 30
0.0
 11
144.4954481734
 21
103.8424553302
 31
0.0
  0
LINE
  5
2F6
330
1F
100
AcDbEntity
  8
0
  6
Continuous
 62
     7
370
    15
100
AcDbLine
 10
144.5954481734
 20
116.1424553302
 30
0.0
 11
144.5954481734
 21
110.1424553302
 31
0.0
  0
LINE
  5
2F7
330
1F
100
AcDbEntity
  8
0
  6
Continuous
 62
     7
370
    15
100
AcDbLine
 10
144.5954481734
 20
116.1424553302
 30
0.0
 11
144.4954481734
 21
116.1424553302
 31
0.0
  0
LINE
  5
2F8
330
1F
100
AcDbEntity
  8
0
  6
Continuous
 62
     7
370
    15
100
AcDbLine
 10
144.4954481734
 20
116.1424553302
 30
0.0
 11
144.4954481734
 21
110.1424553302
 31
0.0
  0
LINE
  5
2F9
330
1F
100
AcDbEntity
  8
0
  6
Continuous
 62
     7
370
    15
100
AcDbLine
 10
144.5954481734
 20
110.1424553302
 30
0.0
 11
144.4954481734
 21
110.1424553302
 31
0.0
  0
LINE
  5
2FA
330
1F
100
AcDbEntity
  8
0
  6
Continuous
 62
     7
370
    15
100
AcDbLine
 10
144.5954481734
 20
122.4424553302
 30
0.0
 11
144.5954481734
 21
116.4424553302
 31
0.0
  0
LINE
  5
2FB
330
1F
100
AcDbEntity
  8
0
  6
Continuous
 62
     7
370
    15
100
AcDbLine
 10
144.5954481734
 20
122.4424553302
 30
0.0
 11
144.4954481734
 21
122.4424553302
 31
0.0
  0
LINE
  5
2FC
330
1F
100
AcDbEntity
  8
0
  6
Continuous
 62
     7
370
    15
100
AcDbLine
 10
144.4954481734
 20
122.4424553302
 30
0.0
 11
144.4954481734
 21
116.4424553302
 31
0.0
  0
LINE
  5
2FD
330
1F
100
AcDbEntity
  8
0
  6
Continuous
 62
     7
370
    15
100
AcDbLine
 10
144.5954481734
 20
116.4424553302
 30
0.0
 11
144.4954481734
 21
116.4424553302
 31
0.0
  0
LINE
  5
2FE
330
1F
100
AcDbEntity
  8
0
  6
Continuous
 62
     7
370
    15
100
AcDbLine
 10
138.2954481734
 20
128.4924553302
 30
0.0
 11
138.2954481734
 21
122.7424553302
 31
0.0
  0
LINE
  5
2FF
330
1F
100
AcDbEntity
  8
0
  6
Continuous
 62
     7
370
    15
100
AcDbLine
 10
144.2954481734
 20
122.7424553302
 30
0.0
 11
138.2954481734
 21
122.7424553302
 31
0.0
  0
LINE
  5
300
330
1F
100
AcDbEntity
  8
0
  6
Continuous
 62
     7
370
    15
100
AcDbLine
 10
144.2954481734
 20
128.4924553302
 30
0.0
 11
144.2954481734
 21
122.7424553302
 31
0.0
  0
LINE
  5
301
330
1F
100
AcDbEntity
  8
0
  6
Continuous
 62
     7
370
    15
100
AcDbLine
 10
138.2954481734
 20
128.4924553302
 30
0.0
 11
144.2954481734
 21
128.4924553302
 31
0.0
  0
LINE
  5
302
330
1F
100
AcDbEntity
  8
0
  6
Continuous
 62
     7
370
    15
100
AcDbLine
 10
144.2954481734
 20
122.4424553302
 30
0.0
 11
138.2954481734
 21
122.4424553302
 31
0.0
  0
LINE
  5
303
330
1F
100
AcDbEntity
  8
0
  6
Continuous
 62
     7
370
    15
100
AcDbLine
 10
138.2954481734
 20
122.4424553302
 30
0.0
 11
138.2954481734
 21
116.4424553302
 31
0.0
  0
LINE
  5
304
330
1F
100
AcDbEntity
  8
0
  6
Continuous
 62
     7
370
    15
100
AcDbLine
 10
144.2954481734
 20
116.4424553302
 30
0.0
 11
138.2954481734
 21
116.4424553302
 31
0.0
  0
LINE
  5
305
330
1F
100
AcDbEntity
  8
0
  6
Continuous
 62
     7
370
    15
100
AcDbLine
 10
144.2954481734
 20
122.4424553302
 30
0.0
 11
144.2954481734
 21
116.4424553302
 31
0.0
  0
LINE
  5
306
330
1F
100
AcDbEntity
  8
0
  6
Continuous
 62
     7
370
    15
100
AcDbLine
 10
144.2954481734
 20
116.1424553302
 30
0.0
 11
138.2954481734
 21
116.1424553302
 31
0.0
  0
LINE
  5
307
330
1F
100
AcDbEntity
  8
0
  6
Continuous
 62
     7
370
    15
100
AcDbLine
 10
138.2954481734
 20
116.1424553302
 30
0.0
 11
138.2954481734
 21
110.1424553302
 31
0.0
  0
LINE
  5
308
330
1F
100
AcDbEntity
  8
0
  6
Continuous
 62
     7
370
    15
100
AcDbLine
 10
144.2954481734
 20
110.1424553302
 30
0.0
 11
138.2954481734
 21
110.1424553302
 31
0.0
  0
LINE
  5
309
330
1F
100
AcDbEntity
  8
0
  6
Continuous
 62
     7
370
    15
100
AcDbLine
 10
144.2954481734
 20
116.1424553302
 30
0.0
 11
144.2954481734
 21
110.1424553302
 31
0.0
  0
LINE
  5
30A
330
1F
100
AcDbEntity
  8
0
  6
Continuous
 62
     7
370
    15
100
AcDbLine
 10
144.2954481734
 20
109.8424553302
 30
0.0
 11
138.2954481734
 21
109.8424553302
 31
0.0
  0
LINE
  5
30B
330
1F
100
AcDbEntity
  8
0
  6
Continuous
 62
     7
370
    15
100
AcDbLine
 10
138.2954481734
 20
109.8424553302
 30
0.0
 11
138.2954481734
 21
103.8424553302
 31
0.0
  0
LINE
  5
30C
330
1F
100
AcDbEntity
  8
0
  6
Continuous
 62
     7
370
    15
100
AcDbLine
 10
144.2954481734
 20
103.8424553302
 30
0.0
 11
138.2954481734
 21
103.8424553302
 31
0.0
  0
LINE
  5
30D
330
1F
100
AcDbEntity
  8
0
  6
Continuous
 62
     7
370
    15
100
AcDbLine
 10
144.2954481734
 20
109.8424553302
 30
0.0
 11
144.2954481734
 21
103.8424553302
 31
0.0
  0
LINE
  5
30E
330
1F
100
AcDbEntity
  8
0
  6
Continuous
 62
     7
370
    15
100
AcDbLine
 10
144.2954481734
 20
103.5424553302
 30
0.0
 11
138.2954481734
 21
103.5424553302
 31
0.0
  0
LINE
  5
30F
330
1F
100
AcDbEntity
  8
0
  6
Continuous
 62
     7
370
    15
100
AcDbLine
 10
138.2954481734
 20
103.5424553302
 30
0.0
 11
138.2954481734
 21
97.5424553302
 31
0.0
  0
LINE
  5
310
330
1F
100
AcDbEntity
  8
0
  6
Continuous
 62
     7
370
    15
100
AcDbLine
 10
144.2954481734
 20
97.5424553302
 30
0.0
 11
138.2954481734
 21
97.5424553302
 31
0.0
  0
LINE
  5
311
330
1F
100
AcDbEntity
  8
0
  6
Continuous
 62
     7
370
    15
100
AcDbLine
 10
144.2954481734
 20
103.5424553302
 30
0.0
 11
144.2954481734
 21
97.5424553302
 31
0.0
  0
LINE
  5
312
330
1F
100
AcDbEntity
  8
0
  6
Continuous
 62
     7
370
    15
100
AcDbLine
 10
138.2954481734
 20
65.7424553302
 30
0.0
 11
138.2954481734
 21
59.7424553302
 31
0.0
  0
LINE
  5
313
330
1F
100
AcDbEntity
  8
0
  6
Continuous
 62
     7
370
    15
100
AcDbLine
 10
144.2954481734
 20
59.7424553302
 30
0.0
 11
138.2954481734
 21
59.7424553302
 31
0.0
  0
LINE
  5
314
330
1F
100
AcDbEntity
  8
0
  6
Continuous
 62
     7
370
    15
100
AcDbLine
 10
144.2954481734
 20
65.7424553302
 30
0.0
 11
144.2954481734
 21
59.7424553302
 31
0.0
  0
LINE
  5
315
330
1F
100
AcDbEntity
  8
0
  6
Continuous
 62
     7
370
    15
100
AcDbLine
 10
144.2954481734
 20
65.7424553302
 30
0.0
 11
138.2954481734
 21
65.7424553302
 31
0.0
  0
LINE
  5
316
330
1F
100
AcDbEntity
  8
0
  6
Continuous
 62
     7
370
    15
100
AcDbLine
 10
138.2954481734
 20
72.0424553302
 30
0.0
 11
138.2954481734
 21
66.0424553302
 31
0.0
  0
LINE
  5
317
330
1F
100
AcDbEntity
  8
0
  6
Continuous
 62
     7
370
    15
100
AcDbLine
 10
144.2954481734
 20
66.0424553302
 30
0.0
 11
138.2954481734
 21
66.0424553302
 31
0.0
  0
LINE
  5
318
330
1F
100
AcDbEntity
  8
0
  6
Continuous
 62
     7
370
    15
100
AcDbLine
 10
144.2954481734
 20
72.0424553302
 30
0.0
 11
144.2954481734
 21
66.0424553302
 31
0.0
  0
LINE
  5
319
330
1F
100
AcDbEntity
  8
0
  6
Continuous
 62
     7
370
    15
100
AcDbLine
 10
144.2954481734
 20
72.0424553302
 30
0.0
 11
138.2954481734
 21
72.0424553302
 31
0.0
  0
LINE
  5
31A
330
1F
100
AcDbEntity
  8
0
  6
Continuous
 62
     7
370
    15
100
AcDbLine
 10
138.2954481734
 20
78.3424553302
 30
0.0
 11
138.2954481734
 21
72.3424553302
 31
0.0
  0
LINE
  5
31B
330
1F
100
AcDbEntity
  8
0
  6
Continuous
 62
     7
370
    15
100
AcDbLine
 10
144.2954481734
 20
72.3424553302
 30
0.0
 11
138.2954481734
 21
72.3424553302
 31
0.0
  0
LINE
  5
31C
330
1F
100
AcDbEntity
  8
0
  6
Continuous
 62
     7
370
    15
100
AcDbLine
 10
144.2954481734
 20
78.3424553302
 30
0.0
 11
144.2954481734
 21
72.3424553302
 31
0.0
  0
LINE
  5
31D
330
1F
100
AcDbEntity
  8
0
  6
Continuous
 62
     7
370
    15
100
AcDbLine
 10
144.2954481734
 20
78.3424553302
 30
0.0
 11
138.2954481734
 21
78.3424553302
 31
0.0
  0
LINE
  5
31E
330
1F
100
AcDbEntity
  8
0
  6
Continuous
 62
     7
370
    15
100
AcDbLine
 10
138.2954481734
 20
84.6424553302
 30
0.0
 11
138.2954481734
 21
78.6424553302
 31
0.0
  0
LINE
  5
31F
330
1F
100
AcDbEntity
  8
0
  6
Continuous
 62
     7
370
    15
100
AcDbLine
 10
144.2954481734
 20
78.6424553302
 30
0.0
 11
138.2954481734
 21
78.6424553302
 31
0.0
  0
LINE
  5
320
330
1F
100
AcDbEntity
  8
0
  6
Continuous
 62
     7
370
    15
100
AcDbLine
 10
144.2954481734
 20
84.6424553302
 30
0.0
 11
144.2954481734
 21
78.6424553302
 31
0.0
  0
LINE
  5
321
330
1F
100
AcDbEntity
  8
0
  6
Continuous
 62
     7
370
    15
100
AcDbLine
 10
144.2954481734
 20
84.6424553302
 30
0.0
 11
138.2954481734
 21
84.6424553302
 31
0.0
  0
LINE
  5
322
330
1F
100
AcDbEntity
  8
0
  6
Continuous
 62
     7
370
    15
100
AcDbLine
 10
138.2954481734
 20
90.9424553302
 30
0.0
 11
138.2954481734
 21
84.9424553302
 31
0.0
  0
LINE
  5
323
330
1F
100
AcDbEntity
  8
0
  6
Continuous
 62
     7
370
    15
100
AcDbLine
 10
144.2954481734
 20
84.9424553302
 30
0.0
 11
138.2954481734
 21
84.9424553302
 31
0.0
  0
LINE
  5
324
330
1F
100
AcDbEntity
  8
0
  6
Continuous
 62
     7
370
    15
100
AcDbLine
 10
144.2954481734
 20
90.9424553302
 30
0.0
 11
144.2954481734
 21
84.9424553302
 31
0.0
  0
LINE
  5
325
330
1F
100
AcDbEntity
  8
0
  6
Continuous
 62
     7
370
    15
100
AcDbLine
 10
144.2954481734
 20
90.9424553302
 30
0.0
 11
138.2954481734
 21
90.9424553302
 31
0.0
  0
LINE
  5
326
330
1F
100
AcDbEntity
  8
0
  6
Continuous
 62
     7
370
    15
100
AcDbLine
 10
144.2954481734
 20
97.2424553302
 30
0.0
 11
138.2954481734
 21
97.2424553302
 31
0.0
  0
LINE
  5
327
330
1F
100
AcDbEntity
  8
0
  6
Continuous
 62
     7
370
    15
100
AcDbLine
 10
138.2954481734
 20
97.2424553302
 30
0.0
 11
138.2954481734
 21
91.2424553302
 31
0.0
  0
LINE
  5
328
330
1F
100
AcDbEntity
  8
0
  6
Continuous
 62
     7
370
    15
100
AcDbLine
 10
144.2954481734
 20
91.2424553302
 30
0.0
 11
138.2954481734
 21
91.2424553302
 31
0.0
  0
LINE
  5
329
330
1F
100
AcDbEntity
  8
0
  6
Continuous
 62
     7
370
    15
100
AcDbLine
 10
144.2954481734
 20
97.2424553302
 30
0.0
 11
144.2954481734
 21
91.2424553302
 31
0.0
  0
LINE
  5
32A
330
1F
100
AcDbEntity
  8
0
  6
Continuous
 62
     7
370
    15
100
AcDbLine
 10
144.5954481734
 20
122.7424553302
 30
0.0
 11
144.4954481734
 21
122.7424553302
 31
0.0
  0
LINE
  5
32B
330
1F
100
AcDbEntity
  8
0
  6
Continuous
 62
     7
370
    15
100
AcDbLine
 10
144.5954481734
 20
128.4924553302
 30
0.0
 11
144.5954481734
 21
122.7424553302
 31
0.0
  0
LINE
  5
32C
330
1F
100
AcDbEntity
  8
0
  6
Continuous
 62
     7
370
    15
100
AcDbLine
 10
146.1954481734
 20
130.0924553302
 30
0.0
 11
146.1954481734
 21
52.0924553302
 31
0.0
  0
LINE
  5
32D
330
1F
100
AcDbEntity
  8
0
  6
Continuous
 62
     7
370
    15
100
AcDbLine
 10
144.5954481734
 20
59.4424553302
 30
0.0
 11
144.5954481734
 21
53.6924553302
 31
0.0
  0
LINE
  5
32E
330
1F
100
AcDbEntity
  8
0
  6
Continuous
 62
     7
370
    15
100
AcDbLine
 10
144.5954481734
 20
59.4424553302
 30
0.0
 11
144.4954481734
 21
59.4424553302
 31
0.0
  0
LINE
  5
32F
330
1F
100
AcDbEntity
  8
0
  6
Continuous
 62
     7
370
    15
100
AcDbLine
 10
144.4954481734
 20
59.4424553302
 30
0.0
 11
144.4954481734
 21
53.6924553302
 31
0.0
  0
LINE
  5
330
330
1F
100
AcDbEntity
  8
0
  6
Continuous
 62
     7
370
    15
100
AcDbLine
 10
144.5954481734
 20
53.6924553302
 30
0.0
 11
144.4954481734
 21
53.6924553302
 31
0.0
  0
LINE
  5
331
330
1F
100
AcDbEntity
  8
0
  6
Continuous
 62
     7
370
    15
100
AcDbLine
 10
144.5954481734
 20
53.6924553302
 30
0.0
 11
146.1954481734
 21
52.0924553302
 31
0.0
  0
LINE
  5
332
330
1F
100
AcDbEntity
  8
0
  6
Continuous
 62
     7
370
    15
100
AcDbLine
 10
146.1954481734
 20
52.0924553302
 30
0.0
 11
68.1954481734
 21
52.0924553302
 31
0.0
  0
LINE
  5
333
330
1F
100
AcDbEntity
  8
0
  6
Continuous
 62
     7
370
    15
100
AcDbLine
 10
69.8954481734
 20
53.6924553302
 30
0.0
 11
69.7954481734
 21
53.6924553302
 31
0.0
  0
LINE
  5
334
330
1F
100
AcDbEntity
  8
0
  6
Continuous
 62
     7
370
    15
100
AcDbLine
 10
69.8954481734
 20
59.4424553302
 30
0.0
 11
69.8954481734
 21
53.6924553302
 31
0.0
  0
LINE
  5
335
330
1F
100
AcDbEntity
  8
0
  6
Continuous
 62
     7
370
    15
100
AcDbLine
 10
69.8954481734
 20
59.4424553302
 30
0.0
 11
69.7954481734
 21
59.4424553302
 31
0.0
  0
LINE
  5
336
330
1F
100
AcDbEntity
  8
0
  6
Continuous
 62
     7
370
    15
100
AcDbLine
 10
68.1954481734
 20
52.0924553302
 30
0.0
 11
69.7954481734
 21
53.6924553302
 31
0.0
  0
LINE
  5
337
330
1F
100
AcDbEntity
  8
0
  6
Continuous
 62
     7
370
    15
100
AcDbLine
 10
68.1954481734
 20
130.0924553302
 30
0.0
 11
68.1954481734
 21
52.0924553302
 31
0.0
  0
LINE
  5
338
330
1F
100
AcDbEntity
  8
0
  6
Continuous
 62
     7
370
    15
100
AcDbLine
 10
69.7954481734
 20
128.4924553302
 30
0.0
 11
69.7954481734
 21
122.7424553302
 31
0.0
  0
LINE
  5
339
330
1F
100
AcDbEntity
  8
0
  6
Continuous
 62
     7
370
    15
100
AcDbLine
 10
69.8954481734
 20
122.7424553302
 30
0.0
 11
69.7954481734
 21
122.7424553302
 31
0.0
  0
LINE
  5
33A
330
1F
100
AcDbEntity
  8
0
  6
Continuous
 62
     7
370
    15
100
AcDbLine
 10
69.8954481734
 20
128.4924553302
 30
0.0
 11
69.8954481734
 21
122.7424553302
 31
0.0
  0
LINE
  5
33B
330
1F
100
AcDbEntity
  8
0
  6
Continuous
 62
     7
370
    15
100
AcDbLine
 10
69.7954481734
 20
128.4924553302
 30
0.0
 11
69.8954481734
 21
128.4924553302
 31
0.0
  0
LINE
  5
33C
330
1F
100
AcDbEntity
  8
0
  6
Continuous
 62
     7
370
    15
100
AcDbLine
 10
69.7954481734
 20
128.4924553302
 30
0.0
 11
68.1954481734
 21
130.0924553302
 31
0.0
  0
LINE
  5
33D
330
1F
100
AcDbEntity
  8
0
  6
Continuous
 62
     7
370
    15
100
AcDbLine
 10
68.1954481734
 20
130.0924553302
 30
0.0
 11
146.1954481734
 21
130.0924553302
 31
0.0
  0
LINE
  5
33E
330
1F
100
AcDbEntity
  8
0
  6
Continuous
 62
     7
370
    15
100
AcDbLine
 10
146.1954481734
 20
130.0924553302
 30
0.0
 11
144.5954481734
 21
128.4924553302
 31
0.0
  0
LINE
  5
33F
330
1F
100
AcDbEntity
  8
0
  6
Continuous
 62
     7
370
    15
100
AcDbLine
 10
144.4954481734
 20
128.4924553302
 30
0.0
 11
144.5954481734
 21
128.4924553302
 31
0.0
  0
LINE
  5
340
330
1F
100
AcDbEntity
  8
0
  6
Continuous
 62
     7
370
    15
100
AcDbLine
 10
144.4954481734
 20
128.4924553302
 30
0.0
 11
144.4954481734
 21
122.7424553302
 31
0.0
  0
LINE
  5
341
330
1F
100
AcDbEntity
  8
0
  6
Continuous
 62
     7
370
    15
100
AcDbLine
 10
144.2954481734
 20
59.4424553302
 30
0.0
 11
138.2954481734
 21
59.4424553302
 31
0.0
  0
LINE
  5
342
330
1F
100
AcDbEntity
  8
0
  6
Continuous
 62
     7
370
    15
100
AcDbLine
 10
138.2954481734
 20
59.4424553302
 30
0.0
 11
138.2954481734
 21
53.6924553302
 31
0.0
  0
LINE
  5
343
330
1F
100
AcDbEntity
  8
0
  6
Continuous
 62
     7
370
    15
100
AcDbLine
 10
144.2954481734
 20
53.6924553302
 30
0.0
 11
138.2954481734
 21
53.6924553302
 31
0.0
  0
LINE
  5
344
330
1F
100
AcDbEntity
  8
0
  6
Continuous
 62
     7
370
    15
100
AcDbLine
 10
144.2954481734
 20
59.4424553302
 30
0.0
 11
144.2954481734
 21
53.6924553302
 31
0.0
  0
LINE
  5
345
330
1F
100
AcDbEntity
  8
0
  6
Continuous
 62
     7
370
    15
100
AcDbLine
 10
69.7954481734
 20
59.4424553302
 30
0.0
 11
69.7954481734
 21
53.6924553302
 31
0.0
  0
LINE
  5
346
330
1F
100
AcDbEntity
  8
0
  6
Continuous
 62
     7
370
    15
100
AcDbLine
 10
219.2722752814
 20
107.4731757923
 30
0.0
 11
213.9657665513
 21
108.9153711604
 31
0.0
  0
LINE
  5
347
330
1F
100
AcDbEntity
  8
0
  6
Continuous
 62
     7
370
    15
100
AcDbLine
 10
221.9557737677
 20
110.0923525814
 30
0.0
 11
219.2722752814
 21
107.4731757923
 31
0.0
  0
LINE
  5
348
330
1F
100
AcDbEntity
  8
0
  6
Continuous
 62
     7
370
    15
100
AcDbLine
 10
216.6492650376
 20
111.5345479495
 30
0.0
 11
221.9557737677
 21
110.0923525814
 31
0.0
  0
LINE
  5
349
330
1F
100
AcDbEntity
  8
0
  6
Continuous
 62
     7
370
    15
100
AcDbLine
 10
216.6492650376
 20
111.5345479495
 30
0.0
 11
213.9657665513
 21
108.9153711604
 31
0.0
  0
LINE
  5
34A
330
1F
100
AcDbEntity
  8
0
  6
Continuous
 62
     7
370
    15
100
AcDbLine
 10
189.7304571621
 20
78.6394556615
 30
0.0
 11
187.0469586757
 21
76.0202788724
 31
0.0
  0
LINE
  5
34B
330
1F
100
AcDbEntity
  8
0
  6
Continuous
 62
     7
370
    15
100
AcDbLine
 10
189.7304571621
 20
78.6394556615
 30
0.0
 11
184.423948432
 21
80.0816510296
 31
0.0
  0
LINE
  5
34C
330
1F
100
AcDbEntity
  8
0
  6
Continuous
 62
     7
370
    15
100
AcDbLine
 10
184.423948432
 20
80.0816510296
 30
0.0
 11
181.7404499457
 21
77.4624742405
 31
0.0
  0
LINE
  5
34D
330
1F
100
AcDbEntity
  8
0
  6
Continuous
 62
     7
370
    15
100
AcDbLine
 10
187.0469586757
 20
76.0202788724
 30
0.0
 11
181.7404499457
 21
77.4624742405
 31
0.0
  0
LINE
  5
34E
330
1F
100
AcDbEntity
  8
0
  6
Continuous
 62
     7
370
    15
100
AcDbLine
 10
213.5604324981
 20
108.8508282267
 30
0.0
 11
210.7602601645
 21
106.1177741859
 31
0.0
  0
LINE
  5
34F
330
1F
100
AcDbEntity
  8
0
  6
Continuous
 62
     7
370
    15
100
AcDbLine
 10
210.8487019767
 20
106.0937375964
 30
0.0
 11
210.7602601645
 21
106.1177741859
 31
0.0
  0
LINE
  5
350
330
1F
100
AcDbEntity
  8
0
  6
Continuous
 62
     7
370
    15
100
AcDbLine
 10
213.6488743103
 20
108.8267916373
 30
0.0
 11
210.8487019767
 21
106.0937375964
 31
0.0
  0
LINE
  5
351
330
1F
100
AcDbEntity
  8
0
  6
Continuous
 62
     7
370
    15
100
AcDbLine
 10
213.6488743103
 20
108.8267916373
 30
0.0
 11
213.5604324981
 21
108.8508282267
 31
0.0
  0
LINE
  5
352
330
1F
100
AcDbEntity
  8
0
  6
Continuous
 62
     7
370
    15
100
AcDbLine
 10
210.6202515479
 20
105.9811214839
 30
0.0
 11
207.8200792143
 21
103.248067443
 31
0.0
  0
LINE
  5
353
330
1F
100
AcDbEntity
  8
0
  6
Continuous
 62
     7
370
    15
100
AcDbLine
 10
207.9085210264
 20
103.2240308536
 30
0.0
 11
207.8200792143
 21
103.248067443
 31
0.0
  0
LINE
  5
354
330
1F
100
AcDbEntity
  8
0
  6
Continuous
 62
     7
370
    15
100
AcDbLine
 10
210.70869336
 20
105.9570848944
 30
0.0
 11
207.9085210264
 21
103.2240308536
 31
0.0
  0
LINE
  5
355
330
1F
100
AcDbEntity
  8
0
  6
Continuous
 62
     7
370
    15
100
AcDbLine
 10
210.70869336
 20
105.9570848944
 30
0.0
 11
210.6202515479
 21
105.9811214839
 31
0.0
  0
LINE
  5
356
330
1F
100
AcDbEntity
  8
0
  6
Continuous
 62
     7
370
    15
100
AcDbLine
 10
207.6800705976
 20
103.111414741
 30
0.0
 11
204.879898264
 21
100.3783607002
 31
0.0
  0
LINE
  5
357
330
1F
100
AcDbEntity
  8
0
  6
Continuous
 62
     7
370
    15
100
AcDbLine
 10
204.9683400762
 20
100.3543241107
 30
0.0
 11
204.879898264
 21
100.3783607002
 31
0.0
  0
LINE
  5
358
330
1F
100
AcDbEntity
  8
0
  6
Continuous
 62
     7
370
    15
100
AcDbLine
 10
207.7685124098
 20
103.0873781515
 30
0.0
 11
204.9683400762
 21
100.3543241107
 31
0.0
  0
LINE
  5
359
330
1F
100
AcDbEntity
  8
0
  6
Continuous
 62
     7
370
    15
100
AcDbLine
 10
207.7685124098
 20
103.0873781515
 30
0.0
 11
207.6800705976
 21
103.111414741
 31
0.0
  0
LINE
  5
35A
330
1F
100
AcDbEntity
  8
0
  6
Continuous
 62
     7
370
    15
100
AcDbLine
 10
204.7398896473
 20
100.2417079981
 30
0.0
 11
201.9397173138
 21
97.5086539573
 31
0.0
  0
LINE
  5
35B
330
1F
100
AcDbEntity
  8
0
  6
Continuous
 62
     7
370
    15
100
AcDbLine
 10
202.0281591259
 20
97.4846173678
 30
0.0
 11
201.9397173138
 21
97.5086539573
 31
0.0
  0
LINE
  5
35C
330
1F
100
AcDbEntity
  8
0
  6
Continuous
 62
     7
370
    15
100
AcDbLine
 10
204.8283314595
 20
100.2176714087
 30
0.0
 11
202.0281591259
 21
97.4846173678
 31
0.0
  0
LINE
  5
35D
330
1F
100
AcDbEntity
  8
0
  6
Continuous
 62
     7
370
    15
100
AcDbLine
 10
204.8283314595
 20
100.2176714087
 30
0.0
 11
204.7398896473
 21
100.2417079981
 31
0.0
  0
LINE
  5
35E
330
1F
100
AcDbEntity
  8
0
  6
Continuous
 62
     7
370
    15
100
AcDbLine
 10
201.7997086971
 20
97.3720012553
 30
0.0
 11
198.9995363635
 21
94.6389472144
 31
0.0
  0
LINE
  5
35F
330
1F
100
AcDbEntity
  8
0
  6
Continuous
 62
     7
370
    15
100
AcDbLine
 10
199.0879781757
 20
94.614910625
 30
0.0
 11
198.9995363635
 21
94.6389472144
 31
0.0
  0
LINE
  5
360
330
1F
100
AcDbEntity
  8
0
  6
Continuous
 62
     7
370
    15
100
AcDbLine
 10
201.8881505092
 20
97.3479646658
 30
0.0
 11
199.0879781757
 21
94.614910625
 31
0.0
  0
LINE
  5
361
330
1F
100
AcDbEntity
  8
0
  6
Continuous
 62
     7
370
    15
100
AcDbLine
 10
201.8881505092
 20
97.3479646658
 30
0.0
 11
201.7997086971
 21
97.3720012553
 31
0.0
  0
LINE
  5
362
330
1F
100
AcDbEntity
  8
0
  6
Continuous
 62
     7
370
    15
100
AcDbLine
 10
198.8595277468
 20
94.5022945124
 30
0.0
 11
196.0593554132
 21
91.7692404716
 31
0.0
  0
LINE
  5
363
330
1F
100
AcDbEntity
  8
0
  6
Continuous
 62
     7
370
    15
100
AcDbLine
 10
196.1477972254
 20
91.7452038821
 30
0.0
 11
196.0593554132
 21
91.7692404716
 31
0.0
  0
LINE
  5
364
330
1F
100
AcDbEntity
  8
0
  6
Continuous
 62
     7
370
    15
100
AcDbLine
 10
198.947969559
 20
94.4782579229
 30
0.0
 11
196.1477972254
 21
91.7452038821
 31
0.0
  0
LINE
  5
365
330
1F
100
AcDbEntity
  8
0
  6
Continuous
 62
     7
370
    15
100
AcDbLine
 10
198.947969559
 20
94.4782579229
 30
0.0
 11
198.8595277468
 21
94.5022945124
 31
0.0
  0
LINE
  5
366
330
1F
100
AcDbEntity
  8
0
  6
Continuous
 62
     7
370
    15
100
AcDbLine
 10
195.9193467966
 20
91.6325877695
 30
0.0
 11
193.119174463
 21
88.8995337287
 31
0.0
  0
LINE
  5
367
330
1F
100
AcDbEntity
  8
0
  6
Continuous
 62
     7
370
    15
100
AcDbLine
 10
193.2076162751
 20
88.8754971392
 30
0.0
 11
193.119174463
 21
88.8995337287
 31
0.0
  0
LINE
  5
368
330
1F
100
AcDbEntity
  8
0
  6
Continuous
 62
     7
370
    15
100
AcDbLine
 10
196.0077886087
 20
91.6085511801
 30
0.0
 11
193.2076162751
 21
88.8754971392
 31
0.0
  0
LINE
  5
369
330
1F
100
AcDbEntity
  8
0
  6
Continuous
 62
     7
370
    15
100
AcDbLine
 10
196.0077886087
 20
91.6085511801
 30
0.0
 11
195.9193467966
 21
91.6325877695
 31
0.0
  0
LINE
  5
36A
330
1F
100
AcDbEntity
  8
0
  6
Continuous
 62
     7
370
    15
100
AcDbLine
 10
192.9791658463
 20
88.7628810267
 30
0.0
 11
190.1789935127
 21
86.0298269858
 31
0.0
  0
LINE
  5
36B
330
1F
100
AcDbEntity
  8
0
  6
Continuous
 62
     7
370
    15
100
AcDbLine
 10
190.2674353249
 20
86.0057903964
 30
0.0
 11
190.1789935127
 21
86.0298269858
 31
0.0
  0
LINE
  5
36C
330
1F
100
AcDbEntity
  8
0
  6
Continuous
 62
     7
370
    15
100
AcDbLine
 10
193.0676076585
 20
88.7388444372
 30
0.0
 11
190.2674353249
 21
86.0057903964
 31
0.0
  0
LINE
  5
36D
330
1F
100
AcDbEntity
  8
0
  6
Continuous
 62
     7
370
    15
100
AcDbLine
 10
193.0676076585
 20
88.7388444372
 30
0.0
 11
192.9791658463
 21
88.7628810267
 31
0.0
  0
LINE
  5
36E
330
1F
100
AcDbEntity
  8
0
  6
Continuous
 62
     7
370
    15
100
AcDbLine
 10
190.038984896
 20
85.8931742838
 30
0.0
 11
187.2388125625
 21
83.160120243
 31
0.0
  0
LINE
  5
36F
330
1F
100
AcDbEntity
  8
0
  6
Continuous
 62
     7
370
    15
100
AcDbLine
 10
187.3272543746
 20
83.1360836535
 30
0.0
 11
187.2388125625
 21
83.160120243
 31
0.0
  0
LINE
  5
370
330
1F
100
AcDbEntity
  8
0
  6
Continuous
 62
     7
370
    15
100
AcDbLine
 10
190.1274267082
 20
85.8691376943
 30
0.0
 11
187.3272543746
 21
83.1360836535
 31
0.0
  0
LINE
  5
371
330
1F
100
AcDbEntity
  8
0
  6
Continuous
 62
     7
370
    15
100
AcDbLine
 10
190.1274267082
 20
85.8691376943
 30
0.0
 11
190.038984896
 21
85.8931742838
 31
0.0
  0
LINE
  5
372
330
1F
100
AcDbEntity
  8
0
  6
Continuous
 62
     7
370
    15
100
AcDbLine
 10
187.0988039458
 20
83.0234675409
 30
0.0
 11
184.2986316122
 21
80.2904135001
 31
0.0
  0
LINE
  5
373
330
1F
100
AcDbEntity
  8
0
  6
Continuous
 62
     7
370
    15
100
AcDbLine
 10
184.3870734244
 20
80.2663769106
 30
0.0
 11
184.2986316122
 21
80.2904135001
 31
0.0
  0
LINE
  5
374
330
1F
100
AcDbEntity
  8
0
  6
Continuous
 62
     7
370
    15
100
AcDbLine
 10
187.1872457579
 20
82.9994309515
 30
0.0
 11
184.3870734244
 21
80.2663769106
 31
0.0
  0
LINE
  5
375
330
1F
100
AcDbEntity
  8
0
  6
Continuous
 62
     7
370
    15
100
AcDbLine
 10
187.1872457579
 20
82.9994309515
 30
0.0
 11
187.0988039458
 21
83.0234675409
 31
0.0
  0
LINE
  5
376
330
1F
100
AcDbEntity
  8
0
  6
Continuous
 62
     7
370
    15
100
AcDbLine
 10
192.6706381123
 20
81.5091624044
 30
0.0
 11
189.8704657788
 21
78.7761083636
 31
0.0
  0
LINE
  5
377
330
1F
100
AcDbEntity
  8
0
  6
Continuous
 62
     7
370
    15
100
AcDbLine
 10
192.6706381123
 20
81.5091624044
 30
0.0
 11
187.3641293823
 21
82.9513577725
 31
0.0
  0
LINE
  5
378
330
1F
100
AcDbEntity
  8
0
  6
Continuous
 62
     7
370
    15
100
AcDbLine
 10
187.3641293823
 20
82.9513577725
 30
0.0
 11
184.5639570487
 21
80.2183037317
 31
0.0
  0
LINE
  5
379
330
1F
100
AcDbEntity
  8
0
  6
Continuous
 62
     7
370
    15
100
AcDbLine
 10
189.8704657788
 20
78.7761083636
 30
0.0
 11
184.5639570487
 21
80.2183037317
 31
0.0
  0
LINE
  5
37A
330
1F
100
AcDbEntity
  8
0
  6
Continuous
 62
     7
370
    15
100
AcDbLine
 10
195.6108190626
 20
84.3788691473
 30
0.0
 11
192.810646729
 21
81.6458151065
 31
0.0
  0
LINE
  5
37B
330
1F
100
AcDbEntity
  8
0
  6
Continuous
 62
     7
370
    15
100
AcDbLine
 10
195.6108190626
 20
84.3788691473
 30
0.0
 11
190.3043103325
 21
85.8210645154
 31
0.0
  0
LINE
  5
37C
330
1F
100
AcDbEntity
  8
0
  6
Continuous
 62
     7
370
    15
100
AcDbLine
 10
190.3043103325
 20
85.8210645154
 30
0.0
 11
187.504137999
 21
83.0880104746
 31
0.0
  0
LINE
  5
37D
330
1F
100
AcDbEntity
  8
0
  6
Continuous
 62
     7
370
    15
100
AcDbLine
 10
192.810646729
 20
81.6458151065
 30
0.0
 11
187.504137999
 21
83.0880104746
 31
0.0
  0
LINE
  5
37E
330
1F
100
AcDbEntity
  8
0
  6
Continuous
 62
     7
370
    15
100
AcDbLine
 10
198.5510000129
 20
87.2485758901
 30
0.0
 11
195.7508276793
 21
84.5155218493
 31
0.0
  0
LINE
  5
37F
330
1F
100
AcDbEntity
  8
0
  6
Continuous
 62
     7
370
    15
100
AcDbLine
 10
198.5510000129
 20
87.2485758901
 30
0.0
 11
193.2444912828
 21
88.6907712582
 31
0.0
  0
LINE
  5
380
330
1F
100
AcDbEntity
  8
0
  6
Continuous
 62
     7
370
    15
100
AcDbLine
 10
193.2444912828
 20
88.6907712582
 30
0.0
 11
190.4443189492
 21
85.9577172174
 31
0.0
  0
LINE
  5
381
330
1F
100
AcDbEntity
  8
0
  6
Continuous
 62
     7
370
    15
100
AcDbLine
 10
195.7508276793
 20
84.5155218493
 30
0.0
 11
190.4443189492
 21
85.9577172174
 31
0.0
  0
LINE
  5
382
330
1F
100
AcDbEntity
  8
0
  6
Continuous
 62
     7
370
    15
100
AcDbLine
 10
201.4911809631
 20
90.118282633
 30
0.0
 11
198.6910086295
 21
87.3852285922
 31
0.0
  0
LINE
  5
383
330
1F
100
AcDbEntity
  8
0
  6
Continuous
 62
     7
370
    15
100
AcDbLine
 10
201.4911809631
 20
90.118282633
 30
0.0
 11
196.1846722331
 21
91.5604780011
 31
0.0
  0
LINE
  5
384
330
1F
100
AcDbEntity
  8
0
  6
Continuous
 62
     7
370
    15
100
AcDbLine
 10
196.1846722331
 20
91.5604780011
 30
0.0
 11
193.3844998995
 21
88.8274239603
 31
0.0
  0
LINE
  5
385
330
1F
100
AcDbEntity
  8
0
  6
Continuous
 62
     7
370
    15
100
AcDbLine
 10
198.6910086295
 20
87.3852285922
 30
0.0
 11
193.3844998995
 21
88.8274239603
 31
0.0
  0
LINE
  5
386
330
1F
100
AcDbEntity
  8
0
  6
Continuous
 62
     7
370
    15
100
AcDbLine
 10
204.4313619134
 20
92.9879893759
 30
0.0
 11
201.6311895798
 21
90.2549353351
 31
0.0
  0
LINE
  5
387
330
1F
100
AcDbEntity
  8
0
  6
Continuous
 62
     7
370
    15
100
AcDbLine
 10
204.4313619134
 20
92.9879893759
 30
0.0
 11
199.1248531833
 21
94.430184744
 31
0.0
  0
LINE
  5
388
330
1F
100
AcDbEntity
  8
0
  6
Continuous
 62
     7
370
    15
100
AcDbLine
 10
199.1248531833
 20
94.430184744
 30
0.0
 11
196.3246808497
 21
91.6971307032
 31
0.0
  0
LINE
  5
389
330
1F
100
AcDbEntity
  8
0
  6
Continuous
 62
     7
370
    15
100
AcDbLine
 10
201.6311895798
 20
90.2549353351
 30
0.0
 11
196.3246808497
 21
91.6971307032
 31
0.0
  0
LINE
  5
38A
330
1F
100
AcDbEntity
  8
0
  6
Continuous
 62
     7
370
    15
100
AcDbLine
 10
207.3715428636
 20
95.8576961187
 30
0.0
 11
204.5713705301
 21
93.1246420779
 31
0.0
  0
LINE
  5
38B
330
1F
100
AcDbEntity
  8
0
  6
Continuous
 62
     7
370
    15
100
AcDbLine
 10
207.3715428636
 20
95.8576961187
 30
0.0
 11
202.0650341336
 21
97.2998914868
 31
0.0
  0
LINE
  5
38C
330
1F
100
AcDbEntity
  8
0
  6
Continuous
 62
     7
370
    15
100
AcDbLine
 10
202.0650341336
 20
97.2998914868
 30
0.0
 11
199.2648618
 21
94.566837446
 31
0.0
  0
LINE
  5
38D
330
1F
100
AcDbEntity
  8
0
  6
Continuous
 62
     7
370
    15
100
AcDbLine
 10
204.5713705301
 20
93.1246420779
 30
0.0
 11
199.2648618
 21
94.566837446
 31
0.0
  0
LINE
  5
38E
330
1F
100
AcDbEntity
  8
0
  6
Continuous
 62
     7
370
    15
100
AcDbLine
 10
210.3117238139
 20
98.7274028616
 30
0.0
 11
207.5115514803
 21
95.9943488208
 31
0.0
  0
LINE
  5
38F
330
1F
100
AcDbEntity
  8
0
  6
Continuous
 62
     7
370
    15
100
AcDbLine
 10
210.3117238139
 20
98.7274028616
 30
0.0
 11
205.0052150838
 21
100.1695982297
 31
0.0
  0
LINE
  5
390
330
1F
100
AcDbEntity
  8
0
  6
Continuous
 62
     7
370
    15
100
AcDbLine
 10
205.0052150838
 20
100.1695982297
 30
0.0
 11
202.2050427503
 21
97.4365441889
 31
0.0
  0
LINE
  5
391
330
1F
100
AcDbEntity
  8
0
  6
Continuous
 62
     7
370
    15
100
AcDbLine
 10
207.5115514803
 20
95.9943488208
 30
0.0
 11
202.2050427503
 21
97.4365441889
 31
0.0
  0
LINE
  5
392
330
1F
100
AcDbEntity
  8
0
  6
Continuous
 62
     7
370
    15
100
AcDbLine
 10
213.2519047642
 20
101.5971096045
 30
0.0
 11
210.4517324306
 21
98.8640555637
 31
0.0
  0
LINE
  5
393
330
1F
100
AcDbEntity
  8
0
  6
Continuous
 62
     7
370
    15
100
AcDbLine
 10
213.2519047642
 20
101.5971096045
 30
0.0
 11
207.9453960341
 21
103.0393049726
 31
0.0
  0
LINE
  5
394
330
1F
100
AcDbEntity
  8
0
  6
Continuous
 62
     7
370
    15
100
AcDbLine
 10
207.9453960341
 20
103.0393049726
 30
0.0
 11
205.1452237005
 21
100.3062509318
 31
0.0
  0
LINE
  5
395
330
1F
100
AcDbEntity
  8
0
  6
Continuous
 62
     7
370
    15
100
AcDbLine
 10
210.4517324306
 20
98.8640555637
 30
0.0
 11
205.1452237005
 21
100.3062509318
 31
0.0
  0
LINE
  5
396
330
1F
100
AcDbEntity
  8
0
  6
Continuous
 62
     7
370
    15
100
AcDbLine
 10
216.1920857144
 20
104.4668163473
 30
0.0
 11
213.3919133808
 21
101.7337623065
 31
0.0
  0
LINE
  5
397
330
1F
100
AcDbEntity
  8
0
  6
Continuous
 62
     7
370
    15
100
AcDbLine
 10
216.1920857144
 20
104.4668163473
 30
0.0
 11
210.8855769844
 21
105.9090117154
 31
0.0
  0
LINE
  5
398
330
1F
100
AcDbEntity
  8
0
  6
Continuous
 62
     7
370
    15
100
AcDbLine
 10
210.8855769844
 20
105.9090117154
 30
0.0
 11
208.0854046508
 21
103.1759576746
 31
0.0
  0
LINE
  5
399
330
1F
100
AcDbEntity
  8
0
  6
Continuous
 62
     7
370
    15
100
AcDbLine
 10
213.3919133808
 20
101.7337623065
 30
0.0
 11
208.0854046508
 21
103.1759576746
 31
0.0
  0
LINE
  5
39A
330
1F
100
AcDbEntity
  8
0
  6
Continuous
 62
     7
370
    15
100
AcDbLine
 10
219.1322666647
 20
107.3365230902
 30
0.0
 11
216.3320943311
 21
104.6034690494
 31
0.0
  0
LINE
  5
39B
330
1F
100
AcDbEntity
  8
0
  6
Continuous
 62
     7
370
    15
100
AcDbLine
 10
219.1322666647
 20
107.3365230902
 30
0.0
 11
213.8257579346
 21
108.7787184583
 31
0.0
  0
LINE
  5
39C
330
1F
100
AcDbEntity
  8
0
  6
Continuous
 62
     7
370
    15
100
AcDbLine
 10
213.8257579346
 20
108.7787184583
 30
0.0
 11
211.025585601
 21
106.0456644175
 31
0.0
  0
LINE
  5
39D
330
1F
100
AcDbEntity
  8
0
  6
Continuous
 62
     7
370
    15
100
AcDbLine
 10
216.3320943311
 20
104.6034690494
 30
0.0
 11
211.025585601
 21
106.0456644175
 31
0.0
  0
LINE
  5
39E
330
1F
100
AcDbEntity
  8
0
  6
Continuous
 62
     7
370
    15
100
AcDbLine
 10
224.7556676358
 20
105.9829072452
 30
0.0
 11
219.4491589057
 21
107.4251026133
 31
0.0
  0
LINE
  5
39F
330
1F
100
AcDbEntity
  8
0
  6
Continuous
 62
     7
370
    15
100
AcDbLine
 10
227.4391661221
 20
108.6020840343
 30
0.0
 11
224.7556676358
 21
105.9829072452
 31
0.0
  0
LINE
  5
3A0
330
1F
100
AcDbEntity
  8
0
  6
Continuous
 62
     7
370
    15
100
AcDbLine
 10
222.132657392
 20
110.0442794024
 30
0.0
 11
227.4391661221
 21
108.6020840343
 31
0.0
  0
LINE
  5
3A1
330
1F
100
AcDbEntity
  8
0
  6
Continuous
 62
     7
370
    15
100
AcDbLine
 10
222.132657392
 20
110.0442794024
 30
0.0
 11
219.4491589057
 21
107.4251026133
 31
0.0
  0
LINE
  5
3A2
330
1F
100
AcDbEntity
  8
0
  6
Continuous
 62
     7
370
    15
100
AcDbLine
 10
195.2138495165
 20
77.1491871145
 30
0.0
 11
192.5303510301
 21
74.5300103254
 31
0.0
  0
LINE
  5
3A3
330
1F
100
AcDbEntity
  8
0
  6
Continuous
 62
     7
370
    15
100
AcDbLine
 10
195.2138495165
 20
77.1491871145
 30
0.0
 11
189.9073407864
 21
78.5913824826
 31
0.0
  0
LINE
  5
3A4
330
1F
100
AcDbEntity
  8
0
  6
Continuous
 62
     7
370
    15
100
AcDbLine
 10
189.9073407864
 20
78.5913824826
 30
0.0
 11
187.2238423001
 21
75.9722056935
 31
0.0
  0
LINE
  5
3A5
330
1F
100
AcDbEntity
  8
0
  6
Continuous
 62
     7
370
    15
100
AcDbLine
 10
192.5303510301
 20
74.5300103254
 30
0.0
 11
187.2238423001
 21
75.9722056935
 31
0.0
  0
LINE
  5
3A6
330
1F
100
AcDbEntity
  8
0
  6
Continuous
 62
     7
370
    15
100
AcDbLine
 10
198.1540304667
 20
80.0188938574
 30
0.0
 11
195.3538581332
 21
77.2858398165
 31
0.0
  0
LINE
  5
3A7
330
1F
100
AcDbEntity
  8
0
  6
Continuous
 62
     7
370
    15
100
AcDbLine
 10
198.1540304667
 20
80.0188938574
 30
0.0
 11
192.8475217367
 21
81.4610892255
 31
0.0
  0
LINE
  5
3A8
330
1F
100
AcDbEntity
  8
0
  6
Continuous
 62
     7
370
    15
100
AcDbLine
 10
192.8475217367
 20
81.4610892255
 30
0.0
 11
190.0473494031
 21
78.7280351846
 31
0.0
  0
LINE
  5
3A9
330
1F
100
AcDbEntity
  8
0
  6
Continuous
 62
     7
370
    15
100
AcDbLine
 10
195.3538581332
 20
77.2858398165
 30
0.0
 11
190.0473494031
 21
78.7280351846
 31
0.0
  0
LINE
  5
3AA
330
1F
100
AcDbEntity
  8
0
  6
Continuous
 62
     7
370
    15
100
AcDbLine
 10
201.094211417
 20
82.8886006002
 30
0.0
 11
198.2940390834
 21
80.1555465594
 31
0.0
  0
LINE
  5
3AB
330
1F
100
AcDbEntity
  8
0
  6
Continuous
 62
     7
370
    15
100
AcDbLine
 10
201.094211417
 20
82.8886006002
 30
0.0
 11
195.7877026869
 21
84.3307959683
 31
0.0
  0
LINE
  5
3AC
330
1F
100
AcDbEntity
  8
0
  6
Continuous
 62
     7
370
    15
100
AcDbLine
 10
195.7877026869
 20
84.3307959683
 30
0.0
 11
192.9875303534
 21
81.5977419275
 31
0.0
  0
LINE
  5
3AD
330
1F
100
AcDbEntity
  8
0
  6
Continuous
 62
     7
370
    15
100
AcDbLine
 10
198.2940390834
 20
80.1555465594
 30
0.0
 11
192.9875303534
 21
81.5977419275
 31
0.0
  0
LINE
  5
3AE
330
1F
100
AcDbEntity
  8
0
  6
Continuous
 62
     7
370
    15
100
AcDbLine
 10
204.0343923673
 20
85.7583073431
 30
0.0
 11
201.2342200337
 21
83.0252533023
 31
0.0
  0
LINE
  5
3AF
330
1F
100
AcDbEntity
  8
0
  6
Continuous
 62
     7
370
    15
100
AcDbLine
 10
204.0343923673
 20
85.7583073431
 30
0.0
 11
198.7278836372
 21
87.2005027112
 31
0.0
  0
LINE
  5
3B0
330
1F
100
AcDbEntity
  8
0
  6
Continuous
 62
     7
370
    15
100
AcDbLine
 10
198.7278836372
 20
87.2005027112
 30
0.0
 11
195.9277113036
 21
84.4674486704
 31
0.0
  0
LINE
  5
3B1
330
1F
100
AcDbEntity
  8
0
  6
Continuous
 62
     7
370
    15
100
AcDbLine
 10
201.2342200337
 20
83.0252533023
 30
0.0
 11
195.9277113036
 21
84.4674486704
 31
0.0
  0
LINE
  5
3B2
330
1F
100
AcDbEntity
  8
0
  6
Continuous
 62
     7
370
    15
100
AcDbLine
 10
206.9745733175
 20
88.628014086
 30
0.0
 11
204.1744009839
 21
85.8949600451
 31
0.0
  0
LINE
  5
3B3
330
1F
100
AcDbEntity
  8
0
  6
Continuous
 62
     7
370
    15
100
AcDbLine
 10
206.9745733175
 20
88.628014086
 30
0.0
 11
201.6680645875
 21
90.0702094541
 31
0.0
  0
LINE
  5
3B4
330
1F
100
AcDbEntity
  8
0
  6
Continuous
 62
     7
370
    15
100
AcDbLine
 10
201.6680645875
 20
90.0702094541
 30
0.0
 11
198.8678922539
 21
87.3371554132
 31
0.0
  0
LINE
  5
3B5
330
1F
100
AcDbEntity
  8
0
  6
Continuous
 62
     7
370
    15
100
AcDbLine
 10
204.1744009839
 20
85.8949600451
 30
0.0
 11
198.8678922539
 21
87.3371554132
 31
0.0
  0
LINE
  5
3B6
330
1F
100
AcDbEntity
  8
0
  6
Continuous
 62
     7
370
    15
100
AcDbLine
 10
209.9147542678
 20
91.4977208288
 30
0.0
 11
207.1145819342
 21
88.764666788
 31
0.0
  0
LINE
  5
3B7
330
1F
100
AcDbEntity
  8
0
  6
Continuous
 62
     7
370
    15
100
AcDbLine
 10
209.9147542678
 20
91.4977208288
 30
0.0
 11
204.6082455377
 21
92.9399161969
 31
0.0
  0
LINE
  5
3B8
330
1F
100
AcDbEntity
  8
0
  6
Continuous
 62
     7
370
    15
100
AcDbLine
 10
204.6082455377
 20
92.9399161969
 30
0.0
 11
201.8080732041
 21
90.2068621561
 31
0.0
  0
LINE
  5
3B9
330
1F
100
AcDbEntity
  8
0
  6
Continuous
 62
     7
370
    15
100
AcDbLine
 10
207.1145819342
 20
88.764666788
 30
0.0
 11
201.8080732041
 21
90.2068621561
 31
0.0
  0
LINE
  5
3BA
330
1F
100
AcDbEntity
  8
0
  6
Continuous
 62
     7
370
    15
100
AcDbLine
 10
212.854935218
 20
94.3674275717
 30
0.0
 11
210.0547628845
 21
91.6343735309
 31
0.0
  0
LINE
  5
3BB
330
1F
100
AcDbEntity
  8
0
  6
Continuous
 62
     7
370
    15
100
AcDbLine
 10
212.854935218
 20
94.3674275717
 30
0.0
 11
207.548426488
 21
95.8096229398
 31
0.0
  0
LINE
  5
3BC
330
1F
100
AcDbEntity
  8
0
  6
Continuous
 62
     7
370
    15
100
AcDbLine
 10
207.548426488
 20
95.8096229398
 30
0.0
 11
204.7482541544
 21
93.076568899
 31
0.0
  0
LINE
  5
3BD
330
1F
100
AcDbEntity
  8
0
  6
Continuous
 62
     7
370
    15
100
AcDbLine
 10
210.0547628845
 20
91.6343735309
 30
0.0
 11
204.7482541544
 21
93.076568899
 31
0.0
  0
LINE
  5
3BE
330
1F
100
AcDbEntity
  8
0
  6
Continuous
 62
     7
370
    15
100
AcDbLine
 10
215.7951161683
 20
97.2371343146
 30
0.0
 11
212.9949438347
 21
94.5040802737
 31
0.0
  0
LINE
  5
3BF
330
1F
100
AcDbEntity
  8
0
  6
Continuous
 62
     7
370
    15
100
AcDbLine
 10
215.7951161683
 20
97.2371343146
 30
0.0
 11
210.4886074382
 21
98.6793296827
 31
0.0
  0
LINE
  5
3C0
330
1F
100
AcDbEntity
  8
0
  6
Continuous
 62
     7
370
    15
100
AcDbLine
 10
210.4886074382
 20
98.6793296827
 30
0.0
 11
207.6884351047
 21
95.9462756418
 31
0.0
  0
LINE
  5
3C1
330
1F
100
AcDbEntity
  8
0
  6
Continuous
 62
     7
370
    15
100
AcDbLine
 10
212.9949438347
 20
94.5040802737
 30
0.0
 11
207.6884351047
 21
95.9462756418
 31
0.0
  0
LINE
  5
3C2
330
1F
100
AcDbEntity
  8
0
  6
Continuous
 62
     7
370
    15
100
AcDbLine
 10
218.7352971186
 20
100.1068410574
 30
0.0
 11
215.935124785
 21
97.3737870166
 31
0.0
  0
LINE
  5
3C3
330
1F
100
AcDbEntity
  8
0
  6
Continuous
 62
     7
370
    15
100
AcDbLine
 10
218.7352971186
 20
100.1068410574
 30
0.0
 11
213.4287883885
 21
101.5490364255
 31
0.0
  0
LINE
  5
3C4
330
1F
100
AcDbEntity
  8
0
  6
Continuous
 62
     7
370
    15
100
AcDbLine
 10
213.4287883885
 20
101.5490364255
 30
0.0
 11
210.6286160549
 21
98.8159823847
 31
0.0
  0
LINE
  5
3C5
330
1F
100
AcDbEntity
  8
0
  6
Continuous
 62
     7
370
    15
100
AcDbLine
 10
215.935124785
 20
97.3737870166
 30
0.0
 11
210.6286160549
 21
98.8159823847
 31
0.0
  0
LINE
  5
3C6
330
1F
100
AcDbEntity
  8
0
  6
Continuous
 62
     7
370
    15
100
AcDbLine
 10
221.6754780688
 20
102.9765478003
 30
0.0
 11
218.8753057352
 21
100.2434937595
 31
0.0
  0
LINE
  5
3C7
330
1F
100
AcDbEntity
  8
0
  6
Continuous
 62
     7
370
    15
100
AcDbLine
 10
221.6754780688
 20
102.9765478003
 30
0.0
 11
216.3689693388
 21
104.4187431684
 31
0.0
  0
LINE
  5
3C8
330
1F
100
AcDbEntity
  8
0
  6
Continuous
 62
     7
370
    15
100
AcDbLine
 10
216.3689693388
 20
104.4187431684
 30
0.0
 11
213.5687970052
 21
101.6856891276
 31
0.0
  0
LINE
  5
3C9
330
1F
100
AcDbEntity
  8
0
  6
Continuous
 62
     7
370
    15
100
AcDbLine
 10
218.8753057352
 20
100.2434937595
 30
0.0
 11
213.5687970052
 21
101.6856891276
 31
0.0
  0
LINE
  5
3CA
330
1F
100
AcDbEntity
  8
0
  6
Continuous
 62
     7
370
    15
100
AcDbLine
 10
224.6156590191
 20
105.8462545432
 30
0.0
 11
221.8154866855
 21
103.1132005023
 31
0.0
  0
LINE
  5
3CB
330
1F
100
AcDbEntity
  8
0
  6
Continuous
 62
     7
370
    15
100
AcDbLine
 10
224.6156590191
 20
105.8462545432
 30
0.0
 11
219.309150289
 21
107.2884499113
 31
0.0
  0
LINE
  5
3CC
330
1F
100
AcDbEntity
  8
0
  6
Continuous
 62
     7
370
    15
100
AcDbLine
 10
219.309150289
 20
107.2884499113
 30
0.0
 11
216.5089779554
 21
104.5553958704
 31
0.0
  0
LINE
  5
3CD
330
1F
100
AcDbEntity
  8
0
  6
Continuous
 62
     7
370
    15
100
AcDbLine
 10
221.8154866855
 20
103.1132005023
 30
0.0
 11
216.5089779554
 21
104.5553958704
 31
0.0
  0
LINE
  5
3CE
330
1F
100
AcDbEntity
  8
0
  6
Continuous
 62
     7
370
    15
100
AcDbLine
 10
230.2390599902
 20
104.4926386982
 30
0.0
 11
224.9325512601
 21
105.9348340663
 31
0.0
  0
LINE
  5
3CF
330
1F
100
AcDbEntity
  8
0
  6
Continuous
 62
     7
370
    15
100
AcDbLine
 10
232.9225584765
 20
107.1118154873
 30
0.0
 11
230.2390599902
 21
104.4926386982
 31
0.0
  0
LINE
  5
3D0
330
1F
100
AcDbEntity
  8
0
  6
Continuous
 62
     7
370
    15
100
AcDbLine
 10
227.6160497464
 20
108.5540108554
 30
0.0
 11
232.9225584765
 21
107.1118154873
 31
0.0
  0
LINE
  5
3D1
330
1F
100
AcDbEntity
  8
0
  6
Continuous
 62
     7
370
    15
100
AcDbLine
 10
227.6160497464
 20
108.5540108554
 30
0.0
 11
224.9325512601
 21
105.9348340663
 31
0.0
  0
LINE
  5
3D2
330
1F
100
AcDbEntity
  8
0
  6
Continuous
 62
     7
370
    15
100
AcDbLine
 10
200.6972418709
 20
75.6589185675
 30
0.0
 11
198.0137433845
 21
73.0397417783
 31
0.0
  0
LINE
  5
3D3
330
1F
100
AcDbEntity
  8
0
  6
Continuous
 62
     7
370
    15
100
AcDbLine
 10
200.6972418709
 20
75.6589185675
 30
0.0
 11
195.3907331408
 21
77.1011139356
 31
0.0
  0
LINE
  5
3D4
330
1F
100
AcDbEntity
  8
0
  6
Continuous
 62
     7
370
    15
100
AcDbLine
 10
195.3907331408
 20
77.1011139356
 30
0.0
 11
192.7072346545
 21
74.4819371464
 31
0.0
  0
LINE
  5
3D5
330
1F
100
AcDbEntity
  8
0
  6
Continuous
 62
     7
370
    15
100
AcDbLine
 10
198.0137433845
 20
73.0397417783
 30
0.0
 11
192.7072346545
 21
74.4819371464
 31
0.0
  0
LINE
  5
3D6
330
1F
100
AcDbEntity
  8
0
  6
Continuous
 62
     7
370
    15
100
AcDbLine
 10
203.6374228211
 20
78.5286253103
 30
0.0
 11
200.8372504876
 21
75.7955712695
 31
0.0
  0
LINE
  5
3D7
330
1F
100
AcDbEntity
  8
0
  6
Continuous
 62
     7
370
    15
100
AcDbLine
 10
203.6374228211
 20
78.5286253103
 30
0.0
 11
198.3309140911
 21
79.9708206784
 31
0.0
  0
LINE
  5
3D8
330
1F
100
AcDbEntity
  8
0
  6
Continuous
 62
     7
370
    15
100
AcDbLine
 10
198.3309140911
 20
79.9708206784
 30
0.0
 11
195.5307417575
 21
77.2377666376
 31
0.0
  0
LINE
  5
3D9
330
1F
100
AcDbEntity
  8
0
  6
Continuous
 62
     7
370
    15
100
AcDbLine
 10
200.8372504876
 20
75.7955712695
 30
0.0
 11
195.5307417575
 21
77.2377666376
 31
0.0
  0
LINE
  5
3DA
330
1F
100
AcDbEntity
  8
0
  6
Continuous
 62
     7
370
    15
100
AcDbLine
 10
206.5776037714
 20
81.3983320532
 30
0.0
 11
203.7774314378
 21
78.6652780124
 31
0.0
  0
LINE
  5
3DB
330
1F
100
AcDbEntity
  8
0
  6
Continuous
 62
     7
370
    15
100
AcDbLine
 10
206.5776037714
 20
81.3983320532
 30
0.0
 11
201.2710950413
 21
82.8405274213
 31
0.0
  0
LINE
  5
3DC
330
1F
100
AcDbEntity
  8
0
  6
Continuous
 62
     7
370
    15
100
AcDbLine
 10
201.2710950413
 20
82.8405274213
 30
0.0
 11
198.4709227078
 21
80.1074733805
 31
0.0
  0
LINE
  5
3DD
330
1F
100
AcDbEntity
  8
0
  6
Continuous
 62
     7
370
    15
100
AcDbLine
 10
203.7774314378
 20
78.6652780124
 30
0.0
 11
198.4709227078
 21
80.1074733805
 31
0.0
  0
LINE
  5
3DE
330
1F
100
AcDbEntity
  8
0
  6
Continuous
 62
     7
370
    15
100
AcDbLine
 10
209.5177847217
 20
84.2680387961
 30
0.0
 11
206.7176123881
 21
81.5349847552
 31
0.0
  0
LINE
  5
3DF
330
1F
100
AcDbEntity
  8
0
  6
Continuous
 62
     7
370
    15
100
AcDbLine
 10
209.5177847217
 20
84.2680387961
 30
0.0
 11
204.2112759916
 21
85.7102341642
 31
0.0
  0
LINE
  5
3E0
330
1F
100
AcDbEntity
  8
0
  6
Continuous
 62
     7
370
    15
100
AcDbLine
 10
204.2112759916
 20
85.7102341642
 30
0.0
 11
201.411103658
 21
82.9771801233
 31
0.0
  0
LINE
  5
3E1
330
1F
100
AcDbEntity
  8
0
  6
Continuous
 62
     7
370
    15
100
AcDbLine
 10
206.7176123881
 20
81.5349847552
 30
0.0
 11
201.411103658
 21
82.9771801233
 31
0.0
  0
LINE
  5
3E2
330
1F
100
AcDbEntity
  8
0
  6
Continuous
 62
     7
370
    15
100
AcDbLine
 10
212.4579656719
 20
87.1377455389
 30
0.0
 11
209.6577933383
 21
84.4046914981
 31
0.0
  0
LINE
  5
3E3
330
1F
100
AcDbEntity
  8
0
  6
Continuous
 62
     7
370
    15
100
AcDbLine
 10
212.4579656719
 20
87.1377455389
 30
0.0
 11
207.1514569419
 21
88.579940907
 31
0.0
  0
LINE
  5
3E4
330
1F
100
AcDbEntity
  8
0
  6
Continuous
 62
     7
370
    15
100
AcDbLine
 10
207.1514569419
 20
88.579940907
 30
0.0
 11
204.3512846083
 21
85.8468868662
 31
0.0
  0
LINE
  5
3E5
330
1F
100
AcDbEntity
  8
0
  6
Continuous
 62
     7
370
    15
100
AcDbLine
 10
209.6577933383
 20
84.4046914981
 30
0.0
 11
204.3512846083
 21
85.8468868662
 31
0.0
  0
LINE
  5
3E6
330
1F
100
AcDbEntity
  8
0
  6
Continuous
 62
     7
370
    15
100
AcDbLine
 10
215.3981466222
 20
90.0074522818
 30
0.0
 11
212.5979742886
 21
87.274398241
 31
0.0
  0
LINE
  5
3E7
330
1F
100
AcDbEntity
  8
0
  6
Continuous
 62
     7
370
    15
100
AcDbLine
 10
215.3981466222
 20
90.0074522818
 30
0.0
 11
210.0916378921
 21
91.4496476499
 31
0.0
  0
LINE
  5
3E8
330
1F
100
AcDbEntity
  8
0
  6
Continuous
 62
     7
370
    15
100
AcDbLine
 10
210.0916378921
 20
91.4496476499
 30
0.0
 11
207.2914655585
 21
88.7165936091
 31
0.0
  0
LINE
  5
3E9
330
1F
100
AcDbEntity
  8
0
  6
Continuous
 62
     7
370
    15
100
AcDbLine
 10
212.5979742886
 20
87.274398241
 30
0.0
 11
207.2914655585
 21
88.7165936091
 31
0.0
  0
LINE
  5
3EA
330
1F
100
AcDbEntity
  8
0
  6
Continuous
 62
     7
370
    15
100
AcDbLine
 10
218.3383275724
 20
92.8771590247
 30
0.0
 11
215.5381552389
 21
90.1441049838
 31
0.0
  0
LINE
  5
3EB
330
1F
100
AcDbEntity
  8
0
  6
Continuous
 62
     7
370
    15
100
AcDbLine
 10
218.3383275724
 20
92.8771590247
 30
0.0
 11
213.0318188424
 21
94.3193543928
 31
0.0
  0
LINE
  5
3EC
330
1F
100
AcDbEntity
  8
0
  6
Continuous
 62
     7
370
    15
100
AcDbLine
 10
213.0318188424
 20
94.3193543928
 30
0.0
 11
210.2316465088
 21
91.5863003519
 31
0.0
  0
LINE
  5
3ED
330
1F
100
AcDbEntity
  8
0
  6
Continuous
 62
     7
370
    15
100
AcDbLine
 10
215.5381552389
 20
90.1441049838
 30
0.0
 11
210.2316465088
 21
91.5863003519
 31
0.0
  0
LINE
  5
3EE
330
1F
100
AcDbEntity
  8
0
  6
Continuous
 62
     7
370
    15
100
AcDbLine
 10
221.2785085227
 20
95.7468657675
 30
0.0
 11
218.4783361891
 21
93.0138117267
 31
0.0
  0
LINE
  5
3EF
330
1F
100
AcDbEntity
  8
0
  6
Continuous
 62
     7
370
    15
100
AcDbLine
 10
221.2785085227
 20
95.7468657675
 30
0.0
 11
215.9719997926
 21
97.1890611356
 31
0.0
  0
LINE
  5
3F0
330
1F
100
AcDbEntity
  8
0
  6
Continuous
 62
     7
370
    15
100
AcDbLine
 10
215.9719997926
 20
97.1890611356
 30
0.0
 11
213.1718274591
 21
94.4560070948
 31
0.0
  0
LINE
  5
3F1
330
1F
100
AcDbEntity
  8
0
  6
Continuous
 62
     7
370
    15
100
AcDbLine
 10
218.4783361891
 20
93.0138117267
 30
0.0
 11
213.1718274591
 21
94.4560070948
 31
0.0
  0
LINE
  5
3F2
330
1F
100
AcDbEntity
  8
0
  6
Continuous
 62
     7
370
    15
100
AcDbLine
 10
224.218689473
 20
98.6165725104
 30
0.0
 11
221.4185171394
 21
95.8835184696
 31
0.0
  0
LINE
  5
3F3
330
1F
100
AcDbEntity
  8
0
  6
Continuous
 62
     7
370
    15
100
AcDbLine
 10
224.218689473
 20
98.6165725104
 30
0.0
 11
218.9121807429
 21
100.0587678785
 31
0.0
  0
LINE
  5
3F4
330
1F
100
AcDbEntity
  8
0
  6
Continuous
 62
     7
370
    15
100
AcDbLine
 10
218.9121807429
 20
100.0587678785
 30
0.0
 11
216.1120084093
 21
97.3257138377
 31
0.0
  0
LINE
  5
3F5
330
1F
100
AcDbEntity
  8
0
  6
Continuous
 62
     7
370
    15
100
AcDbLine
 10
221.4185171394
 20
95.8835184696
 30
0.0
 11
216.1120084093
 21
97.3257138377
 31
0.0
  0
LINE
  5
3F6
330
1F
100
AcDbEntity
  8
0
  6
Continuous
 62
     7
370
    15
100
AcDbLine
 10
227.1588704232
 20
101.4862792533
 30
0.0
 11
224.3586980896
 21
98.7532252124
 31
0.0
  0
LINE
  5
3F7
330
1F
100
AcDbEntity
  8
0
  6
Continuous
 62
     7
370
    15
100
AcDbLine
 10
227.1588704232
 20
101.4862792533
 30
0.0
 11
221.8523616932
 21
102.9284746214
 31
0.0
  0
LINE
  5
3F8
330
1F
100
AcDbEntity
  8
0
  6
Continuous
 62
     7
370
    15
100
AcDbLine
 10
221.8523616932
 20
102.9284746214
 30
0.0
 11
219.0521893596
 21
100.1954205805
 31
0.0
  0
LINE
  5
3F9
330
1F
100
AcDbEntity
  8
0
  6
Continuous
 62
     7
370
    15
100
AcDbLine
 10
224.3586980896
 20
98.7532252124
 30
0.0
 11
219.0521893596
 21
100.1954205805
 31
0.0
  0
LINE
  5
3FA
330
1F
100
AcDbEntity
  8
0
  6
Continuous
 62
     7
370
    15
100
AcDbLine
 10
230.0990513735
 20
104.3559859961
 30
0.0
 11
227.2988790399
 21
101.6229319553
 31
0.0
  0
LINE
  5
3FB
330
1F
100
AcDbEntity
  8
0
  6
Continuous
 62
     7
370
    15
100
AcDbLine
 10
230.0990513735
 20
104.3559859961
 30
0.0
 11
224.7925426434
 21
105.7981813642
 31
0.0
  0
LINE
  5
3FC
330
1F
100
AcDbEntity
  8
0
  6
Continuous
 62
     7
370
    15
100
AcDbLine
 10
224.7925426434
 20
105.7981813642
 30
0.0
 11
221.9923703098
 21
103.0651273234
 31
0.0
  0
LINE
  5
3FD
330
1F
100
AcDbEntity
  8
0
  6
Continuous
 62
     7
370
    15
100
AcDbLine
 10
227.2988790399
 20
101.6229319553
 30
0.0
 11
221.9923703098
 21
103.0651273234
 31
0.0
  0
LINE
  5
3FE
330
1F
100
AcDbEntity
  8
0
  6
Continuous
 62
     7
370
    15
100
AcDbLine
 10
235.7224523446
 20
103.0023701511
 30
0.0
 11
230.4159436145
 21
104.4445655192
 31
0.0
  0
LINE
  5
3FF
330
1F
100
AcDbEntity
  8
0
  6
Continuous
 62
     7
370
    15
100
AcDbLine
 10
238.4059508309
 20
105.6215469403
 30
0.0
 11
235.7224523446
 21
103.0023701511
 31
0.0
  0
LINE
  5
400
330
1F
100
AcDbEntity
  8
0
  6
Continuous
 62
     7
370
    15
100
AcDbLine
 10
233.0994421008
 20
107.0637423084
 30
0.0
 11
238.4059508309
 21
105.6215469403
 31
0.0
  0
LINE
  5
401
330
1F
100
AcDbEntity
  8
0
  6
Continuous
 62
     7
370
    15
100
AcDbLine
 10
233.0994421008
 20
107.0637423084
 30
0.0
 11
230.4159436145
 21
104.4445655192
 31
0.0
  0
LINE
  5
402
330
1F
100
AcDbEntity
  8
0
  6
Continuous
 62
     7
370
    15
100
AcDbLine
 10
206.1806342253
 20
74.1686500204
 30
0.0
 11
203.4971357389
 21
71.5494732313
 31
0.0
  0
LINE
  5
403
330
1F
100
AcDbEntity
  8
0
  6
Continuous
 62
     7
370
    15
100
AcDbLine
 10
206.1806342253
 20
74.1686500204
 30
0.0
 11
200.8741254952
 21
75.6108453885
 31
0.0
  0
LINE
  5
404
330
1F
100
AcDbEntity
  8
0
  6
Continuous
 62
     7
370
    15
100
AcDbLine
 10
200.8741254952
 20
75.6108453885
 30
0.0
 11
198.1906270089
 21
72.9916685994
 31
0.0
  0
LINE
  5
405
330
1F
100
AcDbEntity
  8
0
  6
Continuous
 62
     7
370
    15
100
AcDbLine
 10
203.4971357389
 20
71.5494732313
 30
0.0
 11
198.1906270089
 21
72.9916685994
 31
0.0
  0
LINE
  5
406
330
1F
100
AcDbEntity
  8
0
  6
Continuous
 62
     7
370
    15
100
AcDbLine
 10
209.1208151755
 20
77.0383567633
 30
0.0
 11
206.320642842
 21
74.3053027225
 31
0.0
  0
LINE
  5
407
330
1F
100
AcDbEntity
  8
0
  6
Continuous
 62
     7
370
    15
100
AcDbLine
 10
209.1208151755
 20
77.0383567633
 30
0.0
 11
203.8143064455
 21
78.4805521314
 31
0.0
  0
LINE
  5
408
330
1F
100
AcDbEntity
  8
0
  6
Continuous
 62
     7
370
    15
100
AcDbLine
 10
203.8143064455
 20
78.4805521314
 30
0.0
 11
201.0141341119
 21
75.7474980906
 31
0.0
  0
LINE
  5
409
330
1F
100
AcDbEntity
  8
0
  6
Continuous
 62
     7
370
    15
100
AcDbLine
 10
206.320642842
 20
74.3053027225
 30
0.0
 11
201.0141341119
 21
75.7474980906
 31
0.0
  0
LINE
  5
40A
330
1F
100
AcDbEntity
  8
0
  6
Continuous
 62
     7
370
    15
100
AcDbLine
 10
212.0609961258
 20
79.9080635062
 30
0.0
 11
209.2608237922
 21
77.1750094653
 31
0.0
  0
LINE
  5
40B
330
1F
100
AcDbEntity
  8
0
  6
Continuous
 62
     7
370
    15
100
AcDbLine
 10
212.0609961258
 20
79.9080635062
 30
0.0
 11
206.7544873957
 21
81.3502588743
 31
0.0
  0
LINE
  5
40C
330
1F
100
AcDbEntity
  8
0
  6
Continuous
 62
     7
370
    15
100
AcDbLine
 10
206.7544873957
 20
81.3502588743
 30
0.0
 11
203.9543150622
 21
78.6172048334
 31
0.0
  0
LINE
  5
40D
330
1F
100
AcDbEntity
  8
0
  6
Continuous
 62
     7
370
    15
100
AcDbLine
 10
209.2608237922
 20
77.1750094653
 30
0.0
 11
203.9543150622
 21
78.6172048334
 31
0.0
  0
LINE
  5
40E
330
1F
100
AcDbEntity
  8
0
  6
Continuous
 62
     7
370
    15
100
AcDbLine
 10
215.0011770761
 20
82.777770249
 30
0.0
 11
212.2010047425
 21
80.0447162082
 31
0.0
  0
LINE
  5
40F
330
1F
100
AcDbEntity
  8
0
  6
Continuous
 62
     7
370
    15
100
AcDbLine
 10
215.0011770761
 20
82.777770249
 30
0.0
 11
209.694668346
 21
84.2199656171
 31
0.0
  0
LINE
  5
410
330
1F
100
AcDbEntity
  8
0
  6
Continuous
 62
     7
370
    15
100
AcDbLine
 10
209.694668346
 20
84.2199656171
 30
0.0
 11
206.8944960124
 21
81.4869115763
 31
0.0
  0
LINE
  5
411
330
1F
100
AcDbEntity
  8
0
  6
Continuous
 62
     7
370
    15
100
AcDbLine
 10
212.2010047425
 20
80.0447162082
 30
0.0
 11
206.8944960124
 21
81.4869115763
 31
0.0
  0
LINE
  5
412
330
1F
100
AcDbEntity
  8
0
  6
Continuous
 62
     7
370
    15
100
AcDbLine
 10
217.9413580263
 20
85.6474769919
 30
0.0
 11
215.1411856927
 21
82.9144229511
 31
0.0
  0
LINE
  5
413
330
1F
100
AcDbEntity
  8
0
  6
Continuous
 62
     7
370
    15
100
AcDbLine
 10
217.9413580263
 20
85.6474769919
 30
0.0
 11
212.6348492963
 21
87.08967236
 31
0.0
  0
LINE
  5
414
330
1F
100
AcDbEntity
  8
0
  6
Continuous
 62
     7
370
    15
100
AcDbLine
 10
212.6348492963
 20
87.08967236
 30
0.0
 11
209.8346769627
 21
84.3566183192
 31
0.0
  0
LINE
  5
415
330
1F
100
AcDbEntity
  8
0
  6
Continuous
 62
     7
370
    15
100
AcDbLine
 10
215.1411856927
 20
82.9144229511
 30
0.0
 11
209.8346769627
 21
84.3566183192
 31
0.0
  0
LINE
  5
416
330
1F
100
AcDbEntity
  8
0
  6
Continuous
 62
     7
370
    15
100
AcDbLine
 10
220.8815389766
 20
88.5171837348
 30
0.0
 11
218.081366643
 21
85.7841296939
 31
0.0
  0
LINE
  5
417
330
1F
100
AcDbEntity
  8
0
  6
Continuous
 62
     7
370
    15
100
AcDbLine
 10
220.8815389766
 20
88.5171837348
 30
0.0
 11
215.5750302465
 21
89.9593791029
 31
0.0
  0
LINE
  5
418
330
1F
100
AcDbEntity
  8
0
  6
Continuous
 62
     7
370
    15
100
AcDbLine
 10
215.5750302465
 20
89.9593791029
 30
0.0
 11
212.7748579129
 21
87.226325062
 31
0.0
  0
LINE
  5
419
330
1F
100
AcDbEntity
  8
0
  6
Continuous
 62
     7
370
    15
100
AcDbLine
 10
218.081366643
 20
85.7841296939
 30
0.0
 11
212.7748579129
 21
87.226325062
 31
0.0
  0
LINE
  5
41A
330
1F
100
AcDbEntity
  8
0
  6
Continuous
 62
     7
370
    15
100
AcDbLine
 10
223.8217199268
 20
91.3868904776
 30
0.0
 11
221.0215475933
 21
88.6538364368
 31
0.0
  0
LINE
  5
41B
330
1F
100
AcDbEntity
  8
0
  6
Continuous
 62
     7
370
    15
100
AcDbLine
 10
223.8217199268
 20
91.3868904776
 30
0.0
 11
218.5152111968
 21
92.8290858457
 31
0.0
  0
LINE
  5
41C
330
1F
100
AcDbEntity
  8
0
  6
Continuous
 62
     7
370
    15
100
AcDbLine
 10
218.5152111968
 20
92.8290858457
 30
0.0
 11
215.7150388632
 21
90.0960318049
 31
0.0
  0
LINE
  5
41D
330
1F
100
AcDbEntity
  8
0
  6
Continuous
 62
     7
370
    15
100
AcDbLine
 10
221.0215475933
 20
88.6538364368
 30
0.0
 11
215.7150388632
 21
90.0960318049
 31
0.0
  0
LINE
  5
41E
330
1F
100
AcDbEntity
  8
0
  6
Continuous
 62
     7
370
    15
100
AcDbLine
 10
226.7619008771
 20
94.2565972205
 30
0.0
 11
223.9617285435
 21
91.5235431797
 31
0.0
  0
LINE
  5
41F
330
1F
100
AcDbEntity
  8
0
  6
Continuous
 62
     7
370
    15
100
AcDbLine
 10
226.7619008771
 20
94.2565972205
 30
0.0
 11
221.455392147
 21
95.6987925886
 31
0.0
  0
LINE
  5
420
330
1F
100
AcDbEntity
  8
0
  6
Continuous
 62
     7
370
    15
100
AcDbLine
 10
221.455392147
 20
95.6987925886
 30
0.0
 11
218.6552198135
 21
92.9657385478
 31
0.0
  0
LINE
  5
421
330
1F
100
AcDbEntity
  8
0
  6
Continuous
 62
     7
370
    15
100
AcDbLine
 10
223.9617285435
 20
91.5235431797
 30
0.0
 11
218.6552198135
 21
92.9657385478
 31
0.0
  0
LINE
  5
422
330
1F
100
AcDbEntity
  8
0
  6
Continuous
 62
     7
370
    15
100
AcDbLine
 10
229.7020818274
 20
97.1263039634
 30
0.0
 11
226.9019094938
 21
94.3932499225
 31
0.0
  0
LINE
  5
423
330
1F
100
AcDbEntity
  8
0
  6
Continuous
 62
     7
370
    15
100
AcDbLine
 10
229.7020818274
 20
97.1263039634
 30
0.0
 11
224.3955730973
 21
98.5684993315
 31
0.0
  0
LINE
  5
424
330
1F
100
AcDbEntity
  8
0
  6
Continuous
 62
     7
370
    15
100
AcDbLine
 10
224.3955730973
 20
98.5684993315
 30
0.0
 11
221.5954007637
 21
95.8354452906
 31
0.0
  0
LINE
  5
425
330
1F
100
AcDbEntity
  8
0
  6
Continuous
 62
     7
370
    15
100
AcDbLine
 10
226.9019094938
 20
94.3932499225
 30
0.0
 11
221.5954007637
 21
95.8354452906
 31
0.0
  0
LINE
  5
426
330
1F
100
AcDbEntity
  8
0
  6
Continuous
 62
     7
370
    15
100
AcDbLine
 10
232.6422627776
 20
99.9960107062
 30
0.0
 11
229.842090444
 21
97.2629566654
 31
0.0
  0
LINE
  5
427
330
1F
100
AcDbEntity
  8
0
  6
Continuous
 62
     7
370
    15
100
AcDbLine
 10
232.6422627776
 20
99.9960107062
 30
0.0
 11
227.3357540476
 21
101.4382060743
 31
0.0
  0
LINE
  5
428
330
1F
100
AcDbEntity
  8
0
  6
Continuous
 62
     7
370
    15
100
AcDbLine
 10
227.3357540476
 20
101.4382060743
 30
0.0
 11
224.535581714
 21
98.7051520335
 31
0.0
  0
LINE
  5
429
330
1F
100
AcDbEntity
  8
0
  6
Continuous
 62
     7
370
    15
100
AcDbLine
 10
229.842090444
 20
97.2629566654
 30
0.0
 11
224.535581714
 21
98.7051520335
 31
0.0
  0
LINE
  5
42A
330
1F
100
AcDbEntity
  8
0
  6
Continuous
 62
     7
370
    15
100
AcDbLine
 10
235.5824437279
 20
102.8657174491
 30
0.0
 11
232.7822713943
 21
100.1326634083
 31
0.0
  0
LINE
  5
42B
330
1F
100
AcDbEntity
  8
0
  6
Continuous
 62
     7
370
    15
100
AcDbLine
 10
235.5824437279
 20
102.8657174491
 30
0.0
 11
230.2759349978
 21
104.3079128172
 31
0.0
  0
LINE
  5
42C
330
1F
100
AcDbEntity
  8
0
  6
Continuous
 62
     7
370
    15
100
AcDbLine
 10
230.2759349978
 20
104.3079128172
 30
0.0
 11
227.4757626642
 21
101.5748587764
 31
0.0
  0
LINE
  5
42D
330
1F
100
AcDbEntity
  8
0
  6
Continuous
 62
     7
370
    15
100
AcDbLine
 10
232.7822713943
 20
100.1326634083
 30
0.0
 11
227.4757626642
 21
101.5748587764
 31
0.0
  0
LINE
  5
42E
330
1F
100
AcDbEntity
  8
0
  6
Continuous
 62
     7
370
    15
100
AcDbLine
 10
241.205844699
 20
101.5121016041
 30
0.0
 11
235.8993359689
 21
102.9542969722
 31
0.0
  0
LINE
  5
42F
330
1F
100
AcDbEntity
  8
0
  6
Continuous
 62
     7
370
    15
100
AcDbLine
 10
243.8893431853
 20
104.1312783932
 30
0.0
 11
241.205844699
 21
101.5121016041
 31
0.0
  0
LINE
  5
430
330
1F
100
AcDbEntity
  8
0
  6
Continuous
 62
     7
370
    15
100
AcDbLine
 10
238.5828344552
 20
105.5734737613
 30
0.0
 11
243.8893431853
 21
104.1312783932
 31
0.0
  0
LINE
  5
431
330
1F
100
AcDbEntity
  8
0
  6
Continuous
 62
     7
370
    15
100
AcDbLine
 10
238.5828344552
 20
105.5734737613
 30
0.0
 11
235.8993359689
 21
102.9542969722
 31
0.0
  0
LINE
  5
432
330
1F
100
AcDbEntity
  8
0
  6
Continuous
 62
     7
370
    15
100
AcDbLine
 10
211.6640265797
 20
72.6783814734
 30
0.0
 11
208.9805280933
 21
70.0592046843
 31
0.0
  0
LINE
  5
433
330
1F
100
AcDbEntity
  8
0
  6
Continuous
 62
     7
370
    15
100
AcDbLine
 10
211.6640265797
 20
72.6783814734
 30
0.0
 11
206.3575178496
 21
74.1205768415
 31
0.0
  0
LINE
  5
434
330
1F
100
AcDbEntity
  8
0
  6
Continuous
 62
     7
370
    15
100
AcDbLine
 10
206.3575178496
 20
74.1205768415
 30
0.0
 11
203.6740193633
 21
71.5014000524
 31
0.0
  0
LINE
  5
435
330
1F
100
AcDbEntity
  8
0
  6
Continuous
 62
     7
370
    15
100
AcDbLine
 10
208.9805280933
 20
70.0592046843
 30
0.0
 11
203.6740193633
 21
71.5014000524
 31
0.0
  0
LINE
  5
436
330
1F
100
AcDbEntity
  8
0
  6
Continuous
 62
     7
370
    15
100
AcDbLine
 10
214.6042075299
 20
75.5480882162
 30
0.0
 11
211.8040351964
 21
72.8150341754
 31
0.0
  0
LINE
  5
437
330
1F
100
AcDbEntity
  8
0
  6
Continuous
 62
     7
370
    15
100
AcDbLine
 10
214.6042075299
 20
75.5480882162
 30
0.0
 11
209.2976987999
 21
76.9902835844
 31
0.0
  0
LINE
  5
438
330
1F
100
AcDbEntity
  8
0
  6
Continuous
 62
     7
370
    15
100
AcDbLine
 10
209.2976987999
 20
76.9902835844
 30
0.0
 11
206.4975264663
 21
74.2572295435
 31
0.0
  0
LINE
  5
439
330
1F
100
AcDbEntity
  8
0
  6
Continuous
 62
     7
370
    15
100
AcDbLine
 10
211.8040351964
 20
72.8150341754
 30
0.0
 11
206.4975264663
 21
74.2572295435
 31
0.0
  0
LINE
  5
43A
330
1F
100
AcDbEntity
  8
0
  6
Continuous
 62
     7
370
    15
100
AcDbLine
 10
217.5443884802
 20
78.4177949591
 30
0.0
 11
214.7442161466
 21
75.6847409183
 31
0.0
  0
LINE
  5
43B
330
1F
100
AcDbEntity
  8
0
  6
Continuous
 62
     7
370
    15
100
AcDbLine
 10
217.5443884802
 20
78.4177949591
 30
0.0
 11
212.2378797501
 21
79.8599903272
 31
0.0
  0
LINE
  5
43C
330
1F
100
AcDbEntity
  8
0
  6
Continuous
 62
     7
370
    15
100
AcDbLine
 10
212.2378797501
 20
79.8599903272
 30
0.0
 11
209.4377074166
 21
77.1269362864
 31
0.0
  0
LINE
  5
43D
330
1F
100
AcDbEntity
  8
0
  6
Continuous
 62
     7
370
    15
100
AcDbLine
 10
214.7442161466
 20
75.6847409183
 30
0.0
 11
209.4377074166
 21
77.1269362864
 31
0.0
  0
LINE
  5
43E
330
1F
100
AcDbEntity
  8
0
  6
Continuous
 62
     7
370
    15
100
AcDbLine
 10
220.4845694305
 20
81.287501702
 30
0.0
 11
217.6843970969
 21
78.5544476612
 31
0.0
  0
LINE
  5
43F
330
1F
100
AcDbEntity
  8
0
  6
Continuous
 62
     7
370
    15
100
AcDbLine
 10
220.4845694305
 20
81.287501702
 30
0.0
 11
215.1780607004
 21
82.7296970701
 31
0.0
  0
LINE
  5
440
330
1F
100
AcDbEntity
  8
0
  6
Continuous
 62
     7
370
    15
100
AcDbLine
 10
215.1780607004
 20
82.7296970701
 30
0.0
 11
212.3778883668
 21
79.9966430293
 31
0.0
  0
LINE
  5
441
330
1F
100
AcDbEntity
  8
0
  6
Continuous
 62
     7
370
    15
100
AcDbLine
 10
217.6843970969
 20
78.5544476612
 30
0.0
 11
212.3778883668
 21
79.9966430293
 31
0.0
  0
LINE
  5
442
330
1F
100
AcDbEntity
  8
0
  6
Continuous
 62
     7
370
    15
100
AcDbLine
 10
223.4247503807
 20
84.1572084448
 30
0.0
 11
220.6245780471
 21
81.424154404
 31
0.0
  0
LINE
  5
443
330
1F
100
AcDbEntity
  8
0
  6
Continuous
 62
     7
370
    15
100
AcDbLine
 10
223.4247503807
 20
84.1572084448
 30
0.0
 11
218.1182416507
 21
85.599403813
 31
0.0
  0
LINE
  5
444
330
1F
100
AcDbEntity
  8
0
  6
Continuous
 62
     7
370
    15
100
AcDbLine
 10
218.1182416507
 20
85.599403813
 30
0.0
 11
215.3180693171
 21
82.8663497721
 31
0.0
  0
LINE
  5
445
330
1F
100
AcDbEntity
  8
0
  6
Continuous
 62
     7
370
    15
100
AcDbLine
 10
220.6245780471
 20
81.424154404
 30
0.0
 11
215.3180693171
 21
82.8663497721
 31
0.0
  0
LINE
  5
446
330
1F
100
AcDbEntity
  8
0
  6
Continuous
 62
     7
370
    15
100
AcDbLine
 10
226.364931331
 20
87.0269151877
 30
0.0
 11
223.5647589974
 21
84.2938611469
 31
0.0
  0
LINE
  5
447
330
1F
100
AcDbEntity
  8
0
  6
Continuous
 62
     7
370
    15
100
AcDbLine
 10
226.364931331
 20
87.0269151877
 30
0.0
 11
221.0584226009
 21
88.4691105558
 31
0.0
  0
LINE
  5
448
330
1F
100
AcDbEntity
  8
0
  6
Continuous
 62
     7
370
    15
100
AcDbLine
 10
221.0584226009
 20
88.4691105558
 30
0.0
 11
218.2582502673
 21
85.736056515
 31
0.0
  0
LINE
  5
449
330
1F
100
AcDbEntity
  8
0
  6
Continuous
 62
     7
370
    15
100
AcDbLine
 10
223.5647589974
 20
84.2938611469
 30
0.0
 11
218.2582502673
 21
85.736056515
 31
0.0
  0
LINE
  5
44A
330
1F
100
AcDbEntity
  8
0
  6
Continuous
 62
     7
370
    15
100
AcDbLine
 10
229.3051122812
 20
89.8966219306
 30
0.0
 11
226.5049399477
 21
87.1635678898
 31
0.0
  0
LINE
  5
44B
330
1F
100
AcDbEntity
  8
0
  6
Continuous
 62
     7
370
    15
100
AcDbLine
 10
229.3051122812
 20
89.8966219306
 30
0.0
 11
223.9986035512
 21
91.3388172987
 31
0.0
  0
LINE
  5
44C
330
1F
100
AcDbEntity
  8
0
  6
Continuous
 62
     7
370
    15
100
AcDbLine
 10
223.9986035512
 20
91.3388172987
 30
0.0
 11
221.1984312176
 21
88.6057632579
 31
0.0
  0
LINE
  5
44D
330
1F
100
AcDbEntity
  8
0
  6
Continuous
 62
     7
370
    15
100
AcDbLine
 10
226.5049399477
 20
87.1635678898
 30
0.0
 11
221.1984312176
 21
88.6057632579
 31
0.0
  0
LINE
  5
44E
330
1F
100
AcDbEntity
  8
0
  6
Continuous
 62
     7
370
    15
100
AcDbLine
 10
232.2452932315
 20
92.7663286735
 30
0.0
 11
229.4451208979
 21
90.0332746326
 31
0.0
  0
LINE
  5
44F
330
1F
100
AcDbEntity
  8
0
  6
Continuous
 62
     7
370
    15
100
AcDbLine
 10
232.2452932315
 20
92.7663286735
 30
0.0
 11
226.9387845014
 21
94.2085240416
 31
0.0
  0
LINE
  5
450
330
1F
100
AcDbEntity
  8
0
  6
Continuous
 62
     7
370
    15
100
AcDbLine
 10
226.9387845014
 20
94.2085240416
 30
0.0
 11
224.1386121679
 21
91.4754700007
 31
0.0
  0
LINE
  5
451
330
1F
100
AcDbEntity
  8
0
  6
Continuous
 62
     7
370
    15
100
AcDbLine
 10
229.4451208979
 20
90.0332746326
 30
0.0
 11
224.1386121679
 21
91.4754700007
 31
0.0
  0
LINE
  5
452
330
1F
100
AcDbEntity
  8
0
  6
Continuous
 62
     7
370
    15
100
AcDbLine
 10
235.1854741818
 20
95.6360354163
 30
0.0
 11
232.3853018482
 21
92.9029813755
 31
0.0
  0
LINE
  5
453
330
1F
100
AcDbEntity
  8
0
  6
Continuous
 62
     7
370
    15
100
AcDbLine
 10
235.1854741818
 20
95.6360354163
 30
0.0
 11
229.8789654517
 21
97.0782307844
 31
0.0
  0
LINE
  5
454
330
1F
100
AcDbEntity
  8
0
  6
Continuous
 62
     7
370
    15
100
AcDbLine
 10
229.8789654517
 20
97.0782307844
 30
0.0
 11
227.0787931181
 21
94.3451767436
 31
0.0
  0
LINE
  5
455
330
1F
100
AcDbEntity
  8
0
  6
Continuous
 62
     7
370
    15
100
AcDbLine
 10
232.3853018482
 20
92.9029813755
 30
0.0
 11
227.0787931181
 21
94.3451767436
 31
0.0
  0
LINE
  5
456
330
1F
100
AcDbEntity
  8
0
  6
Continuous
 62
     7
370
    15
100
AcDbLine
 10
238.125655132
 20
98.5057421592
 30
0.0
 11
235.3254827984
 21
95.7726881184
 31
0.0
  0
LINE
  5
457
330
1F
100
AcDbEntity
  8
0
  6
Continuous
 62
     7
370
    15
100
AcDbLine
 10
238.125655132
 20
98.5057421592
 30
0.0
 11
232.819146402
 21
99.9479375273
 31
0.0
  0
LINE
  5
458
330
1F
100
AcDbEntity
  8
0
  6
Continuous
 62
     7
370
    15
100
AcDbLine
 10
232.819146402
 20
99.9479375273
 30
0.0
 11
230.0189740684
 21
97.2148834865
 31
0.0
  0
LINE
  5
459
330
1F
100
AcDbEntity
  8
0
  6
Continuous
 62
     7
370
    15
100
AcDbLine
 10
235.3254827984
 20
95.7726881184
 30
0.0
 11
230.0189740684
 21
97.2148834865
 31
0.0
  0
LINE
  5
45A
330
1F
100
AcDbEntity
  8
0
  6
Continuous
 62
     7
370
    15
100
AcDbLine
 10
241.0658360823
 20
101.3754489021
 30
0.0
 11
238.2656637487
 21
98.6423948612
 31
0.0
  0
LINE
  5
45B
330
1F
100
AcDbEntity
  8
0
  6
Continuous
 62
     7
370
    15
100
AcDbLine
 10
241.0658360823
 20
101.3754489021
 30
0.0
 11
235.7593273522
 21
102.8176442702
 31
0.0
  0
LINE
  5
45C
330
1F
100
AcDbEntity
  8
0
  6
Continuous
 62
     7
370
    15
100
AcDbLine
 10
235.7593273522
 20
102.8176442702
 30
0.0
 11
232.9591550186
 21
100.0845902293
 31
0.0
  0
LINE
  5
45D
330
1F
100
AcDbEntity
  8
0
  6
Continuous
 62
     7
370
    15
100
AcDbLine
 10
238.2656637487
 20
98.6423948612
 30
0.0
 11
232.9591550186
 21
100.0845902293
 31
0.0
  0
LINE
  5
45E
330
1F
100
AcDbEntity
  8
0
  6
Continuous
 62
     7
370
    15
100
AcDbLine
 10
244.0662268096
 20
104.0832052143
 30
0.0
 11
249.3727355397
 21
102.6410098462
 31
0.0
  0
LINE
  5
45F
330
1F
100
AcDbEntity
  8
0
  6
Continuous
 62
     7
370
    15
100
AcDbLine
 10
244.0662268096
 20
104.0832052143
 30
0.0
 11
241.3827283233
 21
101.4640284252
 31
0.0
  0
LINE
  5
460
330
1F
100
AcDbEntity
  8
0
  6
Continuous
 62
     7
370
    15
100
AcDbLine
 10
246.6892370534
 20
100.0218330571
 30
0.0
 11
241.3827283233
 21
101.4640284252
 31
0.0
  0
LINE
  5
461
330
1F
100
AcDbEntity
  8
0
  6
Continuous
 62
     7
370
    15
100
AcDbLine
 10
249.3727355397
 20
102.6410098462
 30
0.0
 11
246.6892370534
 21
100.0218330571
 31
0.0
  0
LINE
  5
462
330
1F
100
AcDbEntity
  8
0
  6
Continuous
 62
     7
370
    15
100
AcDbLine
 10
246.5492284367
 20
99.885180355
 30
0.0
 11
241.2427197066
 21
101.3273757231
 31
0.0
  0
LINE
  5
463
330
1F
100
AcDbEntity
  8
0
  6
Continuous
 62
     7
370
    15
100
AcDbLine
 10
241.2427197066
 20
101.3273757231
 30
0.0
 11
238.442547373
 21
98.5943216823
 31
0.0
  0
LINE
  5
464
330
1F
100
AcDbEntity
  8
0
  6
Continuous
 62
     7
370
    15
100
AcDbLine
 10
243.7490561031
 20
97.1521263142
 30
0.0
 11
238.442547373
 21
98.5943216823
 31
0.0
  0
LINE
  5
465
330
1F
100
AcDbEntity
  8
0
  6
Continuous
 62
     7
370
    15
100
AcDbLine
 10
246.5492284367
 20
99.885180355
 30
0.0
 11
243.7490561031
 21
97.1521263142
 31
0.0
  0
LINE
  5
466
330
1F
100
AcDbEntity
  8
0
  6
Continuous
 62
     7
370
    15
100
AcDbLine
 10
243.6090474864
 20
97.0154736121
 30
0.0
 11
238.3025387564
 21
98.4576689802
 31
0.0
  0
LINE
  5
467
330
1F
100
AcDbEntity
  8
0
  6
Continuous
 62
     7
370
    15
100
AcDbLine
 10
238.3025387564
 20
98.4576689802
 30
0.0
 11
235.5023664228
 21
95.7246149394
 31
0.0
  0
LINE
  5
468
330
1F
100
AcDbEntity
  8
0
  6
Continuous
 62
     7
370
    15
100
AcDbLine
 10
240.8088751528
 20
94.2824195713
 30
0.0
 11
235.5023664228
 21
95.7246149394
 31
0.0
  0
LINE
  5
469
330
1F
100
AcDbEntity
  8
0
  6
Continuous
 62
     7
370
    15
100
AcDbLine
 10
243.6090474864
 20
97.0154736121
 30
0.0
 11
240.8088751528
 21
94.2824195713
 31
0.0
  0
LINE
  5
46A
330
1F
100
AcDbEntity
  8
0
  6
Continuous
 62
     7
370
    15
100
AcDbLine
 10
240.6688665362
 20
94.1457668693
 30
0.0
 11
235.3623578061
 21
95.5879622374
 31
0.0
  0
LINE
  5
46B
330
1F
100
AcDbEntity
  8
0
  6
Continuous
 62
     7
370
    15
100
AcDbLine
 10
235.3623578061
 20
95.5879622374
 30
0.0
 11
232.5621854725
 21
92.8549081966
 31
0.0
  0
LINE
  5
46C
330
1F
100
AcDbEntity
  8
0
  6
Continuous
 62
     7
370
    15
100
AcDbLine
 10
237.8686942026
 20
91.4127128285
 30
0.0
 11
232.5621854725
 21
92.8549081966
 31
0.0
  0
LINE
  5
46D
330
1F
100
AcDbEntity
  8
0
  6
Continuous
 62
     7
370
    15
100
AcDbLine
 10
240.6688665362
 20
94.1457668693
 30
0.0
 11
237.8686942026
 21
91.4127128285
 31
0.0
  0
LINE
  5
46E
330
1F
100
AcDbEntity
  8
0
  6
Continuous
 62
     7
370
    15
100
AcDbLine
 10
237.7286855859
 20
91.2760601264
 30
0.0
 11
232.4221768558
 21
92.7182554945
 31
0.0
  0
LINE
  5
46F
330
1F
100
AcDbEntity
  8
0
  6
Continuous
 62
     7
370
    15
100
AcDbLine
 10
232.4221768558
 20
92.7182554945
 30
0.0
 11
229.6220045223
 21
89.9852014537
 31
0.0
  0
LINE
  5
470
330
1F
100
AcDbEntity
  8
0
  6
Continuous
 62
     7
370
    15
100
AcDbLine
 10
234.9285132523
 20
88.5430060856
 30
0.0
 11
229.6220045223
 21
89.9852014537
 31
0.0
  0
LINE
  5
471
330
1F
100
AcDbEntity
  8
0
  6
Continuous
 62
     7
370
    15
100
AcDbLine
 10
237.7286855859
 20
91.2760601264
 30
0.0
 11
234.9285132523
 21
88.5430060856
 31
0.0
  0
LINE
  5
472
330
1F
100
AcDbEntity
  8
0
  6
Continuous
 62
     7
370
    15
100
AcDbLine
 10
234.7885046356
 20
88.4063533835
 30
0.0
 11
229.4819959056
 21
89.8485487516
 31
0.0
  0
LINE
  5
473
330
1F
100
AcDbEntity
  8
0
  6
Continuous
 62
     7
370
    15
100
AcDbLine
 10
229.4819959056
 20
89.8485487516
 30
0.0
 11
226.681823572
 21
87.1154947108
 31
0.0
  0
LINE
  5
474
330
1F
100
AcDbEntity
  8
0
  6
Continuous
 62
     7
370
    15
100
AcDbLine
 10
231.9883323021
 20
85.6732993427
 30
0.0
 11
226.681823572
 21
87.1154947108
 31
0.0
  0
LINE
  5
475
330
1F
100
AcDbEntity
  8
0
  6
Continuous
 62
     7
370
    15
100
AcDbLine
 10
234.7885046356
 20
88.4063533835
 30
0.0
 11
231.9883323021
 21
85.6732993427
 31
0.0
  0
LINE
  5
476
330
1F
100
AcDbEntity
  8
0
  6
Continuous
 62
     7
370
    15
100
AcDbLine
 10
231.8483236854
 20
85.5366466407
 30
0.0
 11
226.5418149553
 21
86.9788420088
 31
0.0
  0
LINE
  5
477
330
1F
100
AcDbEntity
  8
0
  6
Continuous
 62
     7
370
    15
100
AcDbLine
 10
226.5418149553
 20
86.9788420088
 30
0.0
 11
223.7416426217
 21
84.245787968
 31
0.0
  0
LINE
  5
478
330
1F
100
AcDbEntity
  8
0
  6
Continuous
 62
     7
370
    15
100
AcDbLine
 10
229.0481513518
 20
82.8035925999
 30
0.0
 11
223.7416426217
 21
84.245787968
 31
0.0
  0
LINE
  5
479
330
1F
100
AcDbEntity
  8
0
  6
Continuous
 62
     7
370
    15
100
AcDbLine
 10
231.8483236854
 20
85.5366466407
 30
0.0
 11
229.0481513518
 21
82.8035925999
 31
0.0
  0
LINE
  5
47A
330
1F
100
AcDbEntity
  8
0
  6
Continuous
 62
     7
370
    15
100
AcDbLine
 10
228.9081427351
 20
82.6669398978
 30
0.0
 11
223.6016340051
 21
84.1091352659
 31
0.0
  0
LINE
  5
47B
330
1F
100
AcDbEntity
  8
0
  6
Continuous
 62
     7
370
    15
100
AcDbLine
 10
223.6016340051
 20
84.1091352659
 30
0.0
 11
220.8014616715
 21
81.3760812251
 31
0.0
  0
LINE
  5
47C
330
1F
100
AcDbEntity
  8
0
  6
Continuous
 62
     7
370
    15
100
AcDbLine
 10
226.1079704015
 20
79.933885857
 30
0.0
 11
220.8014616715
 21
81.3760812251
 31
0.0
  0
LINE
  5
47D
330
1F
100
AcDbEntity
  8
0
  6
Continuous
 62
     7
370
    15
100
AcDbLine
 10
228.9081427351
 20
82.6669398978
 30
0.0
 11
226.1079704015
 21
79.933885857
 31
0.0
  0
LINE
  5
47E
330
1F
100
AcDbEntity
  8
0
  6
Continuous
 62
     7
370
    15
100
AcDbLine
 10
225.9679617849
 20
79.7972331549
 30
0.0
 11
220.6614530548
 21
81.239428523
 31
0.0
  0
LINE
  5
47F
330
1F
100
AcDbEntity
  8
0
  6
Continuous
 62
     7
370
    15
100
AcDbLine
 10
220.6614530548
 20
81.239428523
 30
0.0
 11
217.8612807212
 21
78.5063744822
 31
0.0
  0
LINE
  5
480
330
1F
100
AcDbEntity
  8
0
  6
Continuous
 62
     7
370
    15
100
AcDbLine
 10
223.1677894513
 20
77.0641791141
 30
0.0
 11
217.8612807212
 21
78.5063744822
 31
0.0
  0
LINE
  5
481
330
1F
100
AcDbEntity
  8
0
  6
Continuous
 62
     7
370
    15
100
AcDbLine
 10
225.9679617849
 20
79.7972331549
 30
0.0
 11
223.1677894513
 21
77.0641791141
 31
0.0
  0
LINE
  5
482
330
1F
100
AcDbEntity
  8
0
  6
Continuous
 62
     7
370
    15
100
AcDbLine
 10
223.0277808346
 20
76.9275264121
 30
0.0
 11
217.7212721045
 21
78.3697217802
 31
0.0
  0
LINE
  5
483
330
1F
100
AcDbEntity
  8
0
  6
Continuous
 62
     7
370
    15
100
AcDbLine
 10
217.7212721045
 20
78.3697217802
 30
0.0
 11
214.921099771
 21
75.6366677394
 31
0.0
  0
LINE
  5
484
330
1F
100
AcDbEntity
  8
0
  6
Continuous
 62
     7
370
    15
100
AcDbLine
 10
220.227608501
 20
74.1944723712
 30
0.0
 11
214.921099771
 21
75.6366677394
 31
0.0
  0
LINE
  5
485
330
1F
100
AcDbEntity
  8
0
  6
Continuous
 62
     7
370
    15
100
AcDbLine
 10
223.0277808346
 20
76.9275264121
 30
0.0
 11
220.227608501
 21
74.1944723712
 31
0.0
  0
LINE
  5
486
330
1F
100
AcDbEntity
  8
0
  6
Continuous
 62
     7
370
    15
100
AcDbLine
 10
220.0875998843
 20
74.0578196692
 30
0.0
 11
214.7810911543
 21
75.5000150373
 31
0.0
  0
LINE
  5
487
330
1F
100
AcDbEntity
  8
0
  6
Continuous
 62
     7
370
    15
100
AcDbLine
 10
214.7810911543
 20
75.5000150373
 30
0.0
 11
211.9809188207
 21
72.7669609965
 31
0.0
  0
LINE
  5
488
330
1F
100
AcDbEntity
  8
0
  6
Continuous
 62
     7
370
    15
100
AcDbLine
 10
217.2874275508
 20
71.3247656284
 30
0.0
 11
211.9809188207
 21
72.7669609965
 31
0.0
  0
LINE
  5
489
330
1F
100
AcDbEntity
  8
0
  6
Continuous
 62
     7
370
    15
100
AcDbLine
 10
220.0875998843
 20
74.0578196692
 30
0.0
 11
217.2874275508
 21
71.3247656284
 31
0.0
  0
LINE
  5
48A
330
1F
100
AcDbEntity
  8
0
  6
Continuous
 62
     7
370
    15
100
AcDbLine
 10
217.1474189341
 20
71.1881129263
 30
0.0
 11
211.840910204
 21
72.6303082944
 31
0.0
  0
LINE
  5
48B
330
1F
100
AcDbEntity
  8
0
  6
Continuous
 62
     7
370
    15
100
AcDbLine
 10
211.840910204
 20
72.6303082944
 30
0.0
 11
209.1574117177
 21
70.0111315053
 31
0.0
  0
LINE
  5
48C
330
1F
100
AcDbEntity
  8
0
  6
Continuous
 62
     7
370
    15
100
AcDbLine
 10
214.4639204477
 20
68.5689361372
 30
0.0
 11
209.1574117177
 21
70.0111315053
 31
0.0
  0
LINE
  5
48D
330
1F
100
AcDbEntity
  8
0
  6
Continuous
 62
     7
370
    15
100
AcDbLine
 10
217.1474189341
 20
71.1881129263
 30
0.0
 11
214.4639204477
 21
68.5689361372
 31
0.0
  0
LINE
  5
48E
330
1F
100
AcDbEntity
  8
0
  6
Continuous
 62
     7
370
    15
100
AcDbLine
 10
252.0326207911
 20
98.394911808
 30
0.0
 11
246.726112061
 21
99.8371071761
 31
0.0
  0
LINE
  5
48F
330
1F
100
AcDbEntity
  8
0
  6
Continuous
 62
     7
370
    15
100
AcDbLine
 10
246.726112061
 20
99.8371071761
 30
0.0
 11
243.9259397274
 21
97.1040531352
 31
0.0
  0
LINE
  5
490
330
1F
100
AcDbEntity
  8
0
  6
Continuous
 62
     7
370
    15
100
AcDbLine
 10
249.2324484575
 20
95.6618577671
 30
0.0
 11
243.9259397274
 21
97.1040531352
 31
0.0
  0
LINE
  5
491
330
1F
100
AcDbEntity
  8
0
  6
Continuous
 62
     7
370
    15
100
AcDbLine
 10
252.0326207911
 20
98.394911808
 30
0.0
 11
249.2324484575
 21
95.6618577671
 31
0.0
  0
LINE
  5
492
330
1F
100
AcDbEntity
  8
0
  6
Continuous
 62
     7
370
    15
100
AcDbLine
 10
249.0924398408
 20
95.5252050651
 30
0.0
 11
243.7859311108
 21
96.9674004332
 31
0.0
  0
LINE
  5
493
330
1F
100
AcDbEntity
  8
0
  6
Continuous
 62
     7
370
    15
100
AcDbLine
 10
243.7859311108
 20
96.9674004332
 30
0.0
 11
240.9857587772
 21
94.2343463924
 31
0.0
  0
LINE
  5
494
330
1F
100
AcDbEntity
  8
0
  6
Continuous
 62
     7
370
    15
100
AcDbLine
 10
246.2922675072
 20
92.7921510243
 30
0.0
 11
240.9857587772
 21
94.2343463924
 31
0.0
  0
LINE
  5
495
330
1F
100
AcDbEntity
  8
0
  6
Continuous
 62
     7
370
    15
100
AcDbLine
 10
249.0924398408
 20
95.5252050651
 30
0.0
 11
246.2922675072
 21
92.7921510243
 31
0.0
  0
LINE
  5
496
330
1F
100
AcDbEntity
  8
0
  6
Continuous
 62
     7
370
    15
100
AcDbLine
 10
246.1522588906
 20
92.6554983222
 30
0.0
 11
240.8457501605
 21
94.0976936903
 31
0.0
  0
LINE
  5
497
330
1F
100
AcDbEntity
  8
0
  6
Continuous
 62
     7
370
    15
100
AcDbLine
 10
240.8457501605
 20
94.0976936903
 30
0.0
 11
238.0455778269
 21
91.3646396495
 31
0.0
  0
LINE
  5
498
330
1F
100
AcDbEntity
  8
0
  6
Continuous
 62
     7
370
    15
100
AcDbLine
 10
243.352086557
 20
89.9224442814
 30
0.0
 11
238.0455778269
 21
91.3646396495
 31
0.0
  0
LINE
  5
499
330
1F
100
AcDbEntity
  8
0
  6
Continuous
 62
     7
370
    15
100
AcDbLine
 10
246.1522588906
 20
92.6554983222
 30
0.0
 11
243.352086557
 21
89.9224442814
 31
0.0
  0
LINE
  5
49A
330
1F
100
AcDbEntity
  8
0
  6
Continuous
 62
     7
370
    15
100
AcDbLine
 10
243.2120779403
 20
89.7857915794
 30
0.0
 11
237.9055692102
 21
91.2279869475
 31
0.0
  0
LINE
  5
49B
330
1F
100
AcDbEntity
  8
0
  6
Continuous
 62
     7
370
    15
100
AcDbLine
 10
237.9055692102
 20
91.2279869475
 30
0.0
 11
235.1053968767
 21
88.4949329066
 31
0.0
  0
LINE
  5
49C
330
1F
100
AcDbEntity
  8
0
  6
Continuous
 62
     7
370
    15
100
AcDbLine
 10
240.4119056067
 20
87.0527375385
 30
0.0
 11
235.1053968767
 21
88.4949329066
 31
0.0
  0
LINE
  5
49D
330
1F
100
AcDbEntity
  8
0
  6
Continuous
 62
     7
370
    15
100
AcDbLine
 10
243.2120779403
 20
89.7857915794
 30
0.0
 11
240.4119056067
 21
87.0527375385
 31
0.0
  0
LINE
  5
49E
330
1F
100
AcDbEntity
  8
0
  6
Continuous
 62
     7
370
    15
100
AcDbLine
 10
240.27189699
 20
86.9160848365
 30
0.0
 11
234.96538826
 21
88.3582802046
 31
0.0
  0
LINE
  5
49F
330
1F
100
AcDbEntity
  8
0
  6
Continuous
 62
     7
370
    15
100
AcDbLine
 10
234.96538826
 20
88.3582802046
 30
0.0
 11
232.1652159264
 21
85.6252261638
 31
0.0
  0
LINE
  5
4A0
330
1F
100
AcDbEntity
  8
0
  6
Continuous
 62
     7
370
    15
100
AcDbLine
 10
237.4717246565
 20
84.1830307957
 30
0.0
 11
232.1652159264
 21
85.6252261638
 31
0.0
  0
LINE
  5
4A1
330
1F
100
AcDbEntity
  8
0
  6
Continuous
 62
     7
370
    15
100
AcDbLine
 10
240.27189699
 20
86.9160848365
 30
0.0
 11
237.4717246565
 21
84.1830307957
 31
0.0
  0
LINE
  5
4A2
330
1F
100
AcDbEntity
  8
0
  6
Continuous
 62
     7
370
    15
100
AcDbLine
 10
237.3317160398
 20
84.0463780936
 30
0.0
 11
232.0252073097
 21
85.4885734617
 31
0.0
  0
LINE
  5
4A3
330
1F
100
AcDbEntity
  8
0
  6
Continuous
 62
     7
370
    15
100
AcDbLine
 10
232.0252073097
 20
85.4885734617
 30
0.0
 11
229.2250349761
 21
82.7555194209
 31
0.0
  0
LINE
  5
4A4
330
1F
100
AcDbEntity
  8
0
  6
Continuous
 62
     7
370
    15
100
AcDbLine
 10
234.5315437062
 20
81.3133240528
 30
0.0
 11
229.2250349761
 21
82.7555194209
 31
0.0
  0
LINE
  5
4A5
330
1F
100
AcDbEntity
  8
0
  6
Continuous
 62
     7
370
    15
100
AcDbLine
 10
237.3317160398
 20
84.0463780936
 30
0.0
 11
234.5315437062
 21
81.3133240528
 31
0.0
  0
LINE
  5
4A6
330
1F
100
AcDbEntity
  8
0
  6
Continuous
 62
     7
370
    15
100
AcDbLine
 10
234.3915350895
 20
81.1766713508
 30
0.0
 11
229.0850263595
 21
82.6188667189
 31
0.0
  0
LINE
  5
4A7
330
1F
100
AcDbEntity
  8
0
  6
Continuous
 62
     7
370
    15
100
AcDbLine
 10
229.0850263595
 20
82.6188667189
 30
0.0
 11
226.2848540259
 21
79.885812678
 31
0.0
  0
LINE
  5
4A8
330
1F
100
AcDbEntity
  8
0
  6
Continuous
 62
     7
370
    15
100
AcDbLine
 10
231.5913627559
 20
78.4436173099
 30
0.0
 11
226.2848540259
 21
79.885812678
 31
0.0
  0
LINE
  5
4A9
330
1F
100
AcDbEntity
  8
0
  6
Continuous
 62
     7
370
    15
100
AcDbLine
 10
234.3915350895
 20
81.1766713508
 30
0.0
 11
231.5913627559
 21
78.4436173099
 31
0.0
  0
LINE
  5
4AA
330
1F
100
AcDbEntity
  8
0
  6
Continuous
 62
     7
370
    15
100
AcDbLine
 10
231.4513541393
 20
78.3069646079
 30
0.0
 11
226.1448454092
 21
79.749159976
 31
0.0
  0
LINE
  5
4AB
330
1F
100
AcDbEntity
  8
0
  6
Continuous
 62
     7
370
    15
100
AcDbLine
 10
226.1448454092
 20
79.749159976
 30
0.0
 11
223.3446730756
 21
77.0161059352
 31
0.0
  0
LINE
  5
4AC
330
1F
100
AcDbEntity
  8
0
  6
Continuous
 62
     7
370
    15
100
AcDbLine
 10
228.6511818057
 20
75.5739105671
 30
0.0
 11
223.3446730756
 21
77.0161059352
 31
0.0
  0
LINE
  5
4AD
330
1F
100
AcDbEntity
  8
0
  6
Continuous
 62
     7
370
    15
100
AcDbLine
 10
231.4513541393
 20
78.3069646079
 30
0.0
 11
228.6511818057
 21
75.5739105671
 31
0.0
  0
LINE
  5
4AE
330
1F
100
AcDbEntity
  8
0
  6
Continuous
 62
     7
370
    15
100
AcDbLine
 10
228.511173189
 20
75.437257865
 30
0.0
 11
223.2046644589
 21
76.8794532331
 31
0.0
  0
LINE
  5
4AF
330
1F
100
AcDbEntity
  8
0
  6
Continuous
 62
     7
370
    15
100
AcDbLine
 10
223.2046644589
 20
76.8794532331
 30
0.0
 11
220.4044921254
 21
74.1463991923
 31
0.0
  0
LINE
  5
4B0
330
1F
100
AcDbEntity
  8
0
  6
Continuous
 62
     7
370
    15
100
AcDbLine
 10
225.7110008554
 20
72.7042038242
 30
0.0
 11
220.4044921254
 21
74.1463991923
 31
0.0
  0
LINE
  5
4B1
330
1F
100
AcDbEntity
  8
0
  6
Continuous
 62
     7
370
    15
100
AcDbLine
 10
228.511173189
 20
75.437257865
 30
0.0
 11
225.7110008554
 21
72.7042038242
 31
0.0
  0
LINE
  5
4B2
330
1F
100
AcDbEntity
  8
0
  6
Continuous
 62
     7
370
    15
100
AcDbLine
 10
225.5709922387
 20
72.5675511222
 30
0.0
 11
220.2644835087
 21
74.0097464903
 31
0.0
  0
LINE
  5
4B3
330
1F
100
AcDbEntity
  8
0
  6
Continuous
 62
     7
370
    15
100
AcDbLine
 10
220.2644835087
 20
74.0097464903
 30
0.0
 11
217.4643111751
 21
71.2766924494
 31
0.0
  0
LINE
  5
4B4
330
1F
100
AcDbEntity
  8
0
  6
Continuous
 62
     7
370
    15
100
AcDbLine
 10
222.7708199052
 20
69.8344970813
 30
0.0
 11
217.4643111751
 21
71.2766924494
 31
0.0
  0
LINE
  5
4B5
330
1F
100
AcDbEntity
  8
0
  6
Continuous
 62
     7
370
    15
100
AcDbLine
 10
225.5709922387
 20
72.5675511222
 30
0.0
 11
222.7708199052
 21
69.8344970813
 31
0.0
  0
LINE
  5
4B6
330
1F
100
AcDbEntity
  8
0
  6
Continuous
 62
     7
370
    15
100
AcDbLine
 10
222.6308112885
 20
69.6978443793
 30
0.0
 11
217.3243025584
 21
71.1400397474
 31
0.0
  0
LINE
  5
4B7
330
1F
100
AcDbEntity
  8
0
  6
Continuous
 62
     7
370
    15
100
AcDbLine
 10
217.3243025584
 20
71.1400397474
 30
0.0
 11
214.6408040721
 21
68.5208629583
 31
0.0
  0
LINE
  5
4B8
330
1F
100
AcDbEntity
  8
0
  6
Continuous
 62
     7
370
    15
100
AcDbLine
 10
219.9473128021
 20
67.0786675902
 30
0.0
 11
214.6408040721
 21
68.5208629583
 31
0.0
  0
LINE
  5
4B9
330
1F
100
AcDbEntity
  8
0
  6
Continuous
 62
     7
370
    15
100
AcDbLine
 10
222.6308112885
 20
69.6978443793
 30
0.0
 11
219.9473128021
 21
67.0786675902
 31
0.0
  0
LINE
  5
4BA
330
1F
100
AcDbEntity
  8
0
  6
Continuous
 62
     7
370
    15
100
AcDbLine
 10
249.549619164
 20
102.5929366672
 30
0.0
 11
246.8661206777
 21
99.9737598781
 31
0.0
  0
LINE
  5
4BB
330
1F
100
AcDbEntity
  8
0
  6
Continuous
 62
     7
370
    15
100
AcDbLine
 10
252.1726294078
 20
98.53156451
 30
0.0
 11
246.8661206777
 21
99.9737598781
 31
0.0
  0
LINE
  5
4BC
330
1F
100
AcDbEntity
  8
0
  6
Continuous
 62
     7
370
    15
100
AcDbLine
 10
254.8561278941
 20
101.1507412991
 30
0.0
 11
252.1726294078
 21
98.53156451
 31
0.0
  0
LINE
  5
4BD
330
1F
100
AcDbEntity
  8
0
  6
Continuous
 62
     7
370
    15
100
AcDbLine
 10
249.549619164
 20
102.5929366672
 30
0.0
 11
254.8561278941
 21
101.1507412991
 31
0.0
  0
LINE
  5
4BE
330
1F
100
AcDbEntity
  8
0
  6
Continuous
 62
     7
370
    15
100
AcDbLine
 10
255.0330115184
 20
101.1026681202
 30
0.0
 11
252.3495130321
 21
98.4834913311
 31
0.0
  0
LINE
  5
4BF
330
1F
100
AcDbEntity
  8
0
  6
Continuous
 62
     7
370
    15
100
AcDbLine
 10
257.6560217622
 20
97.041295963
 30
0.0
 11
252.3495130321
 21
98.4834913311
 31
0.0
  0
LINE
  5
4C0
330
1F
100
AcDbEntity
  8
0
  6
Continuous
 62
     7
370
    15
100
AcDbLine
 10
260.3395202485
 20
99.6604727521
 30
0.0
 11
257.6560217622
 21
97.041295963
 31
0.0
  0
LINE
  5
4C1
330
1F
100
AcDbEntity
  8
0
  6
Continuous
 62
     7
370
    15
100
AcDbLine
 10
255.0330115184
 20
101.1026681202
 30
0.0
 11
260.3395202485
 21
99.6604727521
 31
0.0
  0
LINE
  5
4C2
330
1F
100
AcDbEntity
  8
0
  6
Continuous
 62
     7
370
    15
100
AcDbLine
 10
257.5160131455
 20
96.9046432609
 30
0.0
 11
252.2095044154
 21
98.346838629
 31
0.0
  0
LINE
  5
4C3
330
1F
100
AcDbEntity
  8
0
  6
Continuous
 62
     7
370
    15
100
AcDbLine
 10
252.2095044154
 20
98.346838629
 30
0.0
 11
249.4093320818
 21
95.6137845882
 31
0.0
  0
LINE
  5
4C4
330
1F
100
AcDbEntity
  8
0
  6
Continuous
 62
     7
370
    15
100
AcDbLine
 10
254.7158408119
 20
94.1715892201
 30
0.0
 11
249.4093320818
 21
95.6137845882
 31
0.0
  0
LINE
  5
4C5
330
1F
100
AcDbEntity
  8
0
  6
Continuous
 62
     7
370
    15
100
AcDbLine
 10
257.5160131455
 20
96.9046432609
 30
0.0
 11
254.7158408119
 21
94.1715892201
 31
0.0
  0
LINE
  5
4C6
330
1F
100
AcDbEntity
  8
0
  6
Continuous
 62
     7
370
    15
100
AcDbLine
 10
254.5758321952
 20
94.0349365181
 30
0.0
 11
249.2693234652
 21
95.4771318862
 31
0.0
  0
LINE
  5
4C7
330
1F
100
AcDbEntity
  8
0
  6
Continuous
 62
     7
370
    15
100
AcDbLine
 10
249.2693234652
 20
95.4771318862
 30
0.0
 11
246.4691511316
 21
92.7440778453
 31
0.0
  0
LINE
  5
4C8
330
1F
100
AcDbEntity
  8
0
  6
Continuous
 62
     7
370
    15
100
AcDbLine
 10
251.7756598616
 20
91.3018824772
 30
0.0
 11
246.4691511316
 21
92.7440778453
 31
0.0
  0
LINE
  5
4C9
330
1F
100
AcDbEntity
  8
0
  6
Continuous
 62
     7
370
    15
100
AcDbLine
 10
254.5758321952
 20
94.0349365181
 30
0.0
 11
251.7756598616
 21
91.3018824772
 31
0.0
  0
LINE
  5
4CA
330
1F
100
AcDbEntity
  8
0
  6
Continuous
 62
     7
370
    15
100
AcDbLine
 10
251.635651245
 20
91.1652297752
 30
0.0
 11
246.3291425149
 21
92.6074251433
 31
0.0
  0
LINE
  5
4CB
330
1F
100
AcDbEntity
  8
0
  6
Continuous
 62
     7
370
    15
100
AcDbLine
 10
246.3291425149
 20
92.6074251433
 30
0.0
 11
243.5289701813
 21
89.8743711025
 31
0.0
  0
LINE
  5
4CC
330
1F
100
AcDbEntity
  8
0
  6
Continuous
 62
     7
370
    15
100
AcDbLine
 10
248.8354789114
 20
88.4321757344
 30
0.0
 11
243.5289701813
 21
89.8743711025
 31
0.0
  0
LINE
  5
4CD
330
1F
100
AcDbEntity
  8
0
  6
Continuous
 62
     7
370
    15
100
AcDbLine
 10
251.635651245
 20
91.1652297752
 30
0.0
 11
248.8354789114
 21
88.4321757344
 31
0.0
  0
LINE
  5
4CE
330
1F
100
AcDbEntity
  8
0
  6
Continuous
 62
     7
370
    15
100
AcDbLine
 10
248.6954702947
 20
88.2955230323
 30
0.0
 11
243.3889615646
 21
89.7377184004
 31
0.0
  0
LINE
  5
4CF
330
1F
100
AcDbEntity
  8
0
  6
Continuous
 62
     7
370
    15
100
AcDbLine
 10
243.3889615646
 20
89.7377184004
 30
0.0
 11
240.5887892311
 21
87.0046643596
 31
0.0
  0
LINE
  5
4D0
330
1F
100
AcDbEntity
  8
0
  6
Continuous
 62
     7
370
    15
100
AcDbLine
 10
245.8952979611
 20
85.5624689915
 30
0.0
 11
240.5887892311
 21
87.0046643596
 31
0.0
  0
LINE
  5
4D1
330
1F
100
AcDbEntity
  8
0
  6
Continuous
 62
     7
370
    15
100
AcDbLine
 10
248.6954702947
 20
88.2955230323
 30
0.0
 11
245.8952979611
 21
85.5624689915
 31
0.0
  0
LINE
  5
4D2
330
1F
100
AcDbEntity
  8
0
  6
Continuous
 62
     7
370
    15
100
AcDbLine
 10
225.7478758631
 20
72.5194779432
 30
0.0
 11
222.9477035295
 21
69.7864239024
 31
0.0
  0
LINE
  5
4D3
330
1F
100
AcDbEntity
  8
0
  6
Continuous
 62
     7
370
    15
100
AcDbLine
 10
228.2542122596
 20
68.3442285343
 30
0.0
 11
222.9477035295
 21
69.7864239024
 31
0.0
  0
LINE
  5
4D4
330
1F
100
AcDbEntity
  8
0
  6
Continuous
 62
     7
370
    15
100
AcDbLine
 10
231.0543845931
 20
71.0772825751
 30
0.0
 11
228.2542122596
 21
68.3442285343
 31
0.0
  0
LINE
  5
4D5
330
1F
100
AcDbEntity
  8
0
  6
Continuous
 62
     7
370
    15
100
AcDbLine
 10
231.0543845931
 20
71.0772825751
 30
0.0
 11
225.7478758631
 21
72.5194779432
 31
0.0
  0
LINE
  5
4D6
330
1F
100
AcDbEntity
  8
0
  6
Continuous
 62
     7
370
    15
100
AcDbLine
 10
228.6880568133
 20
75.3891846861
 30
0.0
 11
225.8878844798
 21
72.6561306453
 31
0.0
  0
LINE
  5
4D7
330
1F
100
AcDbEntity
  8
0
  6
Continuous
 62
     7
370
    15
100
AcDbLine
 10
231.1943932098
 20
71.2139352772
 30
0.0
 11
225.8878844798
 21
72.6561306453
 31
0.0
  0
LINE
  5
4D8
330
1F
100
AcDbEntity
  8
0
  6
Continuous
 62
     7
370
    15
100
AcDbLine
 10
233.9945655434
 20
73.946989318
 30
0.0
 11
231.1943932098
 21
71.2139352772
 31
0.0
  0
LINE
  5
4D9
330
1F
100
AcDbEntity
  8
0
  6
Continuous
 62
     7
370
    15
100
AcDbLine
 10
233.9945655434
 20
73.946989318
 30
0.0
 11
228.6880568133
 21
75.3891846861
 31
0.0
  0
LINE
  5
4DA
330
1F
100
AcDbEntity
  8
0
  6
Continuous
 62
     7
370
    15
100
AcDbLine
 10
231.6282377636
 20
78.258891429
 30
0.0
 11
228.82806543
 21
75.5258373881
 31
0.0
  0
LINE
  5
4DB
330
1F
100
AcDbEntity
  8
0
  6
Continuous
 62
     7
370
    15
100
AcDbLine
 10
234.1345741601
 20
74.08364202
 30
0.0
 11
228.82806543
 21
75.5258373881
 31
0.0
  0
LINE
  5
4DC
330
1F
100
AcDbEntity
  8
0
  6
Continuous
 62
     7
370
    15
100
AcDbLine
 10
236.9347464937
 20
76.8166960609
 30
0.0
 11
234.1345741601
 21
74.08364202
 31
0.0
  0
LINE
  5
4DD
330
1F
100
AcDbEntity
  8
0
  6
Continuous
 62
     7
370
    15
100
AcDbLine
 10
236.9347464937
 20
76.8166960609
 30
0.0
 11
231.6282377636
 21
78.258891429
 31
0.0
  0
LINE
  5
4DE
330
1F
100
AcDbEntity
  8
0
  6
Continuous
 62
     7
370
    15
100
AcDbLine
 10
234.5684187139
 20
81.1285981718
 30
0.0
 11
231.7682463803
 21
78.395544131
 31
0.0
  0
LINE
  5
4DF
330
1F
100
AcDbEntity
  8
0
  6
Continuous
 62
     7
370
    15
100
AcDbLine
 10
237.0747551103
 20
76.9533487629
 30
0.0
 11
231.7682463803
 21
78.395544131
 31
0.0
  0
LINE
  5
4E0
330
1F
100
AcDbEntity
  8
0
  6
Continuous
 62
     7
370
    15
100
AcDbLine
 10
239.8749274439
 20
79.6864028037
 30
0.0
 11
237.0747551103
 21
76.9533487629
 31
0.0
  0
LINE
  5
4E1
330
1F
100
AcDbEntity
  8
0
  6
Continuous
 62
     7
370
    15
100
AcDbLine
 10
239.8749274439
 20
79.6864028037
 30
0.0
 11
234.5684187139
 21
81.1285981718
 31
0.0
  0
LINE
  5
4E2
330
1F
100
AcDbEntity
  8
0
  6
Continuous
 62
     7
370
    15
100
AcDbLine
 10
237.5085996641
 20
83.9983049147
 30
0.0
 11
234.7084273305
 21
81.2652508739
 31
0.0
  0
LINE
  5
4E3
330
1F
100
AcDbEntity
  8
0
  6
Continuous
 62
     7
370
    15
100
AcDbLine
 10
240.0149360606
 20
79.8230555058
 30
0.0
 11
234.7084273305
 21
81.2652508739
 31
0.0
  0
LINE
  5
4E4
330
1F
100
AcDbEntity
  8
0
  6
Continuous
 62
     7
370
    15
100
AcDbLine
 10
242.8151083942
 20
82.5561095466
 30
0.0
 11
240.0149360606
 21
79.8230555058
 31
0.0
  0
LINE
  5
4E5
330
1F
100
AcDbEntity
  8
0
  6
Continuous
 62
     7
370
    15
100
AcDbLine
 10
242.8151083942
 20
82.5561095466
 30
0.0
 11
237.5085996641
 21
83.9983049147
 31
0.0
  0
LINE
  5
4E6
330
1F
100
AcDbEntity
  8
0
  6
Continuous
 62
     7
370
    15
100
AcDbLine
 10
245.7552893444
 20
85.4258162895
 30
0.0
 11
240.4487806144
 21
86.8680116576
 31
0.0
  0
LINE
  5
4E7
330
1F
100
AcDbEntity
  8
0
  6
Continuous
 62
     7
370
    15
100
AcDbLine
 10
240.4487806144
 20
86.8680116576
 30
0.0
 11
237.6486082808
 21
84.1349576167
 31
0.0
  0
LINE
  5
4E8
330
1F
100
AcDbEntity
  8
0
  6
Continuous
 62
     7
370
    15
100
AcDbLine
 10
242.9551170109
 20
82.6927622486
 30
0.0
 11
237.6486082808
 21
84.1349576167
 31
0.0
  0
LINE
  5
4E9
330
1F
100
AcDbEntity
  8
0
  6
Continuous
 62
     7
370
    15
100
AcDbLine
 10
245.7552893444
 20
85.4258162895
 30
0.0
 11
242.9551170109
 21
82.6927622486
 31
0.0
  0
LINE
  5
4EA
330
1F
100
AcDbEntity
  8
0
  6
Continuous
 62
     7
370
    15
100
AcDbLine
 10
228.1142036429
 20
68.2075758323
 30
0.0
 11
222.8076949128
 21
69.6497712004
 31
0.0
  0
LINE
  5
4EB
330
1F
100
AcDbEntity
  8
0
  6
Continuous
 62
     7
370
    15
100
AcDbLine
 10
222.8076949128
 20
69.6497712004
 30
0.0
 11
220.1241964265
 21
67.0305944112
 31
0.0
  0
LINE
  5
4EC
330
1F
100
AcDbEntity
  8
0
  6
Continuous
 62
     7
370
    15
100
AcDbLine
 10
225.4307051565
 20
65.5883990431
 30
0.0
 11
220.1241964265
 21
67.0305944112
 31
0.0
  0
LINE
  5
4ED
330
1F
100
AcDbEntity
  8
0
  6
Continuous
 62
     7
370
    15
100
AcDbLine
 10
228.1142036429
 20
68.2075758323
 30
0.0
 11
225.4307051565
 21
65.5883990431
 31
0.0
  0
LINE
  5
4EE
330
1F
100
AcDbEntity
  8
0
  6
Continuous
 62
     7
370
    15
100
AcDbLine
 10
260.5164038728
 20
99.6123995732
 30
0.0
 11
257.8329053865
 21
96.993222784
 31
0.0
  0
LINE
  5
4EF
330
1F
100
AcDbEntity
  8
0
  6
Continuous
 62
     7
370
    15
100
AcDbLine
 10
263.1394141166
 20
95.5510274159
 30
0.0
 11
257.8329053865
 21
96.993222784
 31
0.0
  0
LINE
  5
4F0
330
1F
100
AcDbEntity
  8
0
  6
Continuous
 62
     7
370
    15
100
AcDbLine
 10
265.8229126029
 20
98.1702042051
 30
0.0
 11
263.1394141166
 21
95.5510274159
 31
0.0
  0
LINE
  5
4F1
330
1F
100
AcDbEntity
  8
0
  6
Continuous
 62
     7
370
    15
100
AcDbLine
 10
260.5164038728
 20
99.6123995732
 30
0.0
 11
265.8229126029
 21
98.1702042051
 31
0.0
  0
LINE
  5
4F2
330
1F
100
AcDbEntity
  8
0
  6
Continuous
 62
     7
370
    15
100
AcDbLine
 10
262.9994054999
 20
95.4143747139
 30
0.0
 11
257.6928967698
 21
96.856570082
 31
0.0
  0
LINE
  5
4F3
330
1F
100
AcDbEntity
  8
0
  6
Continuous
 62
     7
370
    15
100
AcDbLine
 10
257.6928967698
 20
96.856570082
 30
0.0
 11
254.8927244362
 21
94.1235160412
 31
0.0
  0
LINE
  5
4F4
330
1F
100
AcDbEntity
  8
0
  6
Continuous
 62
     7
370
    15
100
AcDbLine
 10
260.1992331663
 20
92.6813206731
 30
0.0
 11
254.8927244362
 21
94.1235160412
 31
0.0
  0
LINE
  5
4F5
330
1F
100
AcDbEntity
  8
0
  6
Continuous
 62
     7
370
    15
100
AcDbLine
 10
262.9994054999
 20
95.4143747139
 30
0.0
 11
260.1992331663
 21
92.6813206731
 31
0.0
  0
LINE
  5
4F6
330
1F
100
AcDbEntity
  8
0
  6
Continuous
 62
     7
370
    15
100
AcDbLine
 10
260.0592245496
 20
92.544667971
 30
0.0
 11
254.7527158196
 21
93.9868633391
 31
0.0
  0
LINE
  5
4F7
330
1F
100
AcDbEntity
  8
0
  6
Continuous
 62
     7
370
    15
100
AcDbLine
 10
254.7527158196
 20
93.9868633391
 30
0.0
 11
251.952543486
 21
91.2538092983
 31
0.0
  0
LINE
  5
4F8
330
1F
100
AcDbEntity
  8
0
  6
Continuous
 62
     7
370
    15
100
AcDbLine
 10
257.259052216
 20
89.8116139302
 30
0.0
 11
251.952543486
 21
91.2538092983
 31
0.0
  0
LINE
  5
4F9
330
1F
100
AcDbEntity
  8
0
  6
Continuous
 62
     7
370
    15
100
AcDbLine
 10
260.0592245496
 20
92.544667971
 30
0.0
 11
257.259052216
 21
89.8116139302
 31
0.0
  0
LINE
  5
4FA
330
1F
100
AcDbEntity
  8
0
  6
Continuous
 62
     7
370
    15
100
AcDbLine
 10
257.1190435994
 20
89.6749612282
 30
0.0
 11
251.8125348693
 21
91.1171565963
 31
0.0
  0
LINE
  5
4FB
330
1F
100
AcDbEntity
  8
0
  6
Continuous
 62
     7
370
    15
100
AcDbLine
 10
251.8125348693
 20
91.1171565963
 30
0.0
 11
249.0123625357
 21
88.3841025554
 31
0.0
  0
LINE
  5
4FC
330
1F
100
AcDbEntity
  8
0
  6
Continuous
 62
     7
370
    15
100
AcDbLine
 10
254.3188712658
 20
86.9419071873
 30
0.0
 11
249.0123625357
 21
88.3841025554
 31
0.0
  0
LINE
  5
4FD
330
1F
100
AcDbEntity
  8
0
  6
Continuous
 62
     7
370
    15
100
AcDbLine
 10
257.1190435994
 20
89.6749612282
 30
0.0
 11
254.3188712658
 21
86.9419071873
 31
0.0
  0
LINE
  5
4FE
330
1F
100
AcDbEntity
  8
0
  6
Continuous
 62
     7
370
    15
100
AcDbLine
 10
254.1788626491
 20
86.8052544853
 30
0.0
 11
248.872353919
 21
88.2474498534
 31
0.0
  0
LINE
  5
4FF
330
1F
100
AcDbEntity
  8
0
  6
Continuous
 62
     7
370
    15
100
AcDbLine
 10
248.872353919
 20
88.2474498534
 30
0.0
 11
246.0721815855
 21
85.5143958126
 31
0.0
  0
LINE
  5
500
330
1F
100
AcDbEntity
  8
0
  6
Continuous
 62
     7
370
    15
100
AcDbLine
 10
251.3786903155
 20
84.0722004445
 30
0.0
 11
246.0721815855
 21
85.5143958126
 31
0.0
  0
LINE
  5
501
330
1F
100
AcDbEntity
  8
0
  6
Continuous
 62
     7
370
    15
100
AcDbLine
 10
254.1788626491
 20
86.8052544853
 30
0.0
 11
251.3786903155
 21
84.0722004445
 31
0.0
  0
LINE
  5
502
330
1F
100
AcDbEntity
  8
0
  6
Continuous
 62
     7
370
    15
100
AcDbLine
 10
231.2312682175
 20
71.0292093962
 30
0.0
 11
228.4310958839
 21
68.2961553554
 31
0.0
  0
LINE
  5
503
330
1F
100
AcDbEntity
  8
0
  6
Continuous
 62
     7
370
    15
100
AcDbLine
 10
233.737604614
 20
66.8539599873
 30
0.0
 11
228.4310958839
 21
68.2961553554
 31
0.0
  0
LINE
  5
504
330
1F
100
AcDbEntity
  8
0
  6
Continuous
 62
     7
370
    15
100
AcDbLine
 10
236.5377769475
 20
69.5870140281
 30
0.0
 11
233.737604614
 21
66.8539599873
 31
0.0
  0
LINE
  5
505
330
1F
100
AcDbEntity
  8
0
  6
Continuous
 62
     7
370
    15
100
AcDbLine
 10
236.5377769475
 20
69.5870140281
 30
0.0
 11
231.2312682175
 21
71.0292093962
 31
0.0
  0
LINE
  5
506
330
1F
100
AcDbEntity
  8
0
  6
Continuous
 62
     7
370
    15
100
AcDbLine
 10
234.1714491677
 20
73.8989161391
 30
0.0
 11
231.3712768342
 21
71.1658620982
 31
0.0
  0
LINE
  5
507
330
1F
100
AcDbEntity
  8
0
  6
Continuous
 62
     7
370
    15
100
AcDbLine
 10
236.6777855642
 20
69.7236667301
 30
0.0
 11
231.3712768342
 21
71.1658620982
 31
0.0
  0
LINE
  5
508
330
1F
100
AcDbEntity
  8
0
  6
Continuous
 62
     7
370
    15
100
AcDbLine
 10
239.4779578978
 20
72.456720771
 30
0.0
 11
236.6777855642
 21
69.7236667301
 31
0.0
  0
LINE
  5
509
330
1F
100
AcDbEntity
  8
0
  6
Continuous
 62
     7
370
    15
100
AcDbLine
 10
239.4779578978
 20
72.456720771
 30
0.0
 11
234.1714491677
 21
73.8989161391
 31
0.0
  0
LINE
  5
50A
330
1F
100
AcDbEntity
  8
0
  6
Continuous
 62
     7
370
    15
100
AcDbLine
 10
237.111630118
 20
76.7686228819
 30
0.0
 11
234.3114577844
 21
74.0355688411
 31
0.0
  0
LINE
  5
50B
330
1F
100
AcDbEntity
  8
0
  6
Continuous
 62
     7
370
    15
100
AcDbLine
 10
239.6179665145
 20
72.593373473
 30
0.0
 11
234.3114577844
 21
74.0355688411
 31
0.0
  0
LINE
  5
50C
330
1F
100
AcDbEntity
  8
0
  6
Continuous
 62
     7
370
    15
100
AcDbLine
 10
242.4181388481
 20
75.3264275138
 30
0.0
 11
239.6179665145
 21
72.593373473
 31
0.0
  0
LINE
  5
50D
330
1F
100
AcDbEntity
  8
0
  6
Continuous
 62
     7
370
    15
100
AcDbLine
 10
242.4181388481
 20
75.3264275138
 30
0.0
 11
237.111630118
 21
76.7686228819
 31
0.0
  0
LINE
  5
50E
330
1F
100
AcDbEntity
  8
0
  6
Continuous
 62
     7
370
    15
100
AcDbLine
 10
240.0518110683
 20
79.6383296248
 30
0.0
 11
237.2516387347
 21
76.905275584
 31
0.0
  0
LINE
  5
50F
330
1F
100
AcDbEntity
  8
0
  6
Continuous
 62
     7
370
    15
100
AcDbLine
 10
242.5581474647
 20
75.4630802159
 30
0.0
 11
237.2516387347
 21
76.905275584
 31
0.0
  0
LINE
  5
510
330
1F
100
AcDbEntity
  8
0
  6
Continuous
 62
     7
370
    15
100
AcDbLine
 10
245.3583197983
 20
78.1961342567
 30
0.0
 11
242.5581474647
 21
75.4630802159
 31
0.0
  0
LINE
  5
511
330
1F
100
AcDbEntity
  8
0
  6
Continuous
 62
     7
370
    15
100
AcDbLine
 10
245.3583197983
 20
78.1961342567
 30
0.0
 11
240.0518110683
 21
79.6383296248
 31
0.0
  0
LINE
  5
512
330
1F
100
AcDbEntity
  8
0
  6
Continuous
 62
     7
370
    15
100
AcDbLine
 10
242.9919920185
 20
82.5080363677
 30
0.0
 11
240.1918196849
 21
79.7749823268
 31
0.0
  0
LINE
  5
513
330
1F
100
AcDbEntity
  8
0
  6
Continuous
 62
     7
370
    15
100
AcDbLine
 10
245.498328415
 20
78.3327869587
 30
0.0
 11
240.1918196849
 21
79.7749823268
 31
0.0
  0
LINE
  5
514
330
1F
100
AcDbEntity
  8
0
  6
Continuous
 62
     7
370
    15
100
AcDbLine
 10
248.2985007486
 20
81.0658409996
 30
0.0
 11
245.498328415
 21
78.3327869587
 31
0.0
  0
LINE
  5
515
330
1F
100
AcDbEntity
  8
0
  6
Continuous
 62
     7
370
    15
100
AcDbLine
 10
248.2985007486
 20
81.0658409996
 30
0.0
 11
242.9919920185
 21
82.5080363677
 31
0.0
  0
LINE
  5
516
330
1F
100
AcDbEntity
  8
0
  6
Continuous
 62
     7
370
    15
100
AcDbLine
 10
251.2386816988
 20
83.9355477424
 30
0.0
 11
245.9321729688
 21
85.3777431105
 31
0.0
  0
LINE
  5
517
330
1F
100
AcDbEntity
  8
0
  6
Continuous
 62
     7
370
    15
100
AcDbLine
 10
245.9321729688
 20
85.3777431105
 30
0.0
 11
243.1320006352
 21
82.6446890697
 31
0.0
  0
LINE
  5
518
330
1F
100
AcDbEntity
  8
0
  6
Continuous
 62
     7
370
    15
100
AcDbLine
 10
248.4385093653
 20
81.2024937016
 30
0.0
 11
243.1320006352
 21
82.6446890697
 31
0.0
  0
LINE
  5
519
330
1F
100
AcDbEntity
  8
0
  6
Continuous
 62
     7
370
    15
100
AcDbLine
 10
251.2386816988
 20
83.9355477424
 30
0.0
 11
248.4385093653
 21
81.2024937016
 31
0.0
  0
LINE
  5
51A
330
1F
100
AcDbEntity
  8
0
  6
Continuous
 62
     7
370
    15
100
AcDbLine
 10
233.5975959973
 20
66.7173072852
 30
0.0
 11
228.2910872672
 21
68.1595026533
 31
0.0
  0
LINE
  5
51B
330
1F
100
AcDbEntity
  8
0
  6
Continuous
 62
     7
370
    15
100
AcDbLine
 10
228.2910872672
 20
68.1595026533
 30
0.0
 11
225.6075887809
 21
65.5403258642
 31
0.0
  0
LINE
  5
51C
330
1F
100
AcDbEntity
  8
0
  6
Continuous
 62
     7
370
    15
100
AcDbLine
 10
230.9140975109
 20
64.0981304961
 30
0.0
 11
225.6075887809
 21
65.5403258642
 31
0.0
  0
LINE
  5
51D
330
1F
100
AcDbEntity
  8
0
  6
Continuous
 62
     7
370
    15
100
AcDbLine
 10
233.5975959973
 20
66.7173072852
 30
0.0
 11
230.9140975109
 21
64.0981304961
 31
0.0
  0
LINE
  5
51E
330
1F
100
AcDbEntity
  8
0
  6
Continuous
 62
     7
370
    15
100
AcDbLine
 10
265.9997962272
 20
98.1221310261
 30
0.0
 11
263.3162977409
 21
95.502954237
 31
0.0
  0
LINE
  5
51F
330
1F
100
AcDbEntity
  8
0
  6
Continuous
 62
     7
370
    15
100
AcDbLine
 10
268.622806471
 20
94.0607588689
 30
0.0
 11
263.3162977409
 21
95.502954237
 31
0.0
  0
LINE
  5
520
330
1F
100
AcDbEntity
  8
0
  6
Continuous
 62
     7
370
    15
100
AcDbLine
 10
271.3063049573
 20
96.679935658
 30
0.0
 11
268.622806471
 21
94.0607588689
 31
0.0
  0
LINE
  5
521
330
1F
100
AcDbEntity
  8
0
  6
Continuous
 62
     7
370
    15
100
AcDbLine
 10
265.9997962272
 20
98.1221310261
 30
0.0
 11
271.3063049573
 21
96.679935658
 31
0.0
  0
LINE
  5
522
330
1F
100
AcDbEntity
  8
0
  6
Continuous
 62
     7
370
    15
100
AcDbLine
 10
268.4827978543
 20
93.9241061668
 30
0.0
 11
263.1762891242
 21
95.366301535
 31
0.0
  0
LINE
  5
523
330
1F
100
AcDbEntity
  8
0
  6
Continuous
 62
     7
370
    15
100
AcDbLine
 10
263.1762891242
 20
95.366301535
 30
0.0
 11
260.3761167906
 21
92.6332474941
 31
0.0
  0
LINE
  5
524
330
1F
100
AcDbEntity
  8
0
  6
Continuous
 62
     7
370
    15
100
AcDbLine
 10
265.6826255207
 20
91.191052126
 30
0.0
 11
260.3761167906
 21
92.6332474941
 31
0.0
  0
LINE
  5
525
330
1F
100
AcDbEntity
  8
0
  6
Continuous
 62
     7
370
    15
100
AcDbLine
 10
268.4827978543
 20
93.9241061668
 30
0.0
 11
265.6826255207
 21
91.191052126
 31
0.0
  0
LINE
  5
526
330
1F
100
AcDbEntity
  8
0
  6
Continuous
 62
     7
370
    15
100
AcDbLine
 10
265.542616904
 20
91.054399424
 30
0.0
 11
260.236108174
 21
92.4965947921
 31
0.0
  0
LINE
  5
527
330
1F
100
AcDbEntity
  8
0
  6
Continuous
 62
     7
370
    15
100
AcDbLine
 10
260.236108174
 20
92.4965947921
 30
0.0
 11
257.4359358404
 21
89.7635407513
 31
0.0
  0
LINE
  5
528
330
1F
100
AcDbEntity
  8
0
  6
Continuous
 62
     7
370
    15
100
AcDbLine
 10
262.7424445704
 20
88.3213453832
 30
0.0
 11
257.4359358404
 21
89.7635407513
 31
0.0
  0
LINE
  5
529
330
1F
100
AcDbEntity
  8
0
  6
Continuous
 62
     7
370
    15
100
AcDbLine
 10
265.542616904
 20
91.054399424
 30
0.0
 11
262.7424445704
 21
88.3213453832
 31
0.0
  0
LINE
  5
52A
330
1F
100
AcDbEntity
  8
0
  6
Continuous
 62
     7
370
    15
100
AcDbLine
 10
262.6024359538
 20
88.1846926811
 30
0.0
 11
257.2959272237
 21
89.6268880492
 31
0.0
  0
LINE
  5
52B
330
1F
100
AcDbEntity
  8
0
  6
Continuous
 62
     7
370
    15
100
AcDbLine
 10
257.2959272237
 20
89.6268880492
 30
0.0
 11
254.4957548901
 21
86.8938340084
 31
0.0
  0
LINE
  5
52C
330
1F
100
AcDbEntity
  8
0
  6
Continuous
 62
     7
370
    15
100
AcDbLine
 10
259.8022636202
 20
85.4516386403
 30
0.0
 11
254.4957548901
 21
86.8938340084
 31
0.0
  0
LINE
  5
52D
330
1F
100
AcDbEntity
  8
0
  6
Continuous
 62
     7
370
    15
100
AcDbLine
 10
262.6024359538
 20
88.1846926811
 30
0.0
 11
259.8022636202
 21
85.4516386403
 31
0.0
  0
LINE
  5
52E
330
1F
100
AcDbEntity
  8
0
  6
Continuous
 62
     7
370
    15
100
AcDbLine
 10
259.6622550035
 20
85.3149859382
 30
0.0
 11
254.3557462734
 21
86.7571813064
 31
0.0
  0
LINE
  5
52F
330
1F
100
AcDbEntity
  8
0
  6
Continuous
 62
     7
370
    15
100
AcDbLine
 10
254.3557462734
 20
86.7571813064
 30
0.0
 11
251.5555739399
 21
84.0241272655
 31
0.0
  0
LINE
  5
530
330
1F
100
AcDbEntity
  8
0
  6
Continuous
 62
     7
370
    15
100
AcDbLine
 10
256.8620826699
 20
82.5819318974
 30
0.0
 11
251.5555739399
 21
84.0241272655
 31
0.0
  0
LINE
  5
531
330
1F
100
AcDbEntity
  8
0
  6
Continuous
 62
     7
370
    15
100
AcDbLine
 10
259.6622550035
 20
85.3149859382
 30
0.0
 11
256.8620826699
 21
82.5819318974
 31
0.0
  0
LINE
  5
532
330
1F
100
AcDbEntity
  8
0
  6
Continuous
 62
     7
370
    15
100
AcDbLine
 10
236.7146605719
 20
69.5389408492
 30
0.0
 11
233.9144882383
 21
66.8058868083
 31
0.0
  0
LINE
  5
533
330
1F
100
AcDbEntity
  8
0
  6
Continuous
 62
     7
370
    15
100
AcDbLine
 10
239.2209969684
 20
65.3636914402
 30
0.0
 11
233.9144882383
 21
66.8058868083
 31
0.0
  0
LINE
  5
534
330
1F
100
AcDbEntity
  8
0
  6
Continuous
 62
     7
370
    15
100
AcDbLine
 10
242.0211693019
 20
68.096745481
 30
0.0
 11
239.2209969684
 21
65.3636914402
 31
0.0
  0
LINE
  5
535
330
1F
100
AcDbEntity
  8
0
  6
Continuous
 62
     7
370
    15
100
AcDbLine
 10
242.0211693019
 20
68.096745481
 30
0.0
 11
236.7146605719
 21
69.5389408492
 31
0.0
  0
LINE
  5
536
330
1F
100
AcDbEntity
  8
0
  6
Continuous
 62
     7
370
    15
100
AcDbLine
 10
239.6548415221
 20
72.408647592
 30
0.0
 11
236.8546691886
 21
69.6755935512
 31
0.0
  0
LINE
  5
537
330
1F
100
AcDbEntity
  8
0
  6
Continuous
 62
     7
370
    15
100
AcDbLine
 10
242.1611779186
 20
68.2333981831
 30
0.0
 11
236.8546691886
 21
69.6755935512
 31
0.0
  0
LINE
  5
538
330
1F
100
AcDbEntity
  8
0
  6
Continuous
 62
     7
370
    15
100
AcDbLine
 10
244.9613502522
 20
70.9664522239
 30
0.0
 11
242.1611779186
 21
68.2333981831
 31
0.0
  0
LINE
  5
539
330
1F
100
AcDbEntity
  8
0
  6
Continuous
 62
     7
370
    15
100
AcDbLine
 10
244.9613502522
 20
70.9664522239
 30
0.0
 11
239.6548415221
 21
72.408647592
 31
0.0
  0
LINE
  5
53A
330
1F
100
AcDbEntity
  8
0
  6
Continuous
 62
     7
370
    15
100
AcDbLine
 10
242.5950224724
 20
75.2783543349
 30
0.0
 11
239.7948501388
 21
72.5453002941
 31
0.0
  0
LINE
  5
53B
330
1F
100
AcDbEntity
  8
0
  6
Continuous
 62
     7
370
    15
100
AcDbLine
 10
245.1013588689
 20
71.103104926
 30
0.0
 11
239.7948501388
 21
72.5453002941
 31
0.0
  0
LINE
  5
53C
330
1F
100
AcDbEntity
  8
0
  6
Continuous
 62
     7
370
    15
100
AcDbLine
 10
247.9015312025
 20
73.8361589668
 30
0.0
 11
245.1013588689
 21
71.103104926
 31
0.0
  0
LINE
  5
53D
330
1F
100
AcDbEntity
  8
0
  6
Continuous
 62
     7
370
    15
100
AcDbLine
 10
247.9015312025
 20
73.8361589668
 30
0.0
 11
242.5950224724
 21
75.2783543349
 31
0.0
  0
LINE
  5
53E
330
1F
100
AcDbEntity
  8
0
  6
Continuous
 62
     7
370
    15
100
AcDbLine
 10
245.5352034227
 20
78.1480610778
 30
0.0
 11
242.7350310891
 21
75.4150070369
 31
0.0
  0
LINE
  5
53F
330
1F
100
AcDbEntity
  8
0
  6
Continuous
 62
     7
370
    15
100
AcDbLine
 10
248.0415398191
 20
73.9728116688
 30
0.0
 11
242.7350310891
 21
75.4150070369
 31
0.0
  0
LINE
  5
540
330
1F
100
AcDbEntity
  8
0
  6
Continuous
 62
     7
370
    15
100
AcDbLine
 10
250.8417121527
 20
76.7058657096
 30
0.0
 11
248.0415398191
 21
73.9728116688
 31
0.0
  0
LINE
  5
541
330
1F
100
AcDbEntity
  8
0
  6
Continuous
 62
     7
370
    15
100
AcDbLine
 10
250.8417121527
 20
76.7058657096
 30
0.0
 11
245.5352034227
 21
78.1480610778
 31
0.0
  0
LINE
  5
542
330
1F
100
AcDbEntity
  8
0
  6
Continuous
 62
     7
370
    15
100
AcDbLine
 10
248.4753843729
 20
81.0177678206
 30
0.0
 11
245.6752120393
 21
78.2847137798
 31
0.0
  0
LINE
  5
543
330
1F
100
AcDbEntity
  8
0
  6
Continuous
 62
     7
370
    15
100
AcDbLine
 10
250.9817207694
 20
76.8425184117
 30
0.0
 11
245.6752120393
 21
78.2847137798
 31
0.0
  0
LINE
  5
544
330
1F
100
AcDbEntity
  8
0
  6
Continuous
 62
     7
370
    15
100
AcDbLine
 10
253.781893103
 20
79.5755724525
 30
0.0
 11
250.9817207694
 21
76.8425184117
 31
0.0
  0
LINE
  5
545
330
1F
100
AcDbEntity
  8
0
  6
Continuous
 62
     7
370
    15
100
AcDbLine
 10
253.781893103
 20
79.5755724525
 30
0.0
 11
248.4753843729
 21
81.0177678206
 31
0.0
  0
LINE
  5
546
330
1F
100
AcDbEntity
  8
0
  6
Continuous
 62
     7
370
    15
100
AcDbLine
 10
256.7220740532
 20
82.4452791954
 30
0.0
 11
251.4155653232
 21
83.8874745635
 31
0.0
  0
LINE
  5
547
330
1F
100
AcDbEntity
  8
0
  6
Continuous
 62
     7
370
    15
100
AcDbLine
 10
251.4155653232
 20
83.8874745635
 30
0.0
 11
248.6153929896
 21
81.1544205227
 31
0.0
  0
LINE
  5
548
330
1F
100
AcDbEntity
  8
0
  6
Continuous
 62
     7
370
    15
100
AcDbLine
 10
253.9219017197
 20
79.7122251546
 30
0.0
 11
248.6153929896
 21
81.1544205227
 31
0.0
  0
LINE
  5
549
330
1F
100
AcDbEntity
  8
0
  6
Continuous
 62
     7
370
    15
100
AcDbLine
 10
256.7220740532
 20
82.4452791954
 30
0.0
 11
253.9219017197
 21
79.7122251546
 31
0.0
  0
LINE
  5
54A
330
1F
100
AcDbEntity
  8
0
  6
Continuous
 62
     7
370
    15
100
AcDbLine
 10
239.0809883517
 20
65.2270387382
 30
0.0
 11
233.7744796216
 21
66.6692341063
 31
0.0
  0
LINE
  5
54B
330
1F
100
AcDbEntity
  8
0
  6
Continuous
 62
     7
370
    15
100
AcDbLine
 10
233.7744796216
 20
66.6692341063
 30
0.0
 11
231.0909811353
 21
64.0500573172
 31
0.0
  0
LINE
  5
54C
330
1F
100
AcDbEntity
  8
0
  6
Continuous
 62
     7
370
    15
100
AcDbLine
 10
236.3974898653
 20
62.6078619491
 30
0.0
 11
231.0909811353
 21
64.0500573172
 31
0.0
  0
LINE
  5
54D
330
1F
100
AcDbEntity
  8
0
  6
Continuous
 62
     7
370
    15
100
AcDbLine
 10
239.0809883517
 20
65.2270387382
 30
0.0
 11
236.3974898653
 21
62.6078619491
 31
0.0
  0
LINE
  5
54E
330
1F
100
AcDbEntity
  8
0
  6
Continuous
 62
     7
370
    15
100
AcDbLine
 10
271.4831885816
 20
96.6318624791
 30
0.0
 11
268.7996900953
 21
94.01268569
 31
0.0
  0
LINE
  5
54F
330
1F
100
AcDbEntity
  8
0
  6
Continuous
 62
     7
370
    15
100
AcDbLine
 10
274.1061988254
 20
92.5704903219
 30
0.0
 11
268.7996900953
 21
94.01268569
 31
0.0
  0
LINE
  5
550
330
1F
100
AcDbEntity
  8
0
  6
Continuous
 62
     7
370
    15
100
AcDbLine
 10
276.7896973117
 20
95.189667111
 30
0.0
 11
274.1061988254
 21
92.5704903219
 31
0.0
  0
LINE
  5
551
330
1F
100
AcDbEntity
  8
0
  6
Continuous
 62
     7
370
    15
100
AcDbLine
 10
271.4831885816
 20
96.6318624791
 30
0.0
 11
276.7896973117
 21
95.189667111
 31
0.0
  0
LINE
  5
552
330
1F
100
AcDbEntity
  8
0
  6
Continuous
 62
     7
370
    15
100
AcDbLine
 10
273.9661902087
 20
92.4338376198
 30
0.0
 11
268.6596814786
 21
93.8760329879
 31
0.0
  0
LINE
  5
553
330
1F
100
AcDbEntity
  8
0
  6
Continuous
 62
     7
370
    15
100
AcDbLine
 10
268.6596814786
 20
93.8760329879
 30
0.0
 11
265.859509145
 21
91.1429789471
 31
0.0
  0
LINE
  5
554
330
1F
100
AcDbEntity
  8
0
  6
Continuous
 62
     7
370
    15
100
AcDbLine
 10
271.1660178751
 20
89.700783579
 30
0.0
 11
265.859509145
 21
91.1429789471
 31
0.0
  0
LINE
  5
555
330
1F
100
AcDbEntity
  8
0
  6
Continuous
 62
     7
370
    15
100
AcDbLine
 10
273.9661902087
 20
92.4338376198
 30
0.0
 11
271.1660178751
 21
89.700783579
 31
0.0
  0
LINE
  5
556
330
1F
100
AcDbEntity
  8
0
  6
Continuous
 62
     7
370
    15
100
AcDbLine
 10
271.0260092584
 20
89.5641308769
 30
0.0
 11
265.7195005284
 21
91.006326245
 31
0.0
  0
LINE
  5
557
330
1F
100
AcDbEntity
  8
0
  6
Continuous
 62
     7
370
    15
100
AcDbLine
 10
265.7195005284
 20
91.006326245
 30
0.0
 11
262.9193281948
 21
88.2732722042
 31
0.0
  0
LINE
  5
558
330
1F
100
AcDbEntity
  8
0
  6
Continuous
 62
     7
370
    15
100
AcDbLine
 10
268.2258369248
 20
86.8310768361
 30
0.0
 11
262.9193281948
 21
88.2732722042
 31
0.0
  0
LINE
  5
559
330
1F
100
AcDbEntity
  8
0
  6
Continuous
 62
     7
370
    15
100
AcDbLine
 10
271.0260092584
 20
89.5641308769
 30
0.0
 11
268.2258369248
 21
86.8310768361
 31
0.0
  0
LINE
  5
55A
330
1F
100
AcDbEntity
  8
0
  6
Continuous
 62
     7
370
    15
100
AcDbLine
 10
268.0858283082
 20
86.6944241341
 30
0.0
 11
262.7793195781
 21
88.1366195022
 31
0.0
  0
LINE
  5
55B
330
1F
100
AcDbEntity
  8
0
  6
Continuous
 62
     7
370
    15
100
AcDbLine
 10
262.7793195781
 20
88.1366195022
 30
0.0
 11
259.9791472445
 21
85.4035654614
 31
0.0
  0
LINE
  5
55C
330
1F
100
AcDbEntity
  8
0
  6
Continuous
 62
     7
370
    15
100
AcDbLine
 10
265.2856559746
 20
83.9613700932
 30
0.0
 11
259.9791472445
 21
85.4035654614
 31
0.0
  0
LINE
  5
55D
330
1F
100
AcDbEntity
  8
0
  6
Continuous
 62
     7
370
    15
100
AcDbLine
 10
268.0858283082
 20
86.6944241341
 30
0.0
 11
265.2856559746
 21
83.9613700932
 31
0.0
  0
LINE
  5
55E
330
1F
100
AcDbEntity
  8
0
  6
Continuous
 62
     7
370
    15
100
AcDbLine
 10
265.1456473579
 20
83.8247173912
 30
0.0
 11
259.8391386278
 21
85.2669127593
 31
0.0
  0
LINE
  5
55F
330
1F
100
AcDbEntity
  8
0
  6
Continuous
 62
     7
370
    15
100
AcDbLine
 10
259.8391386278
 20
85.2669127593
 30
0.0
 11
257.0389662943
 21
82.5338587185
 31
0.0
  0
LINE
  5
560
330
1F
100
AcDbEntity
  8
0
  6
Continuous
 62
     7
370
    15
100
AcDbLine
 10
262.3454750243
 20
81.0916633504
 30
0.0
 11
257.0389662943
 21
82.5338587185
 31
0.0
  0
LINE
  5
561
330
1F
100
AcDbEntity
  8
0
  6
Continuous
 62
     7
370
    15
100
AcDbLine
 10
265.1456473579
 20
83.8247173912
 30
0.0
 11
262.3454750243
 21
81.0916633504
 31
0.0
  0
LINE
  5
562
330
1F
100
AcDbEntity
  8
0
  6
Continuous
 62
     7
370
    15
100
AcDbLine
 10
242.1980529263
 20
68.0486723021
 30
0.0
 11
239.3978805927
 21
65.3156182613
 31
0.0
  0
LINE
  5
563
330
1F
100
AcDbEntity
  8
0
  6
Continuous
 62
     7
370
    15
100
AcDbLine
 10
244.7043893228
 20
63.8734228932
 30
0.0
 11
239.3978805927
 21
65.3156182613
 31
0.0
  0
LINE
  5
564
330
1F
100
AcDbEntity
  8
0
  6
Continuous
 62
     7
370
    15
100
AcDbLine
 10
247.5045616563
 20
66.606476934
 30
0.0
 11
244.7043893228
 21
63.8734228932
 31
0.0
  0
LINE
  5
565
330
1F
100
AcDbEntity
  8
0
  6
Continuous
 62
     7
370
    15
100
AcDbLine
 10
247.5045616563
 20
66.606476934
 30
0.0
 11
242.1980529263
 21
68.0486723021
 31
0.0
  0
LINE
  5
566
330
1F
100
AcDbEntity
  8
0
  6
Continuous
 62
     7
370
    15
100
AcDbLine
 10
245.1382338765
 20
70.918379045
 30
0.0
 11
242.338061543
 21
68.1853250042
 31
0.0
  0
LINE
  5
567
330
1F
100
AcDbEntity
  8
0
  6
Continuous
 62
     7
370
    15
100
AcDbLine
 10
247.644570273
 20
66.743129636
 30
0.0
 11
242.338061543
 21
68.1853250042
 31
0.0
  0
LINE
  5
568
330
1F
100
AcDbEntity
  8
0
  6
Continuous
 62
     7
370
    15
100
AcDbLine
 10
250.4447426066
 20
69.4761836769
 30
0.0
 11
247.644570273
 21
66.743129636
 31
0.0
  0
LINE
  5
569
330
1F
100
AcDbEntity
  8
0
  6
Continuous
 62
     7
370
    15
100
AcDbLine
 10
250.4447426066
 20
69.4761836769
 30
0.0
 11
245.1382338765
 21
70.918379045
 31
0.0
  0
LINE
  5
56A
330
1F
100
AcDbEntity
  8
0
  6
Continuous
 62
     7
370
    15
100
AcDbLine
 10
248.0784148268
 20
73.7880857878
 30
0.0
 11
245.2782424932
 21
71.055031747
 31
0.0
  0
LINE
  5
56B
330
1F
100
AcDbEntity
  8
0
  6
Continuous
 62
     7
370
    15
100
AcDbLine
 10
250.5847512233
 20
69.6128363789
 30
0.0
 11
245.2782424932
 21
71.055031747
 31
0.0
  0
LINE
  5
56C
330
1F
100
AcDbEntity
  8
0
  6
Continuous
 62
     7
370
    15
100
AcDbLine
 10
253.3849235569
 20
72.3458904197
 30
0.0
 11
250.5847512233
 21
69.6128363789
 31
0.0
  0
LINE
  5
56D
330
1F
100
AcDbEntity
  8
0
  6
Continuous
 62
     7
370
    15
100
AcDbLine
 10
253.3849235569
 20
72.3458904197
 30
0.0
 11
248.0784148268
 21
73.7880857878
 31
0.0
  0
LINE
  5
56E
330
1F
100
AcDbEntity
  8
0
  6
Continuous
 62
     7
370
    15
100
AcDbLine
 10
251.0185957771
 20
76.6577925307
 30
0.0
 11
248.2184234435
 21
73.9247384899
 31
0.0
  0
LINE
  5
56F
330
1F
100
AcDbEntity
  8
0
  6
Continuous
 62
     7
370
    15
100
AcDbLine
 10
253.5249321735
 20
72.4825431218
 30
0.0
 11
248.2184234435
 21
73.9247384899
 31
0.0
  0
LINE
  5
570
330
1F
100
AcDbEntity
  8
0
  6
Continuous
 62
     7
370
    15
100
AcDbLine
 10
256.3251045071
 20
75.2155971626
 30
0.0
 11
253.5249321735
 21
72.4825431218
 31
0.0
  0
LINE
  5
571
330
1F
100
AcDbEntity
  8
0
  6
Continuous
 62
     7
370
    15
100
AcDbLine
 10
256.3251045071
 20
75.2155971626
 30
0.0
 11
251.0185957771
 21
76.6577925307
 31
0.0
  0
LINE
  5
572
330
1F
100
AcDbEntity
  8
0
  6
Continuous
 62
     7
370
    15
100
AcDbLine
 10
253.9587767273
 20
79.5274992736
 30
0.0
 11
251.1586043937
 21
76.7944452328
 31
0.0
  0
LINE
  5
573
330
1F
100
AcDbEntity
  8
0
  6
Continuous
 62
     7
370
    15
100
AcDbLine
 10
256.4651131238
 20
75.3522498646
 30
0.0
 11
251.1586043937
 21
76.7944452328
 31
0.0
  0
LINE
  5
574
330
1F
100
AcDbEntity
  8
0
  6
Continuous
 62
     7
370
    15
100
AcDbLine
 10
259.2652854574
 20
78.0853039055
 30
0.0
 11
256.4651131238
 21
75.3522498646
 31
0.0
  0
LINE
  5
575
330
1F
100
AcDbEntity
  8
0
  6
Continuous
 62
     7
370
    15
100
AcDbLine
 10
259.2652854574
 20
78.0853039055
 30
0.0
 11
253.9587767273
 21
79.5274992736
 31
0.0
  0
LINE
  5
576
330
1F
100
AcDbEntity
  8
0
  6
Continuous
 62
     7
370
    15
100
AcDbLine
 10
262.2054664076
 20
80.9550106483
 30
0.0
 11
256.8989576776
 21
82.3972060164
 31
0.0
  0
LINE
  5
577
330
1F
100
AcDbEntity
  8
0
  6
Continuous
 62
     7
370
    15
100
AcDbLine
 10
256.8989576776
 20
82.3972060164
 30
0.0
 11
254.098785344
 21
79.6641519756
 31
0.0
  0
LINE
  5
578
330
1F
100
AcDbEntity
  8
0
  6
Continuous
 62
     7
370
    15
100
AcDbLine
 10
259.4052940741
 20
78.2219566075
 30
0.0
 11
254.098785344
 21
79.6641519756
 31
0.0
  0
LINE
  5
579
330
1F
100
AcDbEntity
  8
0
  6
Continuous
 62
     7
370
    15
100
AcDbLine
 10
262.2054664076
 20
80.9550106483
 30
0.0
 11
259.4052940741
 21
78.2219566075
 31
0.0
  0
LINE
  5
57A
330
1F
100
AcDbEntity
  8
0
  6
Continuous
 62
     7
370
    15
100
AcDbLine
 10
244.5643807061
 20
63.7367701911
 30
0.0
 11
239.257871976
 21
65.1789655592
 31
0.0
  0
LINE
  5
57B
330
1F
100
AcDbEntity
  8
0
  6
Continuous
 62
     7
370
    15
100
AcDbLine
 10
239.257871976
 20
65.1789655592
 30
0.0
 11
236.5743734897
 21
62.5597887701
 31
0.0
  0
LINE
  5
57C
330
1F
100
AcDbEntity
  8
0
  6
Continuous
 62
     7
370
    15
100
AcDbLine
 10
241.8808822197
 20
61.117593402
 30
0.0
 11
236.5743734897
 21
62.5597887701
 31
0.0
  0
LINE
  5
57D
330
1F
100
AcDbEntity
  8
0
  6
Continuous
 62
     7
370
    15
100
AcDbLine
 10
244.5643807061
 20
63.7367701911
 30
0.0
 11
241.8808822197
 21
61.117593402
 31
0.0
  0
LINE
  5
57E
330
1F
100
AcDbEntity
  8
0
  6
Continuous
 62
     7
370
    15
100
AcDbLine
 10
250.4531071137
 20
62.3110445777
 30
0.0
 11
250.3646653015
 21
62.3350811672
 31
0.0
  0
LINE
  5
57F
330
1F
100
AcDbEntity
  8
0
  6
Continuous
 62
     7
370
    15
100
AcDbLine
 10
253.2532794472
 20
65.0440986186
 30
0.0
 11
250.4531071137
 21
62.3110445777
 31
0.0
  0
LINE
  5
580
330
1F
100
AcDbEntity
  8
0
  6
Continuous
 62
     7
370
    15
100
AcDbLine
 10
253.2532794472
 20
65.0440986186
 30
0.0
 11
253.1648376351
 21
65.068135208
 31
0.0
  0
LINE
  5
581
330
1F
100
AcDbEntity
  8
0
  6
Continuous
 62
     7
370
    15
100
AcDbLine
 10
253.1648376351
 20
65.068135208
 30
0.0
 11
250.3646653015
 21
62.3350811672
 31
0.0
  0
LINE
  5
582
330
1F
100
AcDbEntity
  8
0
  6
Continuous
 62
     7
370
    15
100
AcDbLine
 10
253.3932880639
 20
65.1807513206
 30
0.0
 11
253.3048462518
 21
65.2047879101
 31
0.0
  0
LINE
  5
583
330
1F
100
AcDbEntity
  8
0
  6
Continuous
 62
     7
370
    15
100
AcDbLine
 10
256.1934603975
 20
67.9138053614
 30
0.0
 11
253.3932880639
 21
65.1807513206
 31
0.0
  0
LINE
  5
584
330
1F
100
AcDbEntity
  8
0
  6
Continuous
 62
     7
370
    15
100
AcDbLine
 10
256.1934603975
 20
67.9138053614
 30
0.0
 11
256.1050185853
 21
67.9378419509
 31
0.0
  0
LINE
  5
585
330
1F
100
AcDbEntity
  8
0
  6
Continuous
 62
     7
370
    15
100
AcDbLine
 10
256.1050185853
 20
67.9378419509
 30
0.0
 11
253.3048462518
 21
65.2047879101
 31
0.0
  0
LINE
  5
586
330
1F
100
AcDbEntity
  8
0
  6
Continuous
 62
     7
370
    15
100
AcDbLine
 10
256.3334690142
 20
68.0504580635
 30
0.0
 11
256.245027202
 21
68.0744946529
 31
0.0
  0
LINE
  5
587
330
1F
100
AcDbEntity
  8
0
  6
Continuous
 62
     7
370
    15
100
AcDbLine
 10
259.1336413478
 20
70.7835121043
 30
0.0
 11
256.3334690142
 21
68.0504580635
 31
0.0
  0
LINE
  5
588
330
1F
100
AcDbEntity
  8
0
  6
Continuous
 62
     7
370
    15
100
AcDbLine
 10
259.1336413478
 20
70.7835121043
 30
0.0
 11
259.0451995356
 21
70.8075486938
 31
0.0
  0
LINE
  5
589
330
1F
100
AcDbEntity
  8
0
  6
Continuous
 62
     7
370
    15
100
AcDbLine
 10
259.0451995356
 20
70.8075486938
 30
0.0
 11
256.245027202
 21
68.0744946529
 31
0.0
  0
LINE
  5
58A
330
1F
100
AcDbEntity
  8
0
  6
Continuous
 62
     7
370
    15
100
AcDbLine
 10
259.2736499644
 20
70.9201648063
 30
0.0
 11
259.1852081523
 21
70.9442013958
 31
0.0
  0
LINE
  5
58B
330
1F
100
AcDbEntity
  8
0
  6
Continuous
 62
     7
370
    15
100
AcDbLine
 10
262.073822298
 20
73.6532188472
 30
0.0
 11
259.2736499644
 21
70.9201648063
 31
0.0
  0
LINE
  5
58C
330
1F
100
AcDbEntity
  8
0
  6
Continuous
 62
     7
370
    15
100
AcDbLine
 10
262.073822298
 20
73.6532188472
 30
0.0
 11
261.9853804859
 21
73.6772554366
 31
0.0
  0
LINE
  5
58D
330
1F
100
AcDbEntity
  8
0
  6
Continuous
 62
     7
370
    15
100
AcDbLine
 10
261.9853804859
 20
73.6772554366
 30
0.0
 11
259.1852081523
 21
70.9442013958
 31
0.0
  0
LINE
  5
58E
330
1F
100
AcDbEntity
  8
0
  6
Continuous
 62
     7
370
    15
100
AcDbLine
 10
262.2138309147
 20
73.7898715492
 30
0.0
 11
262.1253891025
 21
73.8139081387
 31
0.0
  0
LINE
  5
58F
330
1F
100
AcDbEntity
  8
0
  6
Continuous
 62
     7
370
    15
100
AcDbLine
 10
265.0140032483
 20
76.52292559
 30
0.0
 11
262.2138309147
 21
73.7898715492
 31
0.0
  0
LINE
  5
590
330
1F
100
AcDbEntity
  8
0
  6
Continuous
 62
     7
370
    15
100
AcDbLine
 10
265.0140032483
 20
76.52292559
 30
0.0
 11
264.9255614361
 21
76.5469621795
 31
0.0
  0
LINE
  5
591
330
1F
100
AcDbEntity
  8
0
  6
Continuous
 62
     7
370
    15
100
AcDbLine
 10
264.9255614361
 20
76.5469621795
 30
0.0
 11
262.1253891025
 21
73.8139081387
 31
0.0
  0
LINE
  5
592
330
1F
100
AcDbEntity
  8
0
  6
Continuous
 62
     7
370
    15
100
AcDbLine
 10
267.9541841985
 20
79.3926323329
 30
0.0
 11
265.154011865
 21
76.6595782921
 31
0.0
  0
LINE
  5
593
330
1F
100
AcDbEntity
  8
0
  6
Continuous
 62
     7
370
    15
100
AcDbLine
 10
267.9541841985
 20
79.3926323329
 30
0.0
 11
267.8657423864
 21
79.4166689224
 31
0.0
  0
LINE
  5
594
330
1F
100
AcDbEntity
  8
0
  6
Continuous
 62
     7
370
    15
100
AcDbLine
 10
267.8657423864
 20
79.4166689224
 30
0.0
 11
265.0655700528
 21
76.6836148815
 31
0.0
  0
LINE
  5
595
330
1F
100
AcDbEntity
  8
0
  6
Continuous
 62
     7
370
    15
100
AcDbLine
 10
265.154011865
 20
76.6595782921
 30
0.0
 11
265.0655700528
 21
76.6836148815
 31
0.0
  0
LINE
  5
596
330
1F
100
AcDbEntity
  8
0
  6
Continuous
 62
     7
370
    15
100
AcDbLine
 10
270.8943651488
 20
82.2623390758
 30
0.0
 11
268.0941928152
 21
79.5292850349
 31
0.0
  0
LINE
  5
597
330
1F
100
AcDbEntity
  8
0
  6
Continuous
 62
     7
370
    15
100
AcDbLine
 10
270.8943651488
 20
82.2623390758
 30
0.0
 11
270.8059233366
 21
82.2863756652
 31
0.0
  0
LINE
  5
598
330
1F
100
AcDbEntity
  8
0
  6
Continuous
 62
     7
370
    15
100
AcDbLine
 10
270.8059233366
 20
82.2863756652
 30
0.0
 11
268.0057510031
 21
79.5533216244
 31
0.0
  0
LINE
  5
599
330
1F
100
AcDbEntity
  8
0
  6
Continuous
 62
     7
370
    15
100
AcDbLine
 10
268.0941928152
 20
79.5292850349
 30
0.0
 11
268.0057510031
 21
79.5533216244
 31
0.0
  0
LINE
  5
59A
330
1F
100
AcDbEntity
  8
0
  6
Continuous
 62
     7
370
    15
100
AcDbLine
 10
273.8345460991
 20
85.1320458186
 30
0.0
 11
271.0343737655
 21
82.3989917778
 31
0.0
  0
LINE
  5
59B
330
1F
100
AcDbEntity
  8
0
  6
Continuous
 62
     7
370
    15
100
AcDbLine
 10
273.8345460991
 20
85.1320458186
 30
0.0
 11
273.7461042869
 21
85.1560824081
 31
0.0
  0
LINE
  5
59C
330
1F
100
AcDbEntity
  8
0
  6
Continuous
 62
     7
370
    15
100
AcDbLine
 10
273.7461042869
 20
85.1560824081
 30
0.0
 11
270.9459319533
 21
82.4230283673
 31
0.0
  0
LINE
  5
59D
330
1F
100
AcDbEntity
  8
0
  6
Continuous
 62
     7
370
    15
100
AcDbLine
 10
271.0343737655
 20
82.3989917778
 30
0.0
 11
270.9459319533
 21
82.4230283673
 31
0.0
  0
LINE
  5
59E
330
1F
100
AcDbEntity
  8
0
  6
Continuous
 62
     7
370
    15
100
AcDbLine
 10
276.7747270493
 20
88.0017525615
 30
0.0
 11
273.9745547157
 21
85.2686985207
 31
0.0
  0
LINE
  5
59F
330
1F
100
AcDbEntity
  8
0
  6
Continuous
 62
     7
370
    15
100
AcDbLine
 10
276.7747270493
 20
88.0017525615
 30
0.0
 11
276.6862852372
 21
88.025789151
 31
0.0
  0
LINE
  5
5A0
330
1F
100
AcDbEntity
  8
0
  6
Continuous
 62
     7
370
    15
100
AcDbLine
 10
276.6862852372
 20
88.025789151
 30
0.0
 11
273.8861129036
 21
85.2927351101
 31
0.0
  0
LINE
  5
5A1
330
1F
100
AcDbEntity
  8
0
  6
Continuous
 62
     7
370
    15
100
AcDbLine
 10
273.9745547157
 20
85.2686985207
 30
0.0
 11
273.8861129036
 21
85.2927351101
 31
0.0
  0
LINE
  5
5A2
330
1F
100
AcDbEntity
  8
0
  6
Continuous
 62
     7
370
    15
100
AcDbLine
 10
279.7149079996
 20
90.8714593044
 30
0.0
 11
276.914735666
 21
88.1384052635
 31
0.0
  0
LINE
  5
5A3
330
1F
100
AcDbEntity
  8
0
  6
Continuous
 62
     7
370
    15
100
AcDbLine
 10
279.7149079996
 20
90.8714593044
 30
0.0
 11
279.6264661874
 21
90.8954958938
 31
0.0
  0
LINE
  5
5A4
330
1F
100
AcDbEntity
  8
0
  6
Continuous
 62
     7
370
    15
100
AcDbLine
 10
279.6264661874
 20
90.8954958938
 30
0.0
 11
276.8262938538
 21
88.162441853
 31
0.0
  0
LINE
  5
5A5
330
1F
100
AcDbEntity
  8
0
  6
Continuous
 62
     7
370
    15
100
AcDbLine
 10
276.914735666
 20
88.1384052635
 30
0.0
 11
276.8262938538
 21
88.162441853
 31
0.0
  0
LINE
  5
5A6
330
1F
100
AcDbEntity
  8
0
  6
Continuous
 62
     7
370
    15
100
AcDbLine
 10
276.966580936
 20
95.141593932
 30
0.0
 11
274.2830824497
 21
92.5224171429
 31
0.0
  0
LINE
  5
5A7
330
1F
100
AcDbEntity
  8
0
  6
Continuous
 62
     7
370
    15
100
AcDbLine
 10
279.5895911798
 20
91.0802217748
 30
0.0
 11
274.2830824497
 21
92.5224171429
 31
0.0
  0
LINE
  5
5A8
330
1F
100
AcDbEntity
  8
0
  6
Continuous
 62
     7
370
    15
100
AcDbLine
 10
282.2730896661
 20
93.6993985639
 30
0.0
 11
279.5895911798
 21
91.0802217748
 31
0.0
  0
LINE
  5
5A9
330
1F
100
AcDbEntity
  8
0
  6
Continuous
 62
     7
370
    15
100
AcDbLine
 10
276.966580936
 20
95.141593932
 30
0.0
 11
282.2730896661
 21
93.6993985639
 31
0.0
  0
LINE
  5
5AA
330
1F
100
AcDbEntity
  8
0
  6
Continuous
 62
     7
370
    15
100
AcDbLine
 10
279.4495825631
 20
90.9435690728
 30
0.0
 11
274.143073833
 21
92.3857644409
 31
0.0
  0
LINE
  5
5AB
330
1F
100
AcDbEntity
  8
0
  6
Continuous
 62
     7
370
    15
100
AcDbLine
 10
274.143073833
 20
92.3857644409
 30
0.0
 11
271.3429014994
 21
89.6527104
 31
0.0
  0
LINE
  5
5AC
330
1F
100
AcDbEntity
  8
0
  6
Continuous
 62
     7
370
    15
100
AcDbLine
 10
276.6494102295
 20
88.2105150319
 30
0.0
 11
271.3429014994
 21
89.6527104
 31
0.0
  0
LINE
  5
5AD
330
1F
100
AcDbEntity
  8
0
  6
Continuous
 62
     7
370
    15
100
AcDbLine
 10
279.4495825631
 20
90.9435690728
 30
0.0
 11
276.6494102295
 21
88.2105150319
 31
0.0
  0
LINE
  5
5AE
330
1F
100
AcDbEntity
  8
0
  6
Continuous
 62
     7
370
    15
100
AcDbLine
 10
276.5094016128
 20
88.0738623299
 30
0.0
 11
271.2028928828
 21
89.516057698
 31
0.0
  0
LINE
  5
5AF
330
1F
100
AcDbEntity
  8
0
  6
Continuous
 62
     7
370
    15
100
AcDbLine
 10
271.2028928828
 20
89.516057698
 30
0.0
 11
268.4027205492
 21
86.7830036572
 31
0.0
  0
LINE
  5
5B0
330
1F
100
AcDbEntity
  8
0
  6
Continuous
 62
     7
370
    15
100
AcDbLine
 10
273.7092292792
 20
85.3408082891
 30
0.0
 11
268.4027205492
 21
86.7830036572
 31
0.0
  0
LINE
  5
5B1
330
1F
100
AcDbEntity
  8
0
  6
Continuous
 62
     7
370
    15
100
AcDbLine
 10
276.5094016128
 20
88.0738623299
 30
0.0
 11
273.7092292792
 21
85.3408082891
 31
0.0
  0
LINE
  5
5B2
330
1F
100
AcDbEntity
  8
0
  6
Continuous
 62
     7
370
    15
100
AcDbLine
 10
273.5692206626
 20
85.204155587
 30
0.0
 11
268.2627119325
 21
86.6463509551
 31
0.0
  0
LINE
  5
5B3
330
1F
100
AcDbEntity
  8
0
  6
Continuous
 62
     7
370
    15
100
AcDbLine
 10
268.2627119325
 20
86.6463509551
 30
0.0
 11
265.4625395989
 21
83.9132969143
 31
0.0
  0
LINE
  5
5B4
330
1F
100
AcDbEntity
  8
0
  6
Continuous
 62
     7
370
    15
100
AcDbLine
 10
270.769048329
 20
82.4711015462
 30
0.0
 11
265.4625395989
 21
83.9132969143
 31
0.0
  0
LINE
  5
5B5
330
1F
100
AcDbEntity
  8
0
  6
Continuous
 62
     7
370
    15
100
AcDbLine
 10
273.5692206626
 20
85.204155587
 30
0.0
 11
270.769048329
 21
82.4711015462
 31
0.0
  0
LINE
  5
5B6
330
1F
100
AcDbEntity
  8
0
  6
Continuous
 62
     7
370
    15
100
AcDbLine
 10
270.6290397123
 20
82.3344488442
 30
0.0
 11
265.3225309822
 21
83.7766442123
 31
0.0
  0
LINE
  5
5B7
330
1F
100
AcDbEntity
  8
0
  6
Continuous
 62
     7
370
    15
100
AcDbLine
 10
265.3225309822
 20
83.7766442123
 30
0.0
 11
262.5223586487
 21
81.0435901714
 31
0.0
  0
LINE
  5
5B8
330
1F
100
AcDbEntity
  8
0
  6
Continuous
 62
     7
370
    15
100
AcDbLine
 10
267.8288673787
 20
79.6013948033
 30
0.0
 11
262.5223586487
 21
81.0435901714
 31
0.0
  0
LINE
  5
5B9
330
1F
100
AcDbEntity
  8
0
  6
Continuous
 62
     7
370
    15
100
AcDbLine
 10
270.6290397123
 20
82.3344488442
 30
0.0
 11
267.8288673787
 21
79.6013948033
 31
0.0
  0
LINE
  5
5BA
330
1F
100
AcDbEntity
  8
0
  6
Continuous
 62
     7
370
    15
100
AcDbLine
 10
247.6814452807
 20
66.5584037551
 30
0.0
 11
244.8812729471
 21
63.8253497142
 31
0.0
  0
LINE
  5
5BB
330
1F
100
AcDbEntity
  8
0
  6
Continuous
 62
     7
370
    15
100
AcDbLine
 10
250.1877816772
 20
62.3831543461
 30
0.0
 11
244.8812729471
 21
63.8253497142
 31
0.0
  0
LINE
  5
5BC
330
1F
100
AcDbEntity
  8
0
  6
Continuous
 62
     7
370
    15
100
AcDbLine
 10
252.9879540107
 20
65.116208387
 30
0.0
 11
250.1877816772
 21
62.3831543461
 31
0.0
  0
LINE
  5
5BD
330
1F
100
AcDbEntity
  8
0
  6
Continuous
 62
     7
370
    15
100
AcDbLine
 10
252.9879540107
 20
65.116208387
 30
0.0
 11
247.6814452807
 21
66.5584037551
 31
0.0
  0
LINE
  5
5BE
330
1F
100
AcDbEntity
  8
0
  6
Continuous
 62
     7
370
    15
100
AcDbLine
 10
250.6216262309
 20
69.4281104979
 30
0.0
 11
247.8214538974
 21
66.6950564571
 31
0.0
  0
LINE
  5
5BF
330
1F
100
AcDbEntity
  8
0
  6
Continuous
 62
     7
370
    15
100
AcDbLine
 10
253.1279626274
 20
65.252861089
 30
0.0
 11
247.8214538974
 21
66.6950564571
 31
0.0
  0
LINE
  5
5C0
330
1F
100
AcDbEntity
  8
0
  6
Continuous
 62
     7
370
    15
100
AcDbLine
 10
255.928134961
 20
67.9859151298
 30
0.0
 11
253.1279626274
 21
65.252861089
 31
0.0
  0
LINE
  5
5C1
330
1F
100
AcDbEntity
  8
0
  6
Continuous
 62
     7
370
    15
100
AcDbLine
 10
255.928134961
 20
67.9859151298
 30
0.0
 11
250.6216262309
 21
69.4281104979
 31
0.0
  0
LINE
  5
5C2
330
1F
100
AcDbEntity
  8
0
  6
Continuous
 62
     7
370
    15
100
AcDbLine
 10
253.5618071812
 20
72.2978172408
 30
0.0
 11
250.7616348476
 21
69.5647632
 31
0.0
  0
LINE
  5
5C3
330
1F
100
AcDbEntity
  8
0
  6
Continuous
 62
     7
370
    15
100
AcDbLine
 10
256.0681435777
 20
68.1225678319
 30
0.0
 11
250.7616348476
 21
69.5647632
 31
0.0
  0
LINE
  5
5C4
330
1F
100
AcDbEntity
  8
0
  6
Continuous
 62
     7
370
    15
100
AcDbLine
 10
258.8683159113
 20
70.8556218727
 30
0.0
 11
256.0681435777
 21
68.1225678319
 31
0.0
  0
LINE
  5
5C5
330
1F
100
AcDbEntity
  8
0
  6
Continuous
 62
     7
370
    15
100
AcDbLine
 10
258.8683159113
 20
70.8556218727
 30
0.0
 11
253.5618071812
 21
72.2978172408
 31
0.0
  0
LINE
  5
5C6
330
1F
100
AcDbEntity
  8
0
  6
Continuous
 62
     7
370
    15
100
AcDbLine
 10
256.5019881315
 20
75.1675239837
 30
0.0
 11
253.7018157979
 21
72.4344699428
 31
0.0
  0
LINE
  5
5C7
330
1F
100
AcDbEntity
  8
0
  6
Continuous
 62
     7
370
    15
100
AcDbLine
 10
259.0083245279
 20
70.9922745747
 30
0.0
 11
253.7018157979
 21
72.4344699428
 31
0.0
  0
LINE
  5
5C8
330
1F
100
AcDbEntity
  8
0
  6
Continuous
 62
     7
370
    15
100
AcDbLine
 10
261.8084968615
 20
73.7253286156
 30
0.0
 11
259.0083245279
 21
70.9922745747
 31
0.0
  0
LINE
  5
5C9
330
1F
100
AcDbEntity
  8
0
  6
Continuous
 62
     7
370
    15
100
AcDbLine
 10
261.8084968615
 20
73.7253286156
 30
0.0
 11
256.5019881315
 21
75.1675239837
 31
0.0
  0
LINE
  5
5CA
330
1F
100
AcDbEntity
  8
0
  6
Continuous
 62
     7
370
    15
100
AcDbLine
 10
259.4421690817
 20
78.0372307265
 30
0.0
 11
256.6419967481
 21
75.3041766857
 31
0.0
  0
LINE
  5
5CB
330
1F
100
AcDbEntity
  8
0
  6
Continuous
 62
     7
370
    15
100
AcDbLine
 10
261.9485054782
 20
73.8619813176
 30
0.0
 11
256.6419967481
 21
75.3041766857
 31
0.0
  0
LINE
  5
5CC
330
1F
100
AcDbEntity
  8
0
  6
Continuous
 62
     7
370
    15
100
AcDbLine
 10
264.7486778118
 20
76.5950353584
 30
0.0
 11
261.9485054782
 21
73.8619813176
 31
0.0
  0
LINE
  5
5CD
330
1F
100
AcDbEntity
  8
0
  6
Continuous
 62
     7
370
    15
100
AcDbLine
 10
264.7486778118
 20
76.5950353584
 30
0.0
 11
259.4421690817
 21
78.0372307265
 31
0.0
  0
LINE
  5
5CE
330
1F
100
AcDbEntity
  8
0
  6
Continuous
 62
     7
370
    15
100
AcDbLine
 10
267.688858762
 20
79.4647421013
 30
0.0
 11
262.382350032
 21
80.9069374694
 31
0.0
  0
LINE
  5
5CF
330
1F
100
AcDbEntity
  8
0
  6
Continuous
 62
     7
370
    15
100
AcDbLine
 10
262.382350032
 20
80.9069374694
 30
0.0
 11
259.5821776984
 21
78.1738834286
 31
0.0
  0
LINE
  5
5D0
330
1F
100
AcDbEntity
  8
0
  6
Continuous
 62
     7
370
    15
100
AcDbLine
 10
264.8886864285
 20
76.7316880605
 30
0.0
 11
259.5821776984
 21
78.1738834286
 31
0.0
  0
LINE
  5
5D1
330
1F
100
AcDbEntity
  8
0
  6
Continuous
 62
     7
370
    15
100
AcDbLine
 10
267.688858762
 20
79.4647421013
 30
0.0
 11
264.8886864285
 21
76.7316880605
 31
0.0
  0
LINE
  5
5D2
330
1F
100
AcDbEntity
  8
0
  6
Continuous
 62
     7
370
    15
100
AcDbLine
 10
279.8549166163
 20
91.0081120064
 30
0.0
 11
279.7664748041
 21
91.0321485959
 31
0.0
  0
LINE
  5
5D3
330
1F
100
AcDbEntity
  8
0
  6
Continuous
 62
     7
370
    15
100
AcDbLine
 10
282.5384151026
 20
93.6272887955
 30
0.0
 11
279.8549166163
 21
91.0081120064
 31
0.0
  0
LINE
  5
5D4
330
1F
100
AcDbEntity
  8
0
  6
Continuous
 62
     7
370
    15
100
AcDbLine
 10
284.7001967196
 20
93.9715177749
 30
0.0
 11
248.297956383
 21
58.4418152442
 31
0.0
  0
LINE
  5
5D5
330
1F
100
AcDbEntity
  8
0
  6
Continuous
 62
     7
370
    15
100
AcDbLine
 10
250.313098497
 20
62.1743918757
 30
0.0
 11
247.6296000106
 21
59.5552150866
 31
0.0
  0
LINE
  5
5D6
330
1F
100
AcDbEntity
  8
0
  6
Continuous
 62
     7
370
    15
100
AcDbLine
 10
250.313098497
 20
62.1743918757
 30
0.0
 11
250.2246566848
 21
62.1984284652
 31
0.0
  0
LINE
  5
5D7
330
1F
100
AcDbEntity
  8
0
  6
Continuous
 62
     7
370
    15
100
AcDbLine
 10
250.2246566848
 20
62.1984284652
 30
0.0
 11
247.5411581985
 21
59.579251676
 31
0.0
  0
LINE
  5
5D8
330
1F
100
AcDbEntity
  8
0
  6
Continuous
 62
     7
370
    15
100
AcDbLine
 10
247.6296000106
 20
59.5552150866
 30
0.0
 11
247.5411581985
 21
59.579251676
 31
0.0
  0
LINE
  5
5D9
330
1F
100
AcDbEntity
  8
0
  6
Continuous
 62
     7
370
    15
100
AcDbLine
 10
247.6296000106
 20
59.5552150866
 30
0.0
 11
248.297956383
 21
58.4418152442
 31
0.0
  0
LINE
  5
5DA
330
1F
100
AcDbEntity
  8
0
  6
Continuous
 62
     7
370
    15
100
AcDbLine
 10
248.297956383
 20
58.4418152442
 30
0.0
 11
179.3133428922
 21
77.1903550295
 31
0.0
  0
LINE
  5
5DB
330
1F
100
AcDbEntity
  8
0
  6
Continuous
 62
     7
370
    15
100
AcDbLine
 10
181.5635663213
 20
77.5105474195
 30
0.0
 11
181.4751245092
 21
77.5345840089
 31
0.0
  0
LINE
  5
5DC
330
1F
100
AcDbEntity
  8
0
  6
Continuous
 62
     7
370
    15
100
AcDbLine
 10
184.2470648077
 20
80.1297242086
 30
0.0
 11
181.5635663213
 21
77.5105474195
 31
0.0
  0
LINE
  5
5DD
330
1F
100
AcDbEntity
  8
0
  6
Continuous
 62
     7
370
    15
100
AcDbLine
 10
184.2470648077
 20
80.1297242086
 30
0.0
 11
184.1586229955
 21
80.1537607981
 31
0.0
  0
LINE
  5
5DE
330
1F
100
AcDbEntity
  8
0
  6
Continuous
 62
     7
370
    15
100
AcDbLine
 10
184.1586229955
 20
80.1537607981
 30
0.0
 11
181.4751245092
 21
77.5345840089
 31
0.0
  0
LINE
  5
5DF
330
1F
100
AcDbEntity
  8
0
  6
Continuous
 62
     7
370
    15
100
AcDbLine
 10
179.3133428922
 20
77.1903550295
 30
0.0
 11
181.4751245092
 21
77.5345840089
 31
0.0
  0
LINE
  5
5E0
330
1F
100
AcDbEntity
  8
0
  6
Continuous
 62
     7
370
    15
100
AcDbLine
 10
215.7155832287
 20
112.7200575603
 30
0.0
 11
179.3133428922
 21
77.1903550295
 31
0.0
  0
LINE
  5
5E1
330
1F
100
AcDbEntity
  8
0
  6
Continuous
 62
     7
370
    15
100
AcDbLine
 10
216.3839396011
 20
111.6066577179
 30
0.0
 11
213.7004411148
 21
108.9874809288
 31
0.0
  0
LINE
  5
5E2
330
1F
100
AcDbEntity
  8
0
  6
Continuous
 62
     7
370
    15
100
AcDbLine
 10
213.788882927
 20
108.9634443393
 30
0.0
 11
213.7004411148
 21
108.9874809288
 31
0.0
  0
LINE
  5
5E3
330
1F
100
AcDbEntity
  8
0
  6
Continuous
 62
     7
370
    15
100
AcDbLine
 10
216.4723814133
 20
111.5826211284
 30
0.0
 11
213.788882927
 21
108.9634443393
 31
0.0
  0
LINE
  5
5E4
330
1F
100
AcDbEntity
  8
0
  6
Continuous
 62
     7
370
    15
100
AcDbLine
 10
216.3839396011
 20
111.6066577179
 30
0.0
 11
216.4723814133
 21
111.5826211284
 31
0.0
  0
LINE
  5
5E5
330
1F
100
AcDbEntity
  8
0
  6
Continuous
 62
     7
370
    15
100
AcDbLine
 10
216.3839396011
 20
111.6066577179
 30
0.0
 11
215.7155832287
 21
112.7200575603
 31
0.0
  0
LINE
  5
5E6
330
1F
100
AcDbEntity
  8
0
  6
Continuous
 62
     7
370
    15
100
AcDbLine
 10
215.7155832287
 20
112.7200575603
 30
0.0
 11
284.7001967196
 21
93.9715177749
 31
0.0
  0
LINE
  5
5E7
330
1F
100
AcDbEntity
  8
0
  6
Continuous
 62
     7
370
    15
100
AcDbLine
 10
284.7001967196
 20
93.9715177749
 30
0.0
 11
282.5384151026
 21
93.6272887955
 31
0.0
  0
LINE
  5
5E8
330
1F
100
AcDbEntity
  8
0
  6
Continuous
 62
     7
370
    15
100
AcDbLine
 10
282.4499732904
 20
93.651325385
 30
0.0
 11
282.5384151026
 21
93.6272887955
 31
0.0
  0
LINE
  5
5E9
330
1F
100
AcDbEntity
  8
0
  6
Continuous
 62
     7
370
    15
100
AcDbLine
 10
282.4499732904
 20
93.651325385
 30
0.0
 11
279.7664748041
 21
91.0321485959
 31
0.0
  0
LINE
  5
5EA
330
1F
100
AcDbEntity
  8
0
  6
Continuous
 62
     7
370
    15
100
AcDbLine
 10
250.0477730605
 20
62.2465016441
 30
0.0
 11
244.7412643304
 21
63.6886970122
 31
0.0
  0
LINE
  5
5EB
330
1F
100
AcDbEntity
  8
0
  6
Continuous
 62
     7
370
    15
100
AcDbLine
 10
244.7412643304
 20
63.6886970122
 30
0.0
 11
242.0577658441
 21
61.0695202231
 31
0.0
  0
LINE
  5
5EC
330
1F
100
AcDbEntity
  8
0
  6
Continuous
 62
     7
370
    15
100
AcDbLine
 10
247.3642745741
 20
59.627324855
 30
0.0
 11
242.0577658441
 21
61.0695202231
 31
0.0
  0
LINE
  5
5ED
330
1F
100
AcDbEntity
  8
0
  6
Continuous
 62
     7
370
    15
100
AcDbLine
 10
250.0477730605
 20
62.2465016441
 30
0.0
 11
247.3642745741
 21
59.627324855
 31
0.0
  0
LINE
  5
5EE
330
1F
100
AcDbEntity
  8
0
  6
Continuous
 62
     7
370
    15
100
AcDbLine
 10
248.297956383
 20
58.4418152442
 30
0.0
 11
248.297956383
 21
53.29881144
 31
0.0
  0
LINE
  5
5EF
330
1F
100
AcDbEntity
  8
0
  6
Continuous
 62
     7
370
    15
100
AcDbLine
 10
248.297956383
 20
53.29881144
 30
0.0
 11
179.3133428922
 21
72.0473512253
 31
0.0
  0
LINE
  5
5F0
330
1F
100
AcDbEntity
  8
0
  6
Continuous
 62
     7
370
    15
100
AcDbLine
 10
179.3133428922
 20
72.0473512253
 30
0.0
 11
179.3133428922
 21
77.1903550295
 31
0.0
  0
LINE
  5
5F1
330
1F
100
AcDbEntity
  8
0
  6
Continuous
 62
     7
370
    15
100
AcDbLine
 10
284.7001967196
 20
88.8285139707
 30
0.0
 11
284.7001967196
 21
93.9715177749
 31
0.0
  0
LINE
  5
5F2
330
1F
100
AcDbEntity
  8
0
  6
Continuous
 62
     7
370
    15
100
AcDbLine
 10
284.7001967196
 20
88.8285139707
 30
0.0
 11
248.297956383
 21
53.29881144
 31
0.0
  0
LINE
  5
5F3
330
1F
100
AcDbEntity
  8
0
  6
Continuous
 62
     7
370
    15
100
AcDbLine
 10
250.2246566848
 20
62.1984284652
 30
0.0
 11
250.2246566848
 21
62.0880699557
 31
0.0
  0
LINE
  5
5F4
330
1F
100
AcDbEntity
  8
0
  6
Continuous
 62
     7
370
    15
100
AcDbLine
 10
244.7412643304
 20
63.6886970122
 30
0.0
 11
244.7412643304
 21
61.9743624108
 31
0.0
  0
LINE
  5
5F5
330
1F
100
AcDbEntity
  8
0
  6
Continuous
 62
     7
370
    15
100
AcDbLine
 10
244.7412643304
 20
61.9743624108
 30
0.0
 11
243.4316414026
 21
60.6961302849
 31
0.0
  0
LINE
  5
5F6
330
1F
100
AcDbEntity
  8
0
  6
Continuous
 62
     7
370
    15
100
AcDbLine
 10
184.1586229955
 20
80.1537607981
 30
0.0
 11
184.1586229955
 21
80.0434022886
 31
0.0
  0
LINE
  5
5F7
330
1F
100
AcDbEntity
  8
0
  6
Continuous
 62
     7
370
    15
100
AcDbLine
 10
184.423948432
 20
78.3673164282
 30
0.0
 11
184.423948432
 21
80.0816510296
 31
0.0
  0
LINE
  5
5F8
330
1F
100
AcDbEntity
  8
0
  6
Continuous
 62
     7
370
    15
100
AcDbLine
 10
189.9073407864
 20
76.8770478812
 30
0.0
 11
189.9073407864
 21
78.5913824826
 31
0.0
  0
LINE
  5
5F9
330
1F
100
AcDbEntity
  8
0
  6
Continuous
 62
     7
370
    15
100
AcDbLine
 10
195.3907331408
 20
75.3867793342
 30
0.0
 11
195.3907331408
 21
77.1011139356
 31
0.0
  0
LINE
  5
5FA
330
1F
100
AcDbEntity
  8
0
  6
Continuous
 62
     7
370
    15
100
AcDbLine
 10
200.8741254952
 20
73.8965107871
 30
0.0
 11
200.8741254952
 21
75.6108453885
 31
0.0
  0
LINE
  5
5FB
330
1F
100
AcDbEntity
  8
0
  6
Continuous
 62
     7
370
    15
100
AcDbLine
 10
206.3575178496
 20
72.4062422401
 30
0.0
 11
206.3575178496
 21
74.1205768415
 31
0.0
  0
LINE
  5
5FC
330
1F
100
AcDbEntity
  8
0
  6
Continuous
 62
     7
370
    15
100
AcDbLine
 10
211.840910204
 20
70.915973693
 30
0.0
 11
211.840910204
 21
72.6303082944
 31
0.0
  0
LINE
  5
5FD
330
1F
100
AcDbEntity
  8
0
  6
Continuous
 62
     7
370
    15
100
AcDbLine
 10
217.3243025584
 20
69.425705146
 30
0.0
 11
217.3243025584
 21
71.1400397474
 31
0.0
  0
LINE
  5
5FE
330
1F
100
AcDbEntity
  8
0
  6
Continuous
 62
     7
370
    15
100
AcDbLine
 10
222.8076949128
 20
69.6497712004
 30
0.0
 11
222.8076949128
 21
67.935436599
 31
0.0
  0
LINE
  5
5FF
330
1F
100
AcDbEntity
  8
0
  6
Continuous
 62
     7
370
    15
100
AcDbLine
 10
228.2910872672
 20
68.1595026533
 30
0.0
 11
228.2910872672
 21
66.4451680519
 31
0.0
  0
LINE
  5
600
330
1F
100
AcDbEntity
  8
0
  6
Continuous
 62
     7
370
    15
100
AcDbLine
 10
233.7744796216
 20
66.6692341063
 30
0.0
 11
233.7744796216
 21
64.9548995049
 31
0.0
  0
LINE
  5
601
330
1F
100
AcDbEntity
  8
0
  6
Continuous
 62
     7
370
    15
100
AcDbLine
 10
239.257871976
 20
65.1789655592
 30
0.0
 11
239.257871976
 21
63.4646309578
 31
0.0
  0
LINE
  5
602
330
1F
100
AcDbEntity
  8
0
  6
Continuous
 62
     7
370
    15
100
AcDbLine
 10
239.257871976
 20
63.4646309578
 30
0.0
 11
237.9482490482
 21
62.1863988319
 31
0.0
  0
LINE
  5
603
330
1F
100
AcDbEntity
  8
0
  6
Continuous
 62
     7
370
    15
100
AcDbLine
 10
253.1648376351
 20
65.068135208
 30
0.0
 11
253.1648376351
 21
64.9577766986
 31
0.0
  0
LINE
  5
604
330
1F
100
AcDbEntity
  8
0
  6
Continuous
 62
     7
370
    15
100
AcDbLine
 10
233.7744796216
 20
64.9548995049
 30
0.0
 11
232.4648566938
 21
63.676667379
 31
0.0
  0
LINE
  5
605
330
1F
100
AcDbEntity
  8
0
  6
Continuous
 62
     7
370
    15
100
AcDbLine
 10
247.6814452807
 20
64.8440691537
 30
0.0
 11
246.2551485056
 21
63.451959776
 31
0.0
  0
LINE
  5
606
330
1F
100
AcDbEntity
  8
0
  6
Continuous
 62
     7
370
    15
100
AcDbLine
 10
247.6814452807
 20
66.5584037551
 30
0.0
 11
247.6814452807
 21
64.8440691537
 31
0.0
  0
LINE
  5
607
330
1F
100
AcDbEntity
  8
0
  6
Continuous
 62
     7
370
    15
100
AcDbLine
 10
186.0375021998
 20
79.9421943713
 30
0.0
 11
186.0375021998
 21
79.8178257339
 31
0.0
  0
LINE
  5
608
330
1F
100
AcDbEntity
  8
0
  6
Continuous
 62
     7
370
    15
100
AcDbLine
 10
187.0988039458
 20
83.0234675409
 30
0.0
 11
187.0988039458
 21
82.9131090315
 31
0.0
  0
LINE
  5
609
330
1F
100
AcDbEntity
  8
0
  6
Continuous
 62
     7
370
    15
100
AcDbLine
 10
187.3641293823
 20
81.2370231711
 30
0.0
 11
187.3641293823
 21
82.9513577725
 31
0.0
  0
LINE
  5
60A
330
1F
100
AcDbEntity
  8
0
  6
Continuous
 62
     7
370
    15
100
AcDbLine
 10
192.8475217367
 20
79.7467546241
 30
0.0
 11
192.8475217367
 21
81.4610892255
 31
0.0
  0
LINE
  5
60B
330
1F
100
AcDbEntity
  8
0
  6
Continuous
 62
     7
370
    15
100
AcDbLine
 10
198.3309140911
 20
78.256486077
 30
0.0
 11
198.3309140911
 21
79.9708206784
 31
0.0
  0
LINE
  5
60C
330
1F
100
AcDbEntity
  8
0
  6
Continuous
 62
     7
370
    15
100
AcDbLine
 10
203.8143064455
 20
76.76621753
 30
0.0
 11
203.8143064455
 21
78.4805521314
 31
0.0
  0
LINE
  5
60D
330
1F
100
AcDbEntity
  8
0
  6
Continuous
 62
     7
370
    15
100
AcDbLine
 10
209.2976987999
 20
75.2759489829
 30
0.0
 11
209.2976987999
 21
76.9902835844
 31
0.0
  0
LINE
  5
60E
330
1F
100
AcDbEntity
  8
0
  6
Continuous
 62
     7
370
    15
100
AcDbLine
 10
214.7810911543
 20
73.7856804359
 30
0.0
 11
214.7810911543
 21
75.5000150373
 31
0.0
  0
LINE
  5
60F
330
1F
100
AcDbEntity
  8
0
  6
Continuous
 62
     7
370
    15
100
AcDbLine
 10
220.2644835087
 20
72.2954118889
 30
0.0
 11
220.2644835087
 21
74.0097464903
 31
0.0
  0
LINE
  5
610
330
1F
100
AcDbEntity
  8
0
  6
Continuous
 62
     7
370
    15
100
AcDbLine
 10
225.7478758631
 20
72.5194779432
 30
0.0
 11
225.7478758631
 21
70.8051433418
 31
0.0
  0
LINE
  5
611
330
1F
100
AcDbEntity
  8
0
  6
Continuous
 62
     7
370
    15
100
AcDbLine
 10
231.2312682175
 20
71.0292093962
 30
0.0
 11
231.2312682175
 21
69.3148747948
 31
0.0
  0
LINE
  5
612
330
1F
100
AcDbEntity
  8
0
  6
Continuous
 62
     7
370
    15
100
AcDbLine
 10
236.7146605719
 20
69.5389408492
 30
0.0
 11
236.7146605719
 21
67.8246062477
 31
0.0
  0
LINE
  5
613
330
1F
100
AcDbEntity
  8
0
  6
Continuous
 62
     7
370
    15
100
AcDbLine
 10
242.1980529263
 20
68.0486723021
 30
0.0
 11
242.1980529263
 21
66.3343377007
 31
0.0
  0
LINE
  5
614
330
1F
100
AcDbEntity
  8
0
  6
Continuous
 62
     7
370
    15
100
AcDbLine
 10
228.2910872672
 20
66.4451680519
 30
0.0
 11
226.9814643394
 21
65.166935926
 31
0.0
  0
LINE
  5
615
330
1F
100
AcDbEntity
  8
0
  6
Continuous
 62
     7
370
    15
100
AcDbLine
 10
256.1050185853
 20
67.9378419509
 30
0.0
 11
256.1050185853
 21
67.8274834414
 31
0.0
  0
LINE
  5
616
330
1F
100
AcDbEntity
  8
0
  6
Continuous
 62
     7
370
    15
100
AcDbLine
 10
242.1980529263
 20
66.3343377007
 30
0.0
 11
240.7717561512
 21
64.9422283231
 31
0.0
  0
LINE
  5
617
330
1F
100
AcDbEntity
  8
0
  6
Continuous
 62
     7
370
    15
100
AcDbLine
 10
222.8076949128
 20
67.935436599
 30
0.0
 11
221.498071985
 21
66.657204473
 31
0.0
  0
LINE
  5
618
330
1F
100
AcDbEntity
  8
0
  6
Continuous
 62
     7
370
    15
100
AcDbLine
 10
250.6216262309
 20
67.7137758965
 30
0.0
 11
249.1953294559
 21
66.3216665189
 31
0.0
  0
LINE
  5
619
330
1F
100
AcDbEntity
  8
0
  6
Continuous
 62
     7
370
    15
100
AcDbLine
 10
250.6216262309
 20
69.4281104979
 30
0.0
 11
250.6216262309
 21
67.7137758965
 31
0.0
  0
LINE
  5
61A
330
1F
100
AcDbEntity
  8
0
  6
Continuous
 62
     7
370
    15
100
AcDbLine
 10
236.7146605719
 20
67.8246062477
 30
0.0
 11
235.2883637968
 21
66.4324968701
 31
0.0
  0
LINE
  5
61B
330
1F
100
AcDbEntity
  8
0
  6
Continuous
 62
     7
370
    15
100
AcDbLine
 10
188.97768315
 20
82.8119011142
 30
0.0
 11
188.97768315
 21
82.6875324767
 31
0.0
  0
LINE
  5
61C
330
1F
100
AcDbEntity
  8
0
  6
Continuous
 62
     7
370
    15
100
AcDbLine
 10
190.038984896
 20
85.8931742838
 30
0.0
 11
190.038984896
 21
85.7828157743
 31
0.0
  0
LINE
  5
61D
330
1F
100
AcDbEntity
  8
0
  6
Continuous
 62
     7
370
    15
100
AcDbLine
 10
190.3043103325
 20
84.106729914
 30
0.0
 11
190.3043103325
 21
85.8210645154
 31
0.0
  0
LINE
  5
61E
330
1F
100
AcDbEntity
  8
0
  6
Continuous
 62
     7
370
    15
100
AcDbLine
 10
195.7877026869
 20
82.6164613669
 30
0.0
 11
195.7877026869
 21
84.3307959683
 31
0.0
  0
LINE
  5
61F
330
1F
100
AcDbEntity
  8
0
  6
Continuous
 62
     7
370
    15
100
AcDbLine
 10
201.2710950413
 20
81.1261928199
 30
0.0
 11
201.2710950413
 21
82.8405274213
 31
0.0
  0
LINE
  5
620
330
1F
100
AcDbEntity
  8
0
  6
Continuous
 62
     7
370
    15
100
AcDbLine
 10
206.7544873957
 20
79.6359242729
 30
0.0
 11
206.7544873957
 21
81.3502588743
 31
0.0
  0
LINE
  5
621
330
1F
100
AcDbEntity
  8
0
  6
Continuous
 62
     7
370
    15
100
AcDbLine
 10
212.2378797501
 20
78.1456557258
 30
0.0
 11
212.2378797501
 21
79.8599903272
 31
0.0
  0
LINE
  5
622
330
1F
100
AcDbEntity
  8
0
  6
Continuous
 62
     7
370
    15
100
AcDbLine
 10
217.7212721045
 20
76.6553871788
 30
0.0
 11
217.7212721045
 21
78.3697217802
 31
0.0
  0
LINE
  5
623
330
1F
100
AcDbEntity
  8
0
  6
Continuous
 62
     7
370
    15
100
AcDbLine
 10
223.2046644589
 20
75.1651186317
 30
0.0
 11
223.2046644589
 21
76.8794532331
 31
0.0
  0
LINE
  5
624
330
1F
100
AcDbEntity
  8
0
  6
Continuous
 62
     7
370
    15
100
AcDbLine
 10
228.6880568133
 20
75.3891846861
 30
0.0
 11
228.6880568133
 21
73.6748500847
 31
0.0
  0
LINE
  5
625
330
1F
100
AcDbEntity
  8
0
  6
Continuous
 62
     7
370
    15
100
AcDbLine
 10
234.1714491677
 20
73.8989161391
 30
0.0
 11
234.1714491677
 21
72.1845815377
 31
0.0
  0
LINE
  5
626
330
1F
100
AcDbEntity
  8
0
  6
Continuous
 62
     7
370
    15
100
AcDbLine
 10
239.6548415221
 20
72.408647592
 30
0.0
 11
239.6548415221
 21
70.6943129906
 31
0.0
  0
LINE
  5
627
330
1F
100
AcDbEntity
  8
0
  6
Continuous
 62
     7
370
    15
100
AcDbLine
 10
245.1382338765
 20
70.918379045
 30
0.0
 11
245.1382338765
 21
69.2040444436
 31
0.0
  0
LINE
  5
628
330
1F
100
AcDbEntity
  8
0
  6
Continuous
 62
     7
370
    15
100
AcDbLine
 10
217.3243025584
 20
69.425705146
 30
0.0
 11
216.0146796306
 21
68.1474730201
 31
0.0
  0
LINE
  5
629
330
1F
100
AcDbEntity
  8
0
  6
Continuous
 62
     7
370
    15
100
AcDbLine
 10
259.0451995356
 20
70.8075486938
 30
0.0
 11
259.0451995356
 21
70.6971901843
 31
0.0
  0
LINE
  5
62A
330
1F
100
AcDbEntity
  8
0
  6
Continuous
 62
     7
370
    15
100
AcDbLine
 10
245.1382338765
 20
69.2040444436
 30
0.0
 11
243.7119371015
 21
67.8119350659
 31
0.0
  0
LINE
  5
62B
330
1F
100
AcDbEntity
  8
0
  6
Continuous
 62
     7
370
    15
100
AcDbLine
 10
231.2312682175
 20
69.3148747948
 30
0.0
 11
229.8049714424
 21
67.9227654172
 31
0.0
  0
LINE
  5
62C
330
1F
100
AcDbEntity
  8
0
  6
Continuous
 62
     7
370
    15
100
AcDbLine
 10
211.840910204
 20
70.915973693
 30
0.0
 11
210.5312872762
 21
69.6377415671
 31
0.0
  0
LINE
  5
62D
330
1F
100
AcDbEntity
  8
0
  6
Continuous
 62
     7
370
    15
100
AcDbLine
 10
253.5618071812
 20
70.5834826394
 30
0.0
 11
252.1355104061
 21
69.1913732618
 31
0.0
  0
LINE
  5
62E
330
1F
100
AcDbEntity
  8
0
  6
Continuous
 62
     7
370
    15
100
AcDbLine
 10
253.5618071812
 20
72.2978172408
 30
0.0
 11
253.5618071812
 21
70.5834826394
 31
0.0
  0
LINE
  5
62F
330
1F
100
AcDbEntity
  8
0
  6
Continuous
 62
     7
370
    15
100
AcDbLine
 10
239.6548415221
 20
70.6943129906
 30
0.0
 11
238.2285447471
 21
69.302203613
 31
0.0
  0
LINE
  5
630
330
1F
100
AcDbEntity
  8
0
  6
Continuous
 62
     7
370
    15
100
AcDbLine
 10
225.7478758631
 20
70.8051433418
 30
0.0
 11
224.321579088
 21
69.4130339642
 31
0.0
  0
LINE
  5
631
330
1F
100
AcDbEntity
  8
0
  6
Continuous
 62
     7
370
    15
100
AcDbLine
 10
191.9178641003
 20
85.6816078571
 30
0.0
 11
191.9178641003
 21
85.5572392196
 31
0.0
  0
LINE
  5
632
330
1F
100
AcDbEntity
  8
0
  6
Continuous
 62
     7
370
    15
100
AcDbLine
 10
192.9791658463
 20
88.7628810267
 30
0.0
 11
192.9791658463
 21
88.6525225172
 31
0.0
  0
LINE
  5
633
330
1F
100
AcDbEntity
  8
0
  6
Continuous
 62
     7
370
    15
100
AcDbLine
 10
193.2444912828
 20
86.9764366568
 30
0.0
 11
193.2444912828
 21
88.6907712582
 31
0.0
  0
LINE
  5
634
330
1F
100
AcDbEntity
  8
0
  6
Continuous
 62
     7
370
    15
100
AcDbLine
 10
198.7278836372
 20
85.4861681098
 30
0.0
 11
198.7278836372
 21
87.2005027112
 31
0.0
  0
LINE
  5
635
330
1F
100
AcDbEntity
  8
0
  6
Continuous
 62
     7
370
    15
100
AcDbLine
 10
204.2112759916
 20
83.9958995628
 30
0.0
 11
204.2112759916
 21
85.7102341642
 31
0.0
  0
LINE
  5
636
330
1F
100
AcDbEntity
  8
0
  6
Continuous
 62
     7
370
    15
100
AcDbLine
 10
209.694668346
 20
82.5056310157
 30
0.0
 11
209.694668346
 21
84.2199656171
 31
0.0
  0
LINE
  5
637
330
1F
100
AcDbEntity
  8
0
  6
Continuous
 62
     7
370
    15
100
AcDbLine
 10
215.1780607004
 20
81.0153624687
 30
0.0
 11
215.1780607004
 21
82.7296970701
 31
0.0
  0
LINE
  5
638
330
1F
100
AcDbEntity
  8
0
  6
Continuous
 62
     7
370
    15
100
AcDbLine
 10
220.6614530548
 20
79.5250939216
 30
0.0
 11
220.6614530548
 21
81.239428523
 31
0.0
  0
LINE
  5
639
330
1F
100
AcDbEntity
  8
0
  6
Continuous
 62
     7
370
    15
100
AcDbLine
 10
226.1448454092
 20
78.0348253746
 30
0.0
 11
226.1448454092
 21
79.749159976
 31
0.0
  0
LINE
  5
63A
330
1F
100
AcDbEntity
  8
0
  6
Continuous
 62
     7
370
    15
100
AcDbLine
 10
231.6282377636
 20
78.258891429
 30
0.0
 11
231.6282377636
 21
76.5445568276
 31
0.0
  0
LINE
  5
63B
330
1F
100
AcDbEntity
  8
0
  6
Continuous
 62
     7
370
    15
100
AcDbLine
 10
237.111630118
 20
76.7686228819
 30
0.0
 11
237.111630118
 21
75.0542882805
 31
0.0
  0
LINE
  5
63C
330
1F
100
AcDbEntity
  8
0
  6
Continuous
 62
     7
370
    15
100
AcDbLine
 10
242.5950224724
 20
75.2783543349
 30
0.0
 11
242.5950224724
 21
73.5640197335
 31
0.0
  0
LINE
  5
63D
330
1F
100
AcDbEntity
  8
0
  6
Continuous
 62
     7
370
    15
100
AcDbLine
 10
248.0784148268
 20
73.7880857878
 30
0.0
 11
248.0784148268
 21
72.0737511864
 31
0.0
  0
LINE
  5
63E
330
1F
100
AcDbEntity
  8
0
  6
Continuous
 62
     7
370
    15
100
AcDbLine
 10
261.9853804859
 20
73.6772554366
 30
0.0
 11
261.9853804859
 21
73.5668969272
 31
0.0
  0
LINE
  5
63F
330
1F
100
AcDbEntity
  8
0
  6
Continuous
 62
     7
370
    15
100
AcDbLine
 10
206.3575178496
 20
72.4062422401
 30
0.0
 11
205.0478949218
 21
71.1280101142
 31
0.0
  0
LINE
  5
640
330
1F
100
AcDbEntity
  8
0
  6
Continuous
 62
     7
370
    15
100
AcDbLine
 10
248.0784148268
 20
72.0737511864
 30
0.0
 11
246.6521180517
 21
70.6816418088
 31
0.0
  0
LINE
  5
641
330
1F
100
AcDbEntity
  8
0
  6
Continuous
 62
     7
370
    15
100
AcDbLine
 10
234.1714491677
 20
72.1845815377
 30
0.0
 11
232.7451523927
 21
70.79247216
 31
0.0
  0
LINE
  5
642
330
1F
100
AcDbEntity
  8
0
  6
Continuous
 62
     7
370
    15
100
AcDbLine
 10
220.2644835087
 20
72.2954118889
 30
0.0
 11
218.8381867336
 21
70.9033025112
 31
0.0
  0
LINE
  5
643
330
1F
100
AcDbEntity
  8
0
  6
Continuous
 62
     7
370
    15
100
AcDbLine
 10
256.5019881315
 20
73.4531893823
 30
0.0
 11
255.0756913564
 21
72.0610800046
 31
0.0
  0
LINE
  5
644
330
1F
100
AcDbEntity
  8
0
  6
Continuous
 62
     7
370
    15
100
AcDbLine
 10
256.5019881315
 20
75.1675239837
 30
0.0
 11
256.5019881315
 21
73.4531893823
 31
0.0
  0
LINE
  5
645
330
1F
100
AcDbEntity
  8
0
  6
Continuous
 62
     7
370
    15
100
AcDbLine
 10
200.8741254952
 20
73.8965107871
 30
0.0
 11
199.5645025674
 21
72.6182786612
 31
0.0
  0
LINE
  5
646
330
1F
100
AcDbEntity
  8
0
  6
Continuous
 62
     7
370
    15
100
AcDbLine
 10
242.5950224724
 20
73.5640197335
 30
0.0
 11
241.1687256973
 21
72.1719103559
 31
0.0
  0
LINE
  5
647
330
1F
100
AcDbEntity
  8
0
  6
Continuous
 62
     7
370
    15
100
AcDbLine
 10
228.6880568133
 20
73.6748500847
 30
0.0
 11
227.2617600383
 21
72.2827407071
 31
0.0
  0
LINE
  5
648
330
1F
100
AcDbEntity
  8
0
  6
Continuous
 62
     7
370
    15
100
AcDbLine
 10
214.7810911543
 20
73.7856804359
 30
0.0
 11
213.3547943792
 21
72.3935710583
 31
0.0
  0
LINE
  5
649
330
1F
100
AcDbEntity
  8
0
  6
Continuous
 62
     7
370
    15
100
AcDbLine
 10
194.8580450505
 20
88.5513145999
 30
0.0
 11
194.8580450505
 21
88.4269459625
 31
0.0
  0
LINE
  5
64A
330
1F
100
AcDbEntity
  8
0
  6
Continuous
 62
     7
370
    15
100
AcDbLine
 10
195.9193467966
 20
91.6325877695
 30
0.0
 11
195.9193467966
 21
91.5222292601
 31
0.0
  0
LINE
  5
64B
330
1F
100
AcDbEntity
  8
0
  6
Continuous
 62
     7
370
    15
100
AcDbLine
 10
196.1846722331
 20
89.8461433997
 30
0.0
 11
196.1846722331
 21
91.5604780011
 31
0.0
  0
LINE
  5
64C
330
1F
100
AcDbEntity
  8
0
  6
Continuous
 62
     7
370
    15
100
AcDbLine
 10
201.6680645875
 20
88.3558748527
 30
0.0
 11
201.6680645875
 21
90.0702094541
 31
0.0
  0
LINE
  5
64D
330
1F
100
AcDbEntity
  8
0
  6
Continuous
 62
     7
370
    15
100
AcDbLine
 10
207.1514569419
 20
86.8656063056
 30
0.0
 11
207.1514569419
 21
88.579940907
 31
0.0
  0
LINE
  5
64E
330
1F
100
AcDbEntity
  8
0
  6
Continuous
 62
     7
370
    15
100
AcDbLine
 10
212.6348492963
 20
85.3753377586
 30
0.0
 11
212.6348492963
 21
87.08967236
 31
0.0
  0
LINE
  5
64F
330
1F
100
AcDbEntity
  8
0
  6
Continuous
 62
     7
370
    15
100
AcDbLine
 10
218.1182416507
 20
83.8850692115
 30
0.0
 11
218.1182416507
 21
85.599403813
 31
0.0
  0
LINE
  5
650
330
1F
100
AcDbEntity
  8
0
  6
Continuous
 62
     7
370
    15
100
AcDbLine
 10
223.6016340051
 20
82.3948006645
 30
0.0
 11
223.6016340051
 21
84.1091352659
 31
0.0
  0
LINE
  5
651
330
1F
100
AcDbEntity
  8
0
  6
Continuous
 62
     7
370
    15
100
AcDbLine
 10
229.0850263595
 20
80.9045321175
 30
0.0
 11
229.0850263595
 21
82.6188667189
 31
0.0
  0
LINE
  5
652
330
1F
100
AcDbEntity
  8
0
  6
Continuous
 62
     7
370
    15
100
AcDbLine
 10
234.5684187139
 20
81.1285981718
 30
0.0
 11
234.5684187139
 21
79.4142635704
 31
0.0
  0
LINE
  5
653
330
1F
100
AcDbEntity
  8
0
  6
Continuous
 62
     7
370
    15
100
AcDbLine
 10
240.0518110683
 20
79.6383296248
 30
0.0
 11
240.0518110683
 21
77.9239950234
 31
0.0
  0
LINE
  5
654
330
1F
100
AcDbEntity
  8
0
  6
Continuous
 62
     7
370
    15
100
AcDbLine
 10
245.5352034227
 20
78.1480610778
 30
0.0
 11
245.5352034227
 21
76.4337264763
 31
0.0
  0
LINE
  5
655
330
1F
100
AcDbEntity
  8
0
  6
Continuous
 62
     7
370
    15
100
AcDbLine
 10
251.0185957771
 20
76.6577925307
 30
0.0
 11
251.0185957771
 21
74.9434579293
 31
0.0
  0
LINE
  5
656
330
1F
100
AcDbEntity
  8
0
  6
Continuous
 62
     7
370
    15
100
AcDbLine
 10
264.9255614361
 20
76.5469621795
 30
0.0
 11
264.9255614361
 21
76.43660367
 31
0.0
  0
LINE
  5
657
330
1F
100
AcDbEntity
  8
0
  6
Continuous
 62
     7
370
    15
100
AcDbLine
 10
251.0185957771
 20
74.9434579293
 30
0.0
 11
249.592299002
 21
73.5513485517
 31
0.0
  0
LINE
  5
658
330
1F
100
AcDbEntity
  8
0
  6
Continuous
 62
     7
370
    15
100
AcDbLine
 10
195.3907331408
 20
75.3867793342
 30
0.0
 11
194.081110213
 21
74.1085472082
 31
0.0
  0
LINE
  5
659
330
1F
100
AcDbEntity
  8
0
  6
Continuous
 62
     7
370
    15
100
AcDbLine
 10
237.111630118
 20
75.0542882805
 30
0.0
 11
235.6853333429
 21
73.6621789029
 31
0.0
  0
LINE
  5
65A
330
1F
100
AcDbEntity
  8
0
  6
Continuous
 62
     7
370
    15
100
AcDbLine
 10
223.2046644589
 20
75.1651186317
 30
0.0
 11
221.7783676839
 21
73.7730092541
 31
0.0
  0
LINE
  5
65B
330
1F
100
AcDbEntity
  8
0
  6
Continuous
 62
     7
370
    15
100
AcDbLine
 10
209.2976987999
 20
75.2759489829
 30
0.0
 11
207.8714020248
 21
73.8838396053
 31
0.0
  0
LINE
  5
65C
330
1F
100
AcDbEntity
  8
0
  6
Continuous
 62
     7
370
    15
100
AcDbLine
 10
259.4421690817
 20
76.3228961251
 30
0.0
 11
258.0158723066
 21
74.9307867475
 31
0.0
  0
LINE
  5
65D
330
1F
100
AcDbEntity
  8
0
  6
Continuous
 62
     7
370
    15
100
AcDbLine
 10
259.4421690817
 20
78.0372307265
 30
0.0
 11
259.4421690817
 21
76.3228961251
 31
0.0
  0
LINE
  5
65E
330
1F
100
AcDbEntity
  8
0
  6
Continuous
 62
     7
370
    15
100
AcDbLine
 10
245.5352034227
 20
76.4337264763
 30
0.0
 11
244.1089066476
 21
75.0416170987
 31
0.0
  0
LINE
  5
65F
330
1F
100
AcDbEntity
  8
0
  6
Continuous
 62
     7
370
    15
100
AcDbLine
 10
189.9073407864
 20
76.8770478812
 30
0.0
 11
188.5977178586
 21
75.5988157553
 31
0.0
  0
LINE
  5
660
330
1F
100
AcDbEntity
  8
0
  6
Continuous
 62
     7
370
    15
100
AcDbLine
 10
231.6282377636
 20
76.5445568276
 30
0.0
 11
230.2019409885
 21
75.1524474499
 31
0.0
  0
LINE
  5
661
330
1F
100
AcDbEntity
  8
0
  6
Continuous
 62
     7
370
    15
100
AcDbLine
 10
217.7212721045
 20
76.6553871788
 30
0.0
 11
216.2949753295
 21
75.2632778011
 31
0.0
  0
LINE
  5
662
330
1F
100
AcDbEntity
  8
0
  6
Continuous
 62
     7
370
    15
100
AcDbLine
 10
203.8143064455
 20
76.76621753
 30
0.0
 11
202.3880096704
 21
75.3741081524
 31
0.0
  0
LINE
  5
663
330
1F
100
AcDbEntity
  8
0
  6
Continuous
 62
     7
370
    15
100
AcDbLine
 10
197.7982260008
 20
91.4210213428
 30
0.0
 11
197.7982260008
 21
91.2966527053
 31
0.0
  0
LINE
  5
664
330
1F
100
AcDbEntity
  8
0
  6
Continuous
 62
     7
370
    15
100
AcDbLine
 10
198.8595277468
 20
94.5022945124
 30
0.0
 11
198.8595277468
 21
94.3919360029
 31
0.0
  0
LINE
  5
665
330
1F
100
AcDbEntity
  8
0
  6
Continuous
 62
     7
370
    15
100
AcDbLine
 10
199.1248531833
 20
92.7158501426
 30
0.0
 11
199.1248531833
 21
94.430184744
 31
0.0
  0
LINE
  5
666
330
1F
100
AcDbEntity
  8
0
  6
Continuous
 62
     7
370
    15
100
AcDbLine
 10
204.6082455377
 20
91.2255815955
 30
0.0
 11
204.6082455377
 21
92.9399161969
 31
0.0
  0
LINE
  5
667
330
1F
100
AcDbEntity
  8
0
  6
Continuous
 62
     7
370
    15
100
AcDbLine
 10
210.0916378921
 20
89.7353130485
 30
0.0
 11
210.0916378921
 21
91.4496476499
 31
0.0
  0
LINE
  5
668
330
1F
100
AcDbEntity
  8
0
  6
Continuous
 62
     7
370
    15
100
AcDbLine
 10
215.5750302465
 20
88.2450445015
 30
0.0
 11
215.5750302465
 21
89.9593791029
 31
0.0
  0
LINE
  5
669
330
1F
100
AcDbEntity
  8
0
  6
Continuous
 62
     7
370
    15
100
AcDbLine
 10
221.0584226009
 20
86.7547759544
 30
0.0
 11
221.0584226009
 21
88.4691105558
 31
0.0
  0
LINE
  5
66A
330
1F
100
AcDbEntity
  8
0
  6
Continuous
 62
     7
370
    15
100
AcDbLine
 10
226.5418149553
 20
85.2645074074
 30
0.0
 11
226.5418149553
 21
86.9788420088
 31
0.0
  0
LINE
  5
66B
330
1F
100
AcDbEntity
  8
0
  6
Continuous
 62
     7
370
    15
100
AcDbLine
 10
232.0252073097
 20
83.7742388603
 30
0.0
 11
232.0252073097
 21
85.4885734617
 31
0.0
  0
LINE
  5
66C
330
1F
100
AcDbEntity
  8
0
  6
Continuous
 62
     7
370
    15
100
AcDbLine
 10
237.5085996641
 20
83.9983049147
 30
0.0
 11
237.5085996641
 21
82.2839703133
 31
0.0
  0
LINE
  5
66D
330
1F
100
AcDbEntity
  8
0
  6
Continuous
 62
     7
370
    15
100
AcDbLine
 10
242.9919920185
 20
82.5080363677
 30
0.0
 11
242.9919920185
 21
80.7937017663
 31
0.0
  0
LINE
  5
66E
330
1F
100
AcDbEntity
  8
0
  6
Continuous
 62
     7
370
    15
100
AcDbLine
 10
248.4753843729
 20
81.0177678206
 30
0.0
 11
248.4753843729
 21
79.3034332192
 31
0.0
  0
LINE
  5
66F
330
1F
100
AcDbEntity
  8
0
  6
Continuous
 62
     7
370
    15
100
AcDbLine
 10
253.9587767273
 20
79.5274992736
 30
0.0
 11
253.9587767273
 21
77.8131646722
 31
0.0
  0
LINE
  5
670
330
1F
100
AcDbEntity
  8
0
  6
Continuous
 62
     7
370
    15
100
AcDbLine
 10
267.8657423864
 20
79.3063104129
 30
0.0
 11
267.8657423864
 21
79.4166689224
 31
0.0
  0
LINE
  5
671
330
1F
100
AcDbEntity
  8
0
  6
Continuous
 62
     7
370
    15
100
AcDbLine
 10
253.9587767273
 20
77.8131646722
 30
0.0
 11
252.5324799522
 21
76.4210552945
 31
0.0
  0
LINE
  5
672
330
1F
100
AcDbEntity
  8
0
  6
Continuous
 62
     7
370
    15
100
AcDbLine
 10
240.0518110683
 20
77.9239950234
 30
0.0
 11
238.6255142932
 21
76.5318856458
 31
0.0
  0
LINE
  5
673
330
1F
100
AcDbEntity
  8
0
  6
Continuous
 62
     7
370
    15
100
AcDbLine
 10
184.423948432
 20
78.3673164282
 30
0.0
 11
183.1143255042
 21
77.0890843023
 31
0.0
  0
LINE
  5
674
330
1F
100
AcDbEntity
  8
0
  6
Continuous
 62
     7
370
    15
100
AcDbLine
 10
226.1448454092
 20
78.0348253746
 30
0.0
 11
224.7185486341
 21
76.642715997
 31
0.0
  0
LINE
  5
675
330
1F
100
AcDbEntity
  8
0
  6
Continuous
 62
     7
370
    15
100
AcDbLine
 10
212.2378797501
 20
78.1456557258
 30
0.0
 11
210.8115829751
 21
76.7535463482
 31
0.0
  0
LINE
  5
676
330
1F
100
AcDbEntity
  8
0
  6
Continuous
 62
     7
370
    15
100
AcDbLine
 10
198.3309140911
 20
78.256486077
 30
0.0
 11
196.904617316
 21
76.8643766994
 31
0.0
  0
LINE
  5
677
330
1F
100
AcDbEntity
  8
0
  6
Continuous
 62
     7
370
    15
100
AcDbLine
 10
262.382350032
 20
79.192602868
 30
0.0
 11
262.382350032
 21
80.9069374694
 31
0.0
  0
LINE
  5
678
330
1F
100
AcDbEntity
  8
0
  6
Continuous
 62
     7
370
    15
100
AcDbLine
 10
262.382350032
 20
79.192602868
 30
0.0
 11
260.9560532569
 21
77.8004934904
 31
0.0
  0
LINE
  5
679
330
1F
100
AcDbEntity
  8
0
  6
Continuous
 62
     7
370
    15
100
AcDbLine
 10
248.4753843729
 20
79.3034332192
 30
0.0
 11
247.0490875978
 21
77.9113238416
 31
0.0
  0
LINE
  5
67A
330
1F
100
AcDbEntity
  8
0
  6
Continuous
 62
     7
370
    15
100
AcDbLine
 10
234.5684187139
 20
79.4142635704
 30
0.0
 11
233.1421219388
 21
78.0221541928
 31
0.0
  0
LINE
  5
67B
330
1F
100
AcDbEntity
  8
0
  6
Continuous
 62
     7
370
    15
100
AcDbLine
 10
220.6614530548
 20
79.5250939216
 30
0.0
 11
219.2351562797
 21
78.132984544
 31
0.0
  0
LINE
  5
67C
330
1F
100
AcDbEntity
  8
0
  6
Continuous
 62
     7
370
    15
100
AcDbLine
 10
206.7544873957
 20
79.6359242729
 30
0.0
 11
205.3281906207
 21
78.2438148952
 31
0.0
  0
LINE
  5
67D
330
1F
100
AcDbEntity
  8
0
  6
Continuous
 62
     7
370
    15
100
AcDbLine
 10
192.8475217367
 20
79.7467546241
 30
0.0
 11
191.4212249616
 21
78.3546452464
 31
0.0
  0
LINE
  5
67E
330
1F
100
AcDbEntity
  8
0
  6
Continuous
 62
     7
370
    15
100
AcDbLine
 10
200.7384069511
 20
94.1663594482
 30
0.0
 11
200.7384069511
 21
94.2907280857
 31
0.0
  0
LINE
  5
67F
330
1F
100
AcDbEntity
  8
0
  6
Continuous
 62
     7
370
    15
100
AcDbLine
 10
201.7997086971
 20
97.2616427458
 30
0.0
 11
201.7997086971
 21
97.3720012553
 31
0.0
  0
LINE
  5
680
330
1F
100
AcDbEntity
  8
0
  6
Continuous
 62
     7
370
    15
100
AcDbLine
 10
202.0650341336
 20
97.2998914868
 30
0.0
 11
202.0650341336
 21
95.5855568854
 31
0.0
  0
LINE
  5
681
330
1F
100
AcDbEntity
  8
0
  6
Continuous
 62
     7
370
    15
100
AcDbLine
 10
207.548426488
 20
95.8096229398
 30
0.0
 11
207.548426488
 21
94.0952883384
 31
0.0
  0
LINE
  5
682
330
1F
100
AcDbEntity
  8
0
  6
Continuous
 62
     7
370
    15
100
AcDbLine
 10
213.0318188424
 20
94.3193543928
 30
0.0
 11
213.0318188424
 21
92.6050197914
 31
0.0
  0
LINE
  5
683
330
1F
100
AcDbEntity
  8
0
  6
Continuous
 62
     7
370
    15
100
AcDbLine
 10
218.5152111968
 20
92.8290858457
 30
0.0
 11
218.5152111968
 21
91.1147512443
 31
0.0
  0
LINE
  5
684
330
1F
100
AcDbEntity
  8
0
  6
Continuous
 62
     7
370
    15
100
AcDbLine
 10
223.9986035512
 20
91.3388172987
 30
0.0
 11
223.9986035512
 21
89.6244826973
 31
0.0
  0
LINE
  5
685
330
1F
100
AcDbEntity
  8
0
  6
Continuous
 62
     7
370
    15
100
AcDbLine
 10
229.4819959056
 20
89.8485487516
 30
0.0
 11
229.4819959056
 21
88.1342141502
 31
0.0
  0
LINE
  5
686
330
1F
100
AcDbEntity
  8
0
  6
Continuous
 62
     7
370
    15
100
AcDbLine
 10
234.96538826
 20
88.3582802046
 30
0.0
 11
234.96538826
 21
86.6439456032
 31
0.0
  0
LINE
  5
687
330
1F
100
AcDbEntity
  8
0
  6
Continuous
 62
     7
370
    15
100
AcDbLine
 10
240.4487806144
 20
85.1536770562
 30
0.0
 11
240.4487806144
 21
86.8680116576
 31
0.0
  0
LINE
  5
688
330
1F
100
AcDbEntity
  8
0
  6
Continuous
 62
     7
370
    15
100
AcDbLine
 10
245.9321729688
 20
83.6634085091
 30
0.0
 11
245.9321729688
 21
85.3777431105
 31
0.0
  0
LINE
  5
689
330
1F
100
AcDbEntity
  8
0
  6
Continuous
 62
     7
370
    15
100
AcDbLine
 10
251.4155653232
 20
82.1731399621
 30
0.0
 11
251.4155653232
 21
83.8874745635
 31
0.0
  0
LINE
  5
68A
330
1F
100
AcDbEntity
  8
0
  6
Continuous
 62
     7
370
    15
100
AcDbLine
 10
256.8989576776
 20
80.682871415
 30
0.0
 11
256.8989576776
 21
82.3972060164
 31
0.0
  0
LINE
  5
68B
330
1F
100
AcDbEntity
  8
0
  6
Continuous
 62
     7
370
    15
100
AcDbLine
 10
270.8059233366
 20
82.1760171558
 30
0.0
 11
270.8059233366
 21
82.2863756652
 31
0.0
  0
LINE
  5
68C
330
1F
100
AcDbEntity
  8
0
  6
Continuous
 62
     7
370
    15
100
AcDbLine
 10
256.8989576776
 20
80.682871415
 30
0.0
 11
255.4726609025
 21
79.2907620374
 31
0.0
  0
LINE
  5
68D
330
1F
100
AcDbEntity
  8
0
  6
Continuous
 62
     7
370
    15
100
AcDbLine
 10
242.9919920185
 20
80.7937017663
 30
0.0
 11
241.5656952434
 21
79.4015923886
 31
0.0
  0
LINE
  5
68E
330
1F
100
AcDbEntity
  8
0
  6
Continuous
 62
     7
370
    15
100
AcDbLine
 10
229.0850263595
 20
80.9045321175
 30
0.0
 11
227.6587295844
 21
79.5124227398
 31
0.0
  0
LINE
  5
68F
330
1F
100
AcDbEntity
  8
0
  6
Continuous
 62
     7
370
    15
100
AcDbLine
 10
215.1780607004
 20
81.0153624687
 30
0.0
 11
213.7517639253
 21
79.6232530911
 31
0.0
  0
LINE
  5
690
330
1F
100
AcDbEntity
  8
0
  6
Continuous
 62
     7
370
    15
100
AcDbLine
 10
201.2710950413
 20
81.1261928199
 30
0.0
 11
199.8447982663
 21
79.7340834423
 31
0.0
  0
LINE
  5
691
330
1F
100
AcDbEntity
  8
0
  6
Continuous
 62
     7
370
    15
100
AcDbLine
 10
187.3641293823
 20
81.2370231711
 30
0.0
 11
185.9378326072
 21
79.8449137935
 31
0.0
  0
LINE
  5
692
330
1F
100
AcDbEntity
  8
0
  6
Continuous
 62
     7
370
    15
100
AcDbLine
 10
265.3225309822
 20
82.0623096109
 30
0.0
 11
265.3225309822
 21
83.7766442123
 31
0.0
  0
LINE
  5
693
330
1F
100
AcDbEntity
  8
0
  6
Continuous
 62
     7
370
    15
100
AcDbLine
 10
265.3225309822
 20
82.0623096109
 30
0.0
 11
263.8962342072
 21
80.6702002332
 31
0.0
  0
LINE
  5
694
330
1F
100
AcDbEntity
  8
0
  6
Continuous
 62
     7
370
    15
100
AcDbLine
 10
251.4155653232
 20
82.1731399621
 30
0.0
 11
249.9892685481
 21
80.7810305845
 31
0.0
  0
LINE
  5
695
330
1F
100
AcDbEntity
  8
0
  6
Continuous
 62
     7
370
    15
100
AcDbLine
 10
237.5085996641
 20
82.2839703133
 30
0.0
 11
236.082302889
 21
80.8918609357
 31
0.0
  0
LINE
  5
696
330
1F
100
AcDbEntity
  8
0
  6
Continuous
 62
     7
370
    15
100
AcDbLine
 10
223.6016340051
 20
82.3948006645
 30
0.0
 11
222.17533723
 21
81.0026912869
 31
0.0
  0
LINE
  5
697
330
1F
100
AcDbEntity
  8
0
  6
Continuous
 62
     7
370
    15
100
AcDbLine
 10
209.694668346
 20
82.5056310157
 30
0.0
 11
208.2683715709
 21
81.1135216381
 31
0.0
  0
LINE
  5
698
330
1F
100
AcDbEntity
  8
0
  6
Continuous
 62
     7
370
    15
100
AcDbLine
 10
195.7877026869
 20
82.6164613669
 30
0.0
 11
194.3614059119
 21
81.2243519893
 31
0.0
  0
LINE
  5
699
330
1F
100
AcDbEntity
  8
0
  6
Continuous
 62
     7
370
    15
100
AcDbLine
 10
203.6785879013
 20
97.0360661911
 30
0.0
 11
203.6785879013
 21
97.1604348285
 31
0.0
  0
LINE
  5
69A
330
1F
100
AcDbEntity
  8
0
  6
Continuous
 62
     7
370
    15
100
AcDbLine
 10
204.7398896473
 20
100.1313494887
 30
0.0
 11
204.7398896473
 21
100.2417079981
 31
0.0
  0
LINE
  5
69B
330
1F
100
AcDbEntity
  8
0
  6
Continuous
 62
     7
370
    15
100
AcDbLine
 10
205.0052150838
 20
100.1695982297
 30
0.0
 11
205.0052150838
 21
98.4552636283
 31
0.0
  0
LINE
  5
69C
330
1F
100
AcDbEntity
  8
0
  6
Continuous
 62
     7
370
    15
100
AcDbLine
 10
210.4886074382
 20
98.6793296827
 30
0.0
 11
210.4886074382
 21
96.9649950813
 31
0.0
  0
LINE
  5
69D
330
1F
100
AcDbEntity
  8
0
  6
Continuous
 62
     7
370
    15
100
AcDbLine
 10
215.9719997926
 20
97.1890611356
 30
0.0
 11
215.9719997926
 21
95.4747265342
 31
0.0
  0
LINE
  5
69E
330
1F
100
AcDbEntity
  8
0
  6
Continuous
 62
     7
370
    15
100
AcDbLine
 10
221.455392147
 20
95.6987925886
 30
0.0
 11
221.455392147
 21
93.9844579872
 31
0.0
  0
LINE
  5
69F
330
1F
100
AcDbEntity
  8
0
  6
Continuous
 62
     7
370
    15
100
AcDbLine
 10
226.9387845014
 20
94.2085240416
 30
0.0
 11
226.9387845014
 21
92.4941894401
 31
0.0
  0
LINE
  5
6A0
330
1F
100
AcDbEntity
  8
0
  6
Continuous
 62
     7
370
    15
100
AcDbLine
 10
232.4221768558
 20
92.7182554945
 30
0.0
 11
232.4221768558
 21
91.0039208931
 31
0.0
  0
LINE
  5
6A1
330
1F
100
AcDbEntity
  8
0
  6
Continuous
 62
     7
370
    15
100
AcDbLine
 10
237.9055692102
 20
91.2279869475
 30
0.0
 11
237.9055692102
 21
89.5136523461
 31
0.0
  0
LINE
  5
6A2
330
1F
100
AcDbEntity
  8
0
  6
Continuous
 62
     7
370
    15
100
AcDbLine
 10
243.3889615646
 20
88.023383799
 30
0.0
 11
243.3889615646
 21
89.7377184004
 31
0.0
  0
LINE
  5
6A3
330
1F
100
AcDbEntity
  8
0
  6
Continuous
 62
     7
370
    15
100
AcDbLine
 10
248.872353919
 20
86.533115252
 30
0.0
 11
248.872353919
 21
88.2474498534
 31
0.0
  0
LINE
  5
6A4
330
1F
100
AcDbEntity
  8
0
  6
Continuous
 62
     7
370
    15
100
AcDbLine
 10
254.3557462734
 20
85.0428467049
 30
0.0
 11
254.3557462734
 21
86.7571813064
 31
0.0
  0
LINE
  5
6A5
330
1F
100
AcDbEntity
  8
0
  6
Continuous
 62
     7
370
    15
100
AcDbLine
 10
259.8391386278
 20
83.5525781579
 30
0.0
 11
259.8391386278
 21
85.2669127593
 31
0.0
  0
LINE
  5
6A6
330
1F
100
AcDbEntity
  8
0
  6
Continuous
 62
     7
370
    15
100
AcDbLine
 10
273.7461042869
 20
85.0457238986
 30
0.0
 11
273.7461042869
 21
85.1560824081
 31
0.0
  0
LINE
  5
6A7
330
1F
100
AcDbEntity
  8
0
  6
Continuous
 62
     7
370
    15
100
AcDbLine
 10
259.8391386278
 20
83.5525781579
 30
0.0
 11
258.4128418528
 21
82.1604687803
 31
0.0
  0
LINE
  5
6A8
330
1F
100
AcDbEntity
  8
0
  6
Continuous
 62
     7
370
    15
100
AcDbLine
 10
245.9321729688
 20
83.6634085091
 30
0.0
 11
244.5058761937
 21
82.2712991315
 31
0.0
  0
LINE
  5
6A9
330
1F
100
AcDbEntity
  8
0
  6
Continuous
 62
     7
370
    15
100
AcDbLine
 10
232.0252073097
 20
83.7742388603
 30
0.0
 11
230.5989105346
 21
82.3821294827
 31
0.0
  0
LINE
  5
6AA
330
1F
100
AcDbEntity
  8
0
  6
Continuous
 62
     7
370
    15
100
AcDbLine
 10
218.1182416507
 20
83.8850692115
 30
0.0
 11
216.6919448756
 21
82.4929598339
 31
0.0
  0
LINE
  5
6AB
330
1F
100
AcDbEntity
  8
0
  6
Continuous
 62
     7
370
    15
100
AcDbLine
 10
204.2112759916
 20
83.9958995628
 30
0.0
 11
202.7849792165
 21
82.6037901851
 31
0.0
  0
LINE
  5
6AC
330
1F
100
AcDbEntity
  8
0
  6
Continuous
 62
     7
370
    15
100
AcDbLine
 10
190.3043103325
 20
84.106729914
 30
0.0
 11
188.8780135575
 21
82.7146205363
 31
0.0
  0
LINE
  5
6AD
330
1F
100
AcDbEntity
  8
0
  6
Continuous
 62
     7
370
    15
100
AcDbLine
 10
268.2627119325
 20
84.9320163537
 30
0.0
 11
268.2627119325
 21
86.6463509551
 31
0.0
  0
LINE
  5
6AE
330
1F
100
AcDbEntity
  8
0
  6
Continuous
 62
     7
370
    15
100
AcDbLine
 10
268.2627119325
 20
84.9320163537
 30
0.0
 11
266.8364151574
 21
83.5399069761
 31
0.0
  0
LINE
  5
6AF
330
1F
100
AcDbEntity
  8
0
  6
Continuous
 62
     7
370
    15
100
AcDbLine
 10
254.3557462734
 20
85.0428467049
 30
0.0
 11
252.9294494984
 21
83.6507373273
 31
0.0
  0
LINE
  5
6B0
330
1F
100
AcDbEntity
  8
0
  6
Continuous
 62
     7
370
    15
100
AcDbLine
 10
240.4487806144
 20
85.1536770562
 30
0.0
 11
239.0224838393
 21
83.7615676785
 31
0.0
  0
LINE
  5
6B1
330
1F
100
AcDbEntity
  8
0
  6
Continuous
 62
     7
370
    15
100
AcDbLine
 10
226.5418149553
 20
85.2645074074
 30
0.0
 11
225.1155181802
 21
83.8723980297
 31
0.0
  0
LINE
  5
6B2
330
1F
100
AcDbEntity
  8
0
  6
Continuous
 62
     7
370
    15
100
AcDbLine
 10
212.6348492963
 20
85.3753377586
 30
0.0
 11
211.2085525212
 21
83.983228381
 31
0.0
  0
LINE
  5
6B3
330
1F
100
AcDbEntity
  8
0
  6
Continuous
 62
     7
370
    15
100
AcDbLine
 10
198.7278836372
 20
85.4861681098
 30
0.0
 11
197.3015868621
 21
84.0940587322
 31
0.0
  0
LINE
  5
6B4
330
1F
100
AcDbEntity
  8
0
  6
Continuous
 62
     7
370
    15
100
AcDbLine
 10
206.6187688516
 20
99.905772934
 30
0.0
 11
206.6187688516
 21
100.0301415714
 31
0.0
  0
LINE
  5
6B5
330
1F
100
AcDbEntity
  8
0
  6
Continuous
 62
     7
370
    15
100
AcDbLine
 10
207.6800705976
 20
103.0010562315
 30
0.0
 11
207.6800705976
 21
103.111414741
 31
0.0
  0
LINE
  5
6B6
330
1F
100
AcDbEntity
  8
0
  6
Continuous
 62
     7
370
    15
100
AcDbLine
 10
207.9453960341
 20
103.0393049726
 30
0.0
 11
207.9453960341
 21
101.3249703712
 31
0.0
  0
LINE
  5
6B7
330
1F
100
AcDbEntity
  8
0
  6
Continuous
 62
     7
370
    15
100
AcDbLine
 10
213.4287883885
 20
101.5490364255
 30
0.0
 11
213.4287883885
 21
99.8347018241
 31
0.0
  0
LINE
  5
6B8
330
1F
100
AcDbEntity
  8
0
  6
Continuous
 62
     7
370
    15
100
AcDbLine
 10
218.9121807429
 20
100.0587678785
 30
0.0
 11
218.9121807429
 21
98.3444332771
 31
0.0
  0
LINE
  5
6B9
330
1F
100
AcDbEntity
  8
0
  6
Continuous
 62
     7
370
    15
100
AcDbLine
 10
224.3955730973
 20
98.5684993315
 30
0.0
 11
224.3955730973
 21
96.8541647301
 31
0.0
  0
LINE
  5
6BA
330
1F
100
AcDbEntity
  8
0
  6
Continuous
 62
     7
370
    15
100
AcDbLine
 10
229.8789654517
 20
97.0782307844
 30
0.0
 11
229.8789654517
 21
95.363896183
 31
0.0
  0
LINE
  5
6BB
330
1F
100
AcDbEntity
  8
0
  6
Continuous
 62
     7
370
    15
100
AcDbLine
 10
235.3623578061
 20
95.5879622374
 30
0.0
 11
235.3623578061
 21
93.873627636
 31
0.0
  0
LINE
  5
6BC
330
1F
100
AcDbEntity
  8
0
  6
Continuous
 62
     7
370
    15
100
AcDbLine
 10
240.8457501605
 20
94.0976936903
 30
0.0
 11
240.8457501605
 21
92.3833590889
 31
0.0
  0
LINE
  5
6BD
330
1F
100
AcDbEntity
  8
0
  6
Continuous
 62
     7
370
    15
100
AcDbLine
 10
246.3291425149
 20
90.8930905419
 30
0.0
 11
246.3291425149
 21
92.6074251433
 31
0.0
  0
LINE
  5
6BE
330
1F
100
AcDbEntity
  8
0
  6
Continuous
 62
     7
370
    15
100
AcDbLine
 10
251.8125348693
 20
89.4028219949
 30
0.0
 11
251.8125348693
 21
91.1171565963
 31
0.0
  0
LINE
  5
6BF
330
1F
100
AcDbEntity
  8
0
  6
Continuous
 62
     7
370
    15
100
AcDbLine
 10
257.2959272237
 20
87.9125534478
 30
0.0
 11
257.2959272237
 21
89.6268880492
 31
0.0
  0
LINE
  5
6C0
330
1F
100
AcDbEntity
  8
0
  6
Continuous
 62
     7
370
    15
100
AcDbLine
 10
262.7793195781
 20
86.4222849008
 30
0.0
 11
262.7793195781
 21
88.1366195022
 31
0.0
  0
LINE
  5
6C1
330
1F
100
AcDbEntity
  8
0
  6
Continuous
 62
     7
370
    15
100
AcDbLine
 10
276.6862852372
 20
87.9154306415
 30
0.0
 11
276.6862852372
 21
88.025789151
 31
0.0
  0
LINE
  5
6C2
330
1F
100
AcDbEntity
  8
0
  6
Continuous
 62
     7
370
    15
100
AcDbLine
 10
262.7793195781
 20
86.4222849008
 30
0.0
 11
261.353022803
 21
85.0301755231
 31
0.0
  0
LINE
  5
6C3
330
1F
100
AcDbEntity
  8
0
  6
Continuous
 62
     7
370
    15
100
AcDbLine
 10
248.872353919
 20
86.533115252
 30
0.0
 11
247.446057144
 21
85.1410058744
 31
0.0
  0
LINE
  5
6C4
330
1F
100
AcDbEntity
  8
0
  6
Continuous
 62
     7
370
    15
100
AcDbLine
 10
234.96538826
 20
86.6439456032
 30
0.0
 11
233.5390914849
 21
85.2518362256
 31
0.0
  0
LINE
  5
6C5
330
1F
100
AcDbEntity
  8
0
  6
Continuous
 62
     7
370
    15
100
AcDbLine
 10
221.0584226009
 20
86.7547759544
 30
0.0
 11
219.6321258258
 21
85.3626665768
 31
0.0
  0
LINE
  5
6C6
330
1F
100
AcDbEntity
  8
0
  6
Continuous
 62
     7
370
    15
100
AcDbLine
 10
207.1514569419
 20
86.8656063056
 30
0.0
 11
205.7251601668
 21
85.473496928
 31
0.0
  0
LINE
  5
6C7
330
1F
100
AcDbEntity
  8
0
  6
Continuous
 62
     7
370
    15
100
AcDbLine
 10
193.2444912828
 20
86.9764366568
 30
0.0
 11
191.8181945077
 21
85.5843272792
 31
0.0
  0
LINE
  5
6C8
330
1F
100
AcDbEntity
  8
0
  6
Continuous
 62
     7
370
    15
100
AcDbLine
 10
271.2028928828
 20
87.8017230966
 30
0.0
 11
271.2028928828
 21
89.516057698
 31
0.0
  0
LINE
  5
6C9
330
1F
100
AcDbEntity
  8
0
  6
Continuous
 62
     7
370
    15
100
AcDbLine
 10
271.2028928828
 20
87.8017230966
 30
0.0
 11
269.7765961077
 21
86.409613719
 31
0.0
  0
LINE
  5
6CA
330
1F
100
AcDbEntity
  8
0
  6
Continuous
 62
     7
370
    15
100
AcDbLine
 10
257.2959272237
 20
87.9125534478
 30
0.0
 11
255.8696304486
 21
86.5204440702
 31
0.0
  0
LINE
  5
6CB
330
1F
100
AcDbEntity
  8
0
  6
Continuous
 62
     7
370
    15
100
AcDbLine
 10
243.3889615646
 20
88.023383799
 30
0.0
 11
241.9626647896
 21
86.6312744214
 31
0.0
  0
LINE
  5
6CC
330
1F
100
AcDbEntity
  8
0
  6
Continuous
 62
     7
370
    15
100
AcDbLine
 10
229.4819959056
 20
88.1342141502
 30
0.0
 11
228.0556991305
 21
86.7421047726
 31
0.0
  0
LINE
  5
6CD
330
1F
100
AcDbEntity
  8
0
  6
Continuous
 62
     7
370
    15
100
AcDbLine
 10
215.5750302465
 20
88.2450445015
 30
0.0
 11
214.1487334714
 21
86.8529351238
 31
0.0
  0
LINE
  5
6CE
330
1F
100
AcDbEntity
  8
0
  6
Continuous
 62
     7
370
    15
100
AcDbLine
 10
201.6680645875
 20
88.3558748527
 30
0.0
 11
200.2417678124
 21
86.963765475
 31
0.0
  0
LINE
  5
6CF
330
1F
100
AcDbEntity
  8
0
  6
Continuous
 62
     7
370
    15
100
AcDbLine
 10
209.5589498018
 20
102.7754796768
 30
0.0
 11
209.5589498018
 21
102.8998483143
 31
0.0
  0
LINE
  5
6D0
330
1F
100
AcDbEntity
  8
0
  6
Continuous
 62
     7
370
    15
100
AcDbLine
 10
210.6202515479
 20
105.8707629744
 30
0.0
 11
210.6202515479
 21
105.9811214839
 31
0.0
  0
LINE
  5
6D1
330
1F
100
AcDbEntity
  8
0
  6
Continuous
 62
     7
370
    15
100
AcDbLine
 10
210.8855769844
 20
105.9090117154
 30
0.0
 11
210.8855769844
 21
104.194677114
 31
0.0
  0
LINE
  5
6D2
330
1F
100
AcDbEntity
  8
0
  6
Continuous
 62
     7
370
    15
100
AcDbLine
 10
216.3689693388
 20
104.4187431684
 30
0.0
 11
216.3689693388
 21
102.704408567
 31
0.0
  0
LINE
  5
6D3
330
1F
100
AcDbEntity
  8
0
  6
Continuous
 62
     7
370
    15
100
AcDbLine
 10
221.8523616932
 20
102.9284746214
 30
0.0
 11
221.8523616932
 21
101.21414002
 31
0.0
  0
LINE
  5
6D4
330
1F
100
AcDbEntity
  8
0
  6
Continuous
 62
     7
370
    15
100
AcDbLine
 10
227.3357540476
 20
101.4382060743
 30
0.0
 11
227.3357540476
 21
99.7238714729
 31
0.0
  0
LINE
  5
6D5
330
1F
100
AcDbEntity
  8
0
  6
Continuous
 62
     7
370
    15
100
AcDbLine
 10
232.819146402
 20
99.9479375273
 30
0.0
 11
232.819146402
 21
98.2336029259
 31
0.0
  0
LINE
  5
6D6
330
1F
100
AcDbEntity
  8
0
  6
Continuous
 62
     7
370
    15
100
AcDbLine
 10
238.3025387564
 20
98.4576689802
 30
0.0
 11
238.3025387564
 21
96.7433343788
 31
0.0
  0
LINE
  5
6D7
330
1F
100
AcDbEntity
  8
0
  6
Continuous
 62
     7
370
    15
100
AcDbLine
 10
243.7859311108
 20
96.9674004332
 30
0.0
 11
243.7859311108
 21
95.2530658318
 31
0.0
  0
LINE
  5
6D8
330
1F
100
AcDbEntity
  8
0
  6
Continuous
 62
     7
370
    15
100
AcDbLine
 10
249.2693234652
 20
93.7627972848
 30
0.0
 11
249.2693234652
 21
95.4771318862
 31
0.0
  0
LINE
  5
6D9
330
1F
100
AcDbEntity
  8
0
  6
Continuous
 62
     7
370
    15
100
AcDbLine
 10
254.7527158196
 20
92.2725287377
 30
0.0
 11
254.7527158196
 21
93.9868633391
 31
0.0
  0
LINE
  5
6DA
330
1F
100
AcDbEntity
  8
0
  6
Continuous
 62
     7
370
    15
100
AcDbLine
 10
260.236108174
 20
90.7822601907
 30
0.0
 11
260.236108174
 21
92.4965947921
 31
0.0
  0
LINE
  5
6DB
330
1F
100
AcDbEntity
  8
0
  6
Continuous
 62
     7
370
    15
100
AcDbLine
 10
265.7195005284
 20
89.2919916436
 30
0.0
 11
265.7195005284
 21
91.006326245
 31
0.0
  0
LINE
  5
6DC
330
1F
100
AcDbEntity
  8
0
  6
Continuous
 62
     7
370
    15
100
AcDbLine
 10
279.6264661874
 20
90.7851373844
 30
0.0
 11
279.6264661874
 21
90.8954958938
 31
0.0
  0
LINE
  5
6DD
330
1F
100
AcDbEntity
  8
0
  6
Continuous
 62
     7
370
    15
100
AcDbLine
 10
265.7195005284
 20
89.2919916436
 30
0.0
 11
264.2932037533
 21
87.899882266
 31
0.0
  0
LINE
  5
6DE
330
1F
100
AcDbEntity
  8
0
  6
Continuous
 62
     7
370
    15
100
AcDbLine
 10
251.8125348693
 20
89.4028219949
 30
0.0
 11
250.3862380942
 21
88.0107126172
 31
0.0
  0
LINE
  5
6DF
330
1F
100
AcDbEntity
  8
0
  6
Continuous
 62
     7
370
    15
100
AcDbLine
 10
237.9055692102
 20
89.5136523461
 30
0.0
 11
236.4792724352
 21
88.1215429684
 31
0.0
  0
LINE
  5
6E0
330
1F
100
AcDbEntity
  8
0
  6
Continuous
 62
     7
370
    15
100
AcDbLine
 10
223.9986035512
 20
89.6244826973
 30
0.0
 11
222.5723067761
 21
88.2323733197
 31
0.0
  0
LINE
  5
6E1
330
1F
100
AcDbEntity
  8
0
  6
Continuous
 62
     7
370
    15
100
AcDbLine
 10
210.0916378921
 20
89.7353130485
 30
0.0
 11
208.665341117
 21
88.3432036709
 31
0.0
  0
LINE
  5
6E2
330
1F
100
AcDbEntity
  8
0
  6
Continuous
 62
     7
370
    15
100
AcDbLine
 10
196.1846722331
 20
89.8461433997
 30
0.0
 11
194.758375458
 21
88.4540340221
 31
0.0
  0
LINE
  5
6E3
330
1F
100
AcDbEntity
  8
0
  6
Continuous
 62
     7
370
    15
100
AcDbLine
 10
274.143073833
 20
90.6714298395
 30
0.0
 11
274.143073833
 21
92.3857644409
 31
0.0
  0
LINE
  5
6E4
330
1F
100
AcDbEntity
  8
0
  6
Continuous
 62
     7
370
    15
100
AcDbLine
 10
274.143073833
 20
90.6714298395
 30
0.0
 11
272.7167770579
 21
89.2793204618
 31
0.0
  0
LINE
  5
6E5
330
1F
100
AcDbEntity
  8
0
  6
Continuous
 62
     7
370
    15
100
AcDbLine
 10
260.236108174
 20
90.7822601907
 30
0.0
 11
258.8098113989
 21
89.3901508131
 31
0.0
  0
LINE
  5
6E6
330
1F
100
AcDbEntity
  8
0
  6
Continuous
 62
     7
370
    15
100
AcDbLine
 10
246.3291425149
 20
90.8930905419
 30
0.0
 11
244.9028457398
 21
89.5009811643
 31
0.0
  0
LINE
  5
6E7
330
1F
100
AcDbEntity
  8
0
  6
Continuous
 62
     7
370
    15
100
AcDbLine
 10
232.4221768558
 20
91.0039208931
 30
0.0
 11
230.9958800808
 21
89.6118115155
 31
0.0
  0
LINE
  5
6E8
330
1F
100
AcDbEntity
  8
0
  6
Continuous
 62
     7
370
    15
100
AcDbLine
 10
218.5152111968
 20
91.1147512443
 30
0.0
 11
217.0889144217
 21
89.7226418667
 31
0.0
  0
LINE
  5
6E9
330
1F
100
AcDbEntity
  8
0
  6
Continuous
 62
     7
370
    15
100
AcDbLine
 10
204.6082455377
 20
91.2255815955
 30
0.0
 11
203.1819487626
 21
89.8334722179
 31
0.0
  0
LINE
  5
6EA
330
1F
100
AcDbEntity
  8
0
  6
Continuous
 62
     7
370
    15
100
AcDbLine
 10
212.4991307521
 20
105.6451864197
 30
0.0
 11
212.4991307521
 21
105.7695550571
 31
0.0
  0
LINE
  5
6EB
330
1F
100
AcDbEntity
  8
0
  6
Continuous
 62
     7
370
    15
100
AcDbLine
 10
213.5604324981
 20
108.7404697173
 30
0.0
 11
213.5604324981
 21
108.8508282267
 31
0.0
  0
LINE
  5
6EC
330
1F
100
AcDbEntity
  8
0
  6
Continuous
 62
     7
370
    15
100
AcDbLine
 10
213.8257579346
 20
108.7787184583
 30
0.0
 11
213.8257579346
 21
107.0643838569
 31
0.0
  0
LINE
  5
6ED
330
1F
100
AcDbEntity
  8
0
  6
Continuous
 62
     7
370
    15
100
AcDbLine
 10
219.309150289
 20
107.2884499113
 30
0.0
 11
219.309150289
 21
105.5741153099
 31
0.0
  0
LINE
  5
6EE
330
1F
100
AcDbEntity
  8
0
  6
Continuous
 62
     7
370
    15
100
AcDbLine
 10
224.7925426434
 20
105.7981813642
 30
0.0
 11
224.7925426434
 21
104.0838467628
 31
0.0
  0
LINE
  5
6EF
330
1F
100
AcDbEntity
  8
0
  6
Continuous
 62
     7
370
    15
100
AcDbLine
 10
230.2759349978
 20
104.3079128172
 30
0.0
 11
230.2759349978
 21
102.5935782158
 31
0.0
  0
LINE
  5
6F0
330
1F
100
AcDbEntity
  8
0
  6
Continuous
 62
     7
370
    15
100
AcDbLine
 10
235.7593273522
 20
102.8176442702
 30
0.0
 11
235.7593273522
 21
101.1033096688
 31
0.0
  0
LINE
  5
6F1
330
1F
100
AcDbEntity
  8
0
  6
Continuous
 62
     7
370
    15
100
AcDbLine
 10
241.2427197066
 20
101.3273757231
 30
0.0
 11
241.2427197066
 21
99.6130411217
 31
0.0
  0
LINE
  5
6F2
330
1F
100
AcDbEntity
  8
0
  6
Continuous
 62
     7
370
    15
100
AcDbLine
 10
246.726112061
 20
99.8371071761
 30
0.0
 11
246.726112061
 21
98.1227725747
 31
0.0
  0
LINE
  5
6F3
330
1F
100
AcDbEntity
  8
0
  6
Continuous
 62
     7
370
    15
100
AcDbLine
 10
252.2095044154
 20
96.6325040276
 30
0.0
 11
252.2095044154
 21
98.346838629
 31
0.0
  0
LINE
  5
6F4
330
1F
100
AcDbEntity
  8
0
  6
Continuous
 62
     7
370
    15
100
AcDbLine
 10
257.6928967698
 20
95.1422354806
 30
0.0
 11
257.6928967698
 21
96.856570082
 31
0.0
  0
LINE
  5
6F5
330
1F
100
AcDbEntity
  8
0
  6
Continuous
 62
     7
370
    15
100
AcDbLine
 10
263.1762891242
 20
93.6519669335
 30
0.0
 11
263.1762891242
 21
95.366301535
 31
0.0
  0
LINE
  5
6F6
330
1F
100
AcDbEntity
  8
0
  6
Continuous
 62
     7
370
    15
100
AcDbLine
 10
268.6596814786
 20
92.1616983865
 30
0.0
 11
268.6596814786
 21
93.8760329879
 31
0.0
  0
LINE
  5
6F7
330
1F
100
AcDbEntity
  8
0
  6
Continuous
 62
     7
370
    15
100
AcDbLine
 10
282.4499732904
 20
93.5409668755
 30
0.0
 11
282.4499732904
 21
93.651325385
 31
0.0
  0
LINE
  5
6F8
330
1F
100
AcDbEntity
  8
0
  6
Continuous
 62
     7
370
    15
100
AcDbLine
 10
268.6596814786
 20
92.1616983865
 30
0.0
 11
267.2333847035
 21
90.7695890089
 31
0.0
  0
LINE
  5
6F9
330
1F
100
AcDbEntity
  8
0
  6
Continuous
 62
     7
370
    15
100
AcDbLine
 10
254.7527158196
 20
92.2725287377
 30
0.0
 11
253.3264190445
 21
90.8804193601
 31
0.0
  0
LINE
  5
6FA
330
1F
100
AcDbEntity
  8
0
  6
Continuous
 62
     7
370
    15
100
AcDbLine
 10
240.8457501605
 20
92.3833590889
 30
0.0
 11
239.4194533854
 21
90.9912497113
 31
0.0
  0
LINE
  5
6FB
330
1F
100
AcDbEntity
  8
0
  6
Continuous
 62
     7
370
    15
100
AcDbLine
 10
226.9387845014
 20
92.4941894401
 30
0.0
 11
225.5124877264
 21
91.1020800625
 31
0.0
  0
LINE
  5
6FC
330
1F
100
AcDbEntity
  8
0
  6
Continuous
 62
     7
370
    15
100
AcDbLine
 10
213.0318188424
 20
92.6050197914
 30
0.0
 11
211.6055220673
 21
91.2129104137
 31
0.0
  0
LINE
  5
6FD
330
1F
100
AcDbEntity
  8
0
  6
Continuous
 62
     7
370
    15
100
AcDbLine
 10
199.1248531833
 20
92.7158501426
 30
0.0
 11
197.6985564082
 21
91.3237407649
 31
0.0
  0
LINE
  5
6FE
330
1F
100
AcDbEntity
  8
0
  6
Continuous
 62
     7
370
    15
100
AcDbLine
 10
277.5266154028
 20
93.9738701388
 30
0.0
 11
275.6569580082
 21
92.1490272047
 31
0.0
  0
LINE
  5
6FF
330
1F
100
AcDbEntity
  8
0
  6
Continuous
 62
     7
370
    15
100
AcDbLine
 10
276.966580936
 20
94.7987270118
 30
0.0
 11
276.966580936
 21
95.141593932
 31
0.0
  0
LINE
  5
700
330
1F
100
AcDbEntity
  8
0
  6
Continuous
 62
     7
370
    15
100
AcDbLine
 10
277.5266154028
 20
94.6465216438
 30
0.0
 11
277.5266154028
 21
93.9738701388
 31
0.0
  0
LINE
  5
701
330
1F
100
AcDbEntity
  8
0
  6
Continuous
 62
     7
370
    15
100
AcDbLine
 10
263.1762891242
 20
93.6519669335
 30
0.0
 11
261.7499923491
 21
92.2598575559
 31
0.0
  0
LINE
  5
702
330
1F
100
AcDbEntity
  8
0
  6
Continuous
 62
     7
370
    15
100
AcDbLine
 10
249.2693234652
 20
93.7627972848
 30
0.0
 11
247.8430266901
 21
92.3706879071
 31
0.0
  0
LINE
  5
703
330
1F
100
AcDbEntity
  8
0
  6
Continuous
 62
     7
370
    15
100
AcDbLine
 10
235.3623578061
 20
93.873627636
 30
0.0
 11
233.936061031
 21
92.4815182583
 31
0.0
  0
LINE
  5
704
330
1F
100
AcDbEntity
  8
0
  6
Continuous
 62
     7
370
    15
100
AcDbLine
 10
221.455392147
 20
93.9844579872
 30
0.0
 11
220.029095372
 21
92.5923486096
 31
0.0
  0
LINE
  5
705
330
1F
100
AcDbEntity
  8
0
  6
Continuous
 62
     7
370
    15
100
AcDbLine
 10
207.548426488
 20
94.0952883384
 30
0.0
 11
206.1221297129
 21
92.7031789608
 31
0.0
  0
LINE
  5
706
330
1F
100
AcDbEntity
  8
0
  6
Continuous
 62
     7
370
    15
100
AcDbLine
 10
276.966580936
 20
94.7987270118
 30
0.0
 11
281.9983145544
 21
93.4312096313
 31
0.0
  0
LINE
  5
707
330
1F
100
AcDbEntity
  8
0
  6
Continuous
 62
     7
370
    15
100
AcDbLine
 10
215.8826723218
 20
108.3943972462
 30
0.0
 11
215.8826723218
 21
109.0719953565
 31
0.0
  0
LINE
  5
708
330
1F
100
AcDbEntity
  8
0
  6
Continuous
 62
     7
370
    15
100
AcDbLine
 10
217.2092995044
 20
110.3668241562
 30
0.0
 11
217.2092995044
 21
111.0394756612
 31
0.0
  0
LINE
  5
709
330
1F
100
AcDbEntity
  8
0
  6
Continuous
 62
     7
370
    15
100
AcDbLine
 10
222.6926918588
 20
108.8765556092
 30
0.0
 11
222.6926918588
 21
109.5492071142
 31
0.0
  0
LINE
  5
70A
330
1F
100
AcDbEntity
  8
0
  6
Continuous
 62
     7
370
    15
100
AcDbLine
 10
228.1760842132
 20
107.3862870622
 30
0.0
 11
228.1760842132
 21
108.0589385672
 31
0.0
  0
LINE
  5
70B
330
1F
100
AcDbEntity
  8
0
  6
Continuous
 62
     7
370
    15
100
AcDbLine
 10
233.6594765676
 20
105.8960185151
 30
0.0
 11
233.6594765676
 21
106.5686700201
 31
0.0
  0
LINE
  5
70C
330
1F
100
AcDbEntity
  8
0
  6
Continuous
 62
     7
370
    15
100
AcDbLine
 10
239.142868922
 20
104.4057499681
 30
0.0
 11
239.142868922
 21
105.0784014731
 31
0.0
  0
LINE
  5
70D
330
1F
100
AcDbEntity
  8
0
  6
Continuous
 62
     7
370
    15
100
AcDbLine
 10
244.6262612764
 20
102.915481421
 30
0.0
 11
244.6262612764
 21
103.588132926
 31
0.0
  0
LINE
  5
70E
330
1F
100
AcDbEntity
  8
0
  6
Continuous
 62
     7
370
    15
100
AcDbLine
 10
250.1096536308
 20
101.425212874
 30
0.0
 11
250.1096536308
 21
102.097864379
 31
0.0
  0
LINE
  5
70F
330
1F
100
AcDbEntity
  8
0
  6
Continuous
 62
     7
370
    15
100
AcDbLine
 10
255.5930459852
 20
100.607595832
 30
0.0
 11
255.5930459852
 21
99.934944327
 31
0.0
  0
LINE
  5
710
330
1F
100
AcDbEntity
  8
0
  6
Continuous
 62
     7
370
    15
100
AcDbLine
 10
261.0764383396
 20
99.1173272849
 30
0.0
 11
261.0764383396
 21
98.4446757799
 31
0.0
  0
LINE
  5
711
330
1F
100
AcDbEntity
  8
0
  6
Continuous
 62
     7
370
    15
100
AcDbLine
 10
266.559830694
 20
97.6270587379
 30
0.0
 11
266.559830694
 21
96.9544072329
 31
0.0
  0
LINE
  5
712
330
1F
100
AcDbEntity
  8
0
  6
Continuous
 62
     7
370
    15
100
AcDbLine
 10
272.0432230484
 20
96.1367901908
 30
0.0
 11
272.0432230484
 21
95.4641386858
 31
0.0
  0
LINE
  5
713
330
1F
100
AcDbEntity
  8
0
  6
Continuous
 62
     7
370
    15
100
AcDbLine
 10
272.0432230484
 20
95.4641386858
 30
0.0
 11
270.1735656538
 21
93.6392957517
 31
0.0
  0
LINE
  5
714
330
1F
100
AcDbEntity
  8
0
  6
Continuous
 62
     7
370
    15
100
AcDbLine
 10
271.4831885816
 20
96.2889955588
 30
0.0
 11
271.4831885816
 21
96.6318624791
 31
0.0
  0
LINE
  5
715
330
1F
100
AcDbEntity
  8
0
  6
Continuous
 62
     7
370
    15
100
AcDbLine
 10
257.6928967698
 20
95.1422354806
 30
0.0
 11
256.2665999947
 21
93.750126103
 31
0.0
  0
LINE
  5
716
330
1F
100
AcDbEntity
  8
0
  6
Continuous
 62
     7
370
    15
100
AcDbLine
 10
243.7859311108
 20
95.2530658318
 30
0.0
 11
242.3596343357
 21
93.8609564542
 31
0.0
  0
LINE
  5
717
330
1F
100
AcDbEntity
  8
0
  6
Continuous
 62
     7
370
    15
100
AcDbLine
 10
229.8789654517
 20
95.363896183
 30
0.0
 11
228.4526686766
 21
93.9717868054
 31
0.0
  0
LINE
  5
718
330
1F
100
AcDbEntity
  8
0
  6
Continuous
 62
     7
370
    15
100
AcDbLine
 10
215.9719997926
 20
95.4747265342
 30
0.0
 11
214.5457030176
 21
94.0826171566
 31
0.0
  0
LINE
  5
719
330
1F
100
AcDbEntity
  8
0
  6
Continuous
 62
     7
370
    15
100
AcDbLine
 10
202.0650341336
 20
95.5855568854
 30
0.0
 11
200.6387373585
 21
94.1934475078
 31
0.0
  0
LINE
  5
71A
330
1F
100
AcDbEntity
  8
0
  6
Continuous
 62
     7
370
    15
100
AcDbLine
 10
271.4831885816
 20
96.2889955588
 30
0.0
 11
276.5149222
 21
94.9214781783
 31
0.0
  0
LINE
  5
71B
330
1F
100
AcDbEntity
  8
0
  6
Continuous
 62
     7
370
    15
100
AcDbLine
 10
266.559830694
 20
96.9544072329
 30
0.0
 11
264.6901732994
 21
95.1295642988
 31
0.0
  0
LINE
  5
71C
330
1F
100
AcDbEntity
  8
0
  6
Continuous
 62
     7
370
    15
100
AcDbLine
 10
265.9997962272
 20
97.7792641058
 30
0.0
 11
265.9997962272
 21
98.1221310261
 31
0.0
  0
LINE
  5
71D
330
1F
100
AcDbEntity
  8
0
  6
Continuous
 62
     7
370
    15
100
AcDbLine
 10
252.2095044154
 20
96.6325040276
 30
0.0
 11
250.7832076403
 21
95.24039465
 31
0.0
  0
LINE
  5
71E
330
1F
100
AcDbEntity
  8
0
  6
Continuous
 62
     7
370
    15
100
AcDbLine
 10
238.3025387564
 20
96.7433343788
 30
0.0
 11
236.8762419813
 21
95.3512250012
 31
0.0
  0
LINE
  5
71F
330
1F
100
AcDbEntity
  8
0
  6
Continuous
 62
     7
370
    15
100
AcDbLine
 10
224.3955730973
 20
96.8541647301
 30
0.0
 11
222.9692763222
 21
95.4620553524
 31
0.0
  0
LINE
  5
720
330
1F
100
AcDbEntity
  8
0
  6
Continuous
 62
     7
370
    15
100
AcDbLine
 10
210.4886074382
 20
96.9649950813
 30
0.0
 11
209.0623106632
 21
95.5728857036
 31
0.0
  0
LINE
  5
721
330
1F
100
AcDbEntity
  8
0
  6
Continuous
 62
     7
370
    15
100
AcDbLine
 10
265.9997962272
 20
97.7792641058
 30
0.0
 11
271.0315298456
 21
96.4117467254
 31
0.0
  0
LINE
  5
722
330
1F
100
AcDbEntity
  8
0
  6
Continuous
 62
     7
370
    15
100
AcDbLine
 10
261.0764383396
 20
98.4446757799
 30
0.0
 11
259.206780945
 21
96.6198328458
 31
0.0
  0
LINE
  5
723
330
1F
100
AcDbEntity
  8
0
  6
Continuous
 62
     7
370
    15
100
AcDbLine
 10
260.5164038728
 20
99.2695326529
 30
0.0
 11
260.5164038728
 21
99.6123995732
 31
0.0
  0
LINE
  5
724
330
1F
100
AcDbEntity
  8
0
  6
Continuous
 62
     7
370
    15
100
AcDbLine
 10
246.726112061
 20
98.1227725747
 30
0.0
 11
245.2998152859
 21
96.730663197
 31
0.0
  0
LINE
  5
725
330
1F
100
AcDbEntity
  8
0
  6
Continuous
 62
     7
370
    15
100
AcDbLine
 10
232.819146402
 20
98.2336029259
 30
0.0
 11
231.3928496269
 21
96.8414935483
 31
0.0
  0
LINE
  5
726
330
1F
100
AcDbEntity
  8
0
  6
Continuous
 62
     7
370
    15
100
AcDbLine
 10
218.9121807429
 20
98.3444332771
 30
0.0
 11
217.4858839678
 21
96.9523238995
 31
0.0
  0
LINE
  5
727
330
1F
100
AcDbEntity
  8
0
  6
Continuous
 62
     7
370
    15
100
AcDbLine
 10
205.0052150838
 20
98.4552636283
 30
0.0
 11
203.5789183088
 21
97.0631542507
 31
0.0
  0
LINE
  5
728
330
1F
100
AcDbEntity
  8
0
  6
Continuous
 62
     7
370
    15
100
AcDbLine
 10
260.5164038728
 20
99.2695326529
 30
0.0
 11
265.5481374912
 21
97.9020152724
 31
0.0
  0
LINE
  5
729
330
1F
100
AcDbEntity
  8
0
  6
Continuous
 62
     7
370
    15
100
AcDbLine
 10
255.5930459852
 20
99.934944327
 30
0.0
 11
253.7233885906
 21
98.1101013929
 31
0.0
  0
LINE
  5
72A
330
1F
100
AcDbEntity
  8
0
  6
Continuous
 62
     7
370
    15
100
AcDbLine
 10
255.0330115184
 20
100.7598011999
 30
0.0
 11
255.0330115184
 21
101.1026681202
 31
0.0
  0
LINE
  5
72B
330
1F
100
AcDbEntity
  8
0
  6
Continuous
 62
     7
370
    15
100
AcDbLine
 10
241.2427197066
 20
99.6130411217
 30
0.0
 11
239.8164229315
 21
98.2209317441
 31
0.0
  0
LINE
  5
72C
330
1F
100
AcDbEntity
  8
0
  6
Continuous
 62
     7
370
    15
100
AcDbLine
 10
227.3357540476
 20
99.7238714729
 30
0.0
 11
225.9094572725
 21
98.3317620953
 31
0.0
  0
LINE
  5
72D
330
1F
100
AcDbEntity
  8
0
  6
Continuous
 62
     7
370
    15
100
AcDbLine
 10
213.4287883885
 20
99.8347018241
 30
0.0
 11
212.0024916134
 21
98.4425924465
 31
0.0
  0
LINE
  5
72E
330
1F
100
AcDbEntity
  8
0
  6
Continuous
 62
     7
370
    15
100
AcDbLine
 10
255.0330115184
 20
100.7598011999
 30
0.0
 11
260.0647451368
 21
99.3922838195
 31
0.0
  0
LINE
  5
72F
330
1F
100
AcDbEntity
  8
0
  6
Continuous
 62
     7
370
    15
100
AcDbLine
 10
250.1096536308
 20
101.425212874
 30
0.0
 11
248.2399962362
 21
99.6003699399
 31
0.0
  0
LINE
  5
730
330
1F
100
AcDbEntity
  8
0
  6
Continuous
 62
     7
370
    15
100
AcDbLine
 10
249.549619164
 20
102.5929366672
 30
0.0
 11
249.549619164
 21
102.250069747
 31
0.0
  0
LINE
  5
731
330
1F
100
AcDbEntity
  8
0
  6
Continuous
 62
     7
370
    15
100
AcDbLine
 10
235.7593273522
 20
101.1033096688
 30
0.0
 11
234.3330305771
 21
99.7112002911
 31
0.0
  0
LINE
  5
732
330
1F
100
AcDbEntity
  8
0
  6
Continuous
 62
     7
370
    15
100
AcDbLine
 10
221.8523616932
 20
101.21414002
 30
0.0
 11
220.4260649181
 21
99.8220306423
 31
0.0
  0
LINE
  5
733
330
1F
100
AcDbEntity
  8
0
  6
Continuous
 62
     7
370
    15
100
AcDbLine
 10
207.9453960341
 20
101.3249703712
 30
0.0
 11
206.519099259
 21
99.9328609935
 31
0.0
  0
LINE
  5
734
330
1F
100
AcDbEntity
  8
0
  6
Continuous
 62
     7
370
    15
100
AcDbLine
 10
249.549619164
 20
102.250069747
 30
0.0
 11
254.5813527824
 21
100.8825523665
 31
0.0
  0
LINE
  5
735
330
1F
100
AcDbEntity
  8
0
  6
Continuous
 62
     7
370
    15
100
AcDbLine
 10
244.6262612764
 20
102.915481421
 30
0.0
 11
242.7566038818
 21
101.0906384869
 31
0.0
  0
LINE
  5
736
330
1F
100
AcDbEntity
  8
0
  6
Continuous
 62
     7
370
    15
100
AcDbLine
 10
244.0662268096
 20
104.0832052143
 30
0.0
 11
244.0662268096
 21
103.740338294
 31
0.0
  0
LINE
  5
737
330
1F
100
AcDbEntity
  8
0
  6
Continuous
 62
     7
370
    15
100
AcDbLine
 10
230.2759349978
 20
102.5935782158
 30
0.0
 11
228.8496382227
 21
101.2014688382
 31
0.0
  0
LINE
  5
738
330
1F
100
AcDbEntity
  8
0
  6
Continuous
 62
     7
370
    15
100
AcDbLine
 10
216.3689693388
 20
102.704408567
 30
0.0
 11
214.9426725637
 21
101.3122991894
 31
0.0
  0
LINE
  5
739
330
1F
100
AcDbEntity
  8
0
  6
Continuous
 62
     7
370
    15
100
AcDbLine
 10
244.0662268096
 20
103.740338294
 30
0.0
 11
249.097960428
 21
102.3728209135
 31
0.0
  0
LINE
  5
73A
330
1F
100
AcDbEntity
  8
0
  6
Continuous
 62
     7
370
    15
100
AcDbLine
 10
239.142868922
 20
104.4057499681
 30
0.0
 11
237.2732115274
 21
102.580907034
 31
0.0
  0
LINE
  5
73B
330
1F
100
AcDbEntity
  8
0
  6
Continuous
 62
     7
370
    15
100
AcDbLine
 10
238.5828344552
 20
105.5734737613
 30
0.0
 11
238.5828344552
 21
105.230606841
 31
0.0
  0
LINE
  5
73C
330
1F
100
AcDbEntity
  8
0
  6
Continuous
 62
     7
370
    15
100
AcDbLine
 10
224.7925426434
 20
104.0838467628
 30
0.0
 11
223.3662458683
 21
102.6917373852
 31
0.0
  0
LINE
  5
73D
330
1F
100
AcDbEntity
  8
0
  6
Continuous
 62
     7
370
    15
100
AcDbLine
 10
210.8855769844
 20
104.194677114
 30
0.0
 11
209.4592802093
 21
102.8025677364
 31
0.0
  0
LINE
  5
73E
330
1F
100
AcDbEntity
  8
0
  6
Continuous
 62
     7
370
    15
100
AcDbLine
 10
238.5828344552
 20
105.230606841
 30
0.0
 11
243.6145680736
 21
103.8630894606
 31
0.0
  0
LINE
  5
73F
330
1F
100
AcDbEntity
  8
0
  6
Continuous
 62
     7
370
    15
100
AcDbLine
 10
233.6594765676
 20
105.8960185151
 30
0.0
 11
231.789819173
 21
104.071175581
 31
0.0
  0
LINE
  5
740
330
1F
100
AcDbEntity
  8
0
  6
Continuous
 62
     7
370
    15
100
AcDbLine
 10
233.0994421008
 20
107.0637423084
 30
0.0
 11
233.0994421008
 21
106.7208753881
 31
0.0
  0
LINE
  5
741
330
1F
100
AcDbEntity
  8
0
  6
Continuous
 62
     7
370
    15
100
AcDbLine
 10
219.309150289
 20
105.5741153099
 30
0.0
 11
217.8828535139
 21
104.1820059322
 31
0.0
  0
LINE
  5
742
330
1F
100
AcDbEntity
  8
0
  6
Continuous
 62
     7
370
    15
100
AcDbLine
 10
233.0994421008
 20
106.7208753881
 30
0.0
 11
238.1311757192
 21
105.3533580076
 31
0.0
  0
LINE
  5
743
330
1F
100
AcDbEntity
  8
0
  6
Continuous
 62
     7
370
    15
100
AcDbLine
 10
228.1760842132
 20
107.3862870622
 30
0.0
 11
226.3064268186
 21
105.5614441281
 31
0.0
  0
LINE
  5
744
330
1F
100
AcDbEntity
  8
0
  6
Continuous
 62
     7
370
    15
100
AcDbLine
 10
227.6160497464
 20
108.5540108554
 30
0.0
 11
227.6160497464
 21
108.2111439351
 31
0.0
  0
LINE
  5
745
330
1F
100
AcDbEntity
  8
0
  6
Continuous
 62
     7
370
    15
100
AcDbLine
 10
213.8257579346
 20
107.0643838569
 30
0.0
 11
212.3994611595
 21
105.6722744793
 31
0.0
  0
LINE
  5
746
330
1F
100
AcDbEntity
  8
0
  6
Continuous
 62
     7
370
    15
100
AcDbLine
 10
227.6160497464
 20
108.2111439351
 30
0.0
 11
232.6477833648
 21
106.8436265547
 31
0.0
  0
LINE
  5
747
330
1F
100
AcDbEntity
  8
0
  6
Continuous
 62
     7
370
    15
100
AcDbLine
 10
222.6926918588
 20
108.8765556092
 30
0.0
 11
220.8230344642
 21
107.0517126751
 31
0.0
  0
LINE
  5
748
330
1F
100
AcDbEntity
  8
0
  6
Continuous
 62
     7
370
    15
100
AcDbLine
 10
222.132657392
 20
110.0442794024
 30
0.0
 11
222.132657392
 21
109.7014124822
 31
0.0
  0
LINE
  5
749
330
1F
100
AcDbEntity
  8
0
  6
Continuous
 62
     7
370
    15
100
AcDbLine
 10
222.132657392
 20
109.7014124822
 30
0.0
 11
227.1643910104
 21
108.3338951017
 31
0.0
  0
LINE
  5
74A
330
1F
100
AcDbEntity
  8
0
  6
Continuous
 62
     7
370
    15
100
AcDbLine
 10
217.2092995044
 20
110.3668241562
 30
0.0
 11
215.3396421098
 21
108.5419812221
 31
0.0
  0
LINE
  5
74B
330
1F
100
AcDbEntity
  8
0
  6
Continuous
 62
     7
370
    15
100
AcDbLine
 10
216.6492650376
 20
111.5345479495
 30
0.0
 11
216.6492650376
 21
111.1916810292
 31
0.0
  0
LINE
  5
74C
330
1F
100
AcDbEntity
  8
0
  6
Continuous
 62
     7
370
    15
100
AcDbLine
 10
216.3839396011
 20
111.4962992084
 30
0.0
 11
216.3839396011
 21
111.6066577179
 31
0.0
  0
LINE
  5
74D
330
1F
100
AcDbEntity
  8
0
  6
Continuous
 62
     7
370
    15
100
AcDbLine
 10
216.6492650376
 20
111.1916810292
 30
0.0
 11
221.680998656
 21
109.8241636487
 31
0.0
  0
ENDSEC
  0
SECTION
  2
OBJECTS
  0
DICTIONARY
  5
C
330
0
100
AcDbDictionary
281
     1
  3
ACAD_GROUP
350
D
  3
ACAD_LAYOUT
350
1A
  3
ACAD_MLINESTYLE
350
17
  3
ACAD_PLOTSETTINGS
350
19
  3
ACAD_PLOTSTYLENAME
350
E
  3
ACAD_SCALELIST
350
47
  0
DICTIONARY
  5
D
102
{ACAD_REACTORS
330
C
102
}
330
C
100
AcDbDictionary
281
     1
  0
DICTIONARY
  5
1A
102
{ACAD_REACTORS
330
C
102
}
330
C
100
AcDbDictionary
281
     1
  3
Layout1
350
1E
  3
Layout2
350
26
  3
Model
350
22
  0
DICTIONARY
  5
17
102
{ACAD_REACTORS
330
C
102
}
330
C
100
AcDbDictionary
281
     1
  3
Standard
350
18
  0
DICTIONARY
  5
19
102
{ACAD_REACTORS
330
C
102
}
330
C
100
AcDbDictionary
281
     1
  0
ACDBDICTIONARYWDFLT
  5
E
102
{ACAD_REACTORS
330
C
102
}
330
C
100
AcDbDictionary
281
     1
  3
Normal
350
F
100
AcDbDictionaryWithDefault
340
F
  0
DICTIONARY
  5
47
102
{ACAD_REACTORS
330
C
102
}
330
C
100
AcDbDictionary
281
     1
  3
A0
350
48
  3
A1
350
49
  3
A2
350
4A
  3
A3
350
4B
  3
A4
350
4C
  3
A5
350
4D
  3
A6
350
4E
  3
A7
350
4F
  3
A8
350
50
  3
A9
350
51
  3
B0
350
52
  3
B1
350
53
  3
B2
350
54
  3
B3
350
55
  3
B4
350
56
  3
B5
350
57
  3
B6
350
58
  3
B7
350
59
  3
B8
350
5A
  3
B9
350
5B
  3
C0
350
5C
  3
C1
350
5D
  3
C2
350
5E
  3
C3
350
5F
  3
C4
350
60
  3
C5
350
61
  3
C6
350
62
  3
C7
350
63
  3
C8
350
64
  3
C9
350
65
  3
D0
350
66
  3
D1
350
67
  3
D2
350
68
  0
LAYOUT
  5
1E
102
{ACAD_REACTORS
330
1A
102
}
330
1A
100
AcDbPlotSettings
  1

  2
none_device
  4

  6

 40
0.0
 41
0.0
 42
0.0
 43
0.0
 44
0.0
 45
0.0
 46
0.0
 47
0.0
 48
0.0
 49
0.0
140
0.0
141
0.0
142
1.0
143
1.0
 70
   688
 72
     1
 73
     0
 74
     5
  7

 75
    16
147
1.0
148
0.0
149
0.0
100
AcDbLayout
  1
Layout1
 70
     1
 71
     1
 10
0.0
 20
0.0
 11
420.0
 21
297.0
 12
0.0
 22
0.0
 32
0.0
 14
1.0000000000E+20
 24
1.0000000000E+20
 34
1.0000000000E+20
 15
-1.0000000000E+20
 25
-1.0000000000E+20
 35
-1.0000000000E+20
146
0.0
 13
0.0
 23
0.0
 33
0.0
 16
1.0
 26
0.0
 36
0.0
 17
0.0
 27
1.0
 37
0.0
 76
     0
330
1B
  0
LAYOUT
  5
26
102
{ACAD_REACTORS
330
1A
102
}
330
1A
100
AcDbPlotSettings
  1

  2
none_device
  4

  6

 40
0.0
 41
0.0
 42
0.0
 43
0.0
 44
0.0
 45
0.0
 46
0.0
 47
0.0
 48
0.0
 49
0.0
140
0.0
141
0.0
142
1.0
143
1.0
 70
   688
 72
     1
 73
     0
 74
     5
  7

 75
    16
147
1.0
148
0.0
149
0.0
100
AcDbLayout
  1
Layout2
 70
     1
 71
     2
 10
0.0
 20
0.0
 11
0.0
 21
0.0
 12
0.0
 22
0.0
 32
0.0
 14
0.0
 24
0.0
 34
0.0
 15
0.0
 25
0.0
 35
0.0
146
0.0
 13
0.0
 23
0.0
 33
0.0
 16
1.0
 26
0.0
 36
0.0
 17
0.0
 27
1.0
 37
0.0
 76
     0
330
23
  0
LAYOUT
  5
22
102
{ACAD_REACTORS
330
1A
102
}
330
1A
100
AcDbPlotSettings
  1

  2
none_device
  4
Letter_(8.50_x_11.00_Inches)
  6

 40
6.35
 41
6.35
 42
6.35000508
 43
6.35000508
 44
215.9
 45
279.4
 46
0.0
 47
0.0
 48
0.0
 49
0.0
140
0.0
141
0.0
142
1.0
143
1.0
 70
  1712
 72
     1
 73
     0
 74
     0
  7

 75
     0
147
1.0
148
0.0
149
0.0
100
AcDbLayout
  1
Model
 70
     1
 71
     0
 10
0.0
 20
0.0
 11
297.0
 21
210.0
 12
0.0
 22
0.0
 32
0.0
 14
0.0
 24
0.0
 34
0.0
 15
297.0
 25
210.0
 35
0.0
146
0.0
 13
0.0
 23
0.0
 33
0.0
 16
1.0
 26
0.0
 36
0.0
 17
0.0
 27
1.0
 37
0.0
 76
     0
330
1F
331
29
  0
MLINESTYLE
  5
18
102
{ACAD_REACTORS
330
17
102
}
330
17
100
AcDbMlineStyle
  2
Standard
 70
     0
  3

 62
   256
 51
90.0
 52
90.0
 71
     2
 49
0.5
 62
   256
  6
BYLAYER
 49
-0.5
 62
   256
  6
BYLAYER
  0
ACDBPLACEHOLDER
  5
F
102
{ACAD_REACTORS
330
E
102
}
330
E
  0
SCALE
  5
48
102
{ACAD_REACTORS
330
47
102
}
330
47
100
AcDbScale
 70
     0
300
1:1
140
1.0
141
1.0
290
     1
  0
SCALE
  5
49
102
{ACAD_REACTORS
330
47
102
}
330
47
100
AcDbScale
 70
     0
300
1:2
140
1.0
141
2.0
290
     0
  0
SCALE
  5
4A
102
{ACAD_REACTORS
330
47
102
}
330
47
100
AcDbScale
 70
     0
300
1:4
140
1.0
141
4.0
290
     0
  0
SCALE
  5
4B
102
{ACAD_REACTORS
330
47
102
}
330
47
100
AcDbScale
 70
     0
300
1:5
140
1.0
141
5.0
290
     0
  0
SCALE
  5
4C
102
{ACAD_REACTORS
330
47
102
}
330
47
100
AcDbScale
 70
     0
300
1:8
140
1.0
141
8.0
290
     0
  0
SCALE
  5
4D
102
{ACAD_REACTORS
330
47
102
}
330
47
100
AcDbScale
 70
     0
300
1:10
140
1.0
141
10.0
290
     0
  0
SCALE
  5
4E
102
{ACAD_REACTORS
330
47
102
}
330
47
100
AcDbScale
 70
     0
300
1:16
140
1.0
141
16.0
290
     0
  0
SCALE
  5
4F
102
{ACAD_REACTORS
330
47
102
}
330
47
100
AcDbScale
 70
     0
300
1:20
140
1.0
141
20.0
290
     0
  0
SCALE
  5
50
102
{ACAD_REACTORS
330
47
102
}
330
47
100
AcDbScale
 70
     0
300
1:30
140
1.0
141
30.0
290
     0
  0
SCALE
  5
51
102
{ACAD_REACTORS
330
47
102
}
330
47
100
AcDbScale
 70
     0
300
1:40
140
1.0
141
40.0
290
     0
  0
SCALE
  5
52
102
{ACAD_REACTORS
330
47
102
}
330
47
100
AcDbScale
 70
     0
300
1:50
140
1.0
141
50.0
290
     0
  0
SCALE
  5
53
102
{ACAD_REACTORS
330
47
102
}
330
47
100
AcDbScale
 70
     0
300
1:100
140
1.0
141
100.0
290
     0
  0
SCALE
  5
54
102
{ACAD_REACTORS
330
47
102
}
330
47
100
AcDbScale
 70
     0
300
2:1
140
2.0
141
1.0
290
     0
  0
SCALE
  5
55
102
{ACAD_REACTORS
330
47
102
}
330
47
100
AcDbScale
 70
     0
300
4:1
140
4.0
141
1.0
290
     0
  0
SCALE
  5
56
102
{ACAD_REACTORS
330
47
102
}
330
47
100
AcDbScale
 70
     0
300
8:1
140
8.0
141
1.0
290
     0
  0
SCALE
  5
57
102
{ACAD_REACTORS
330
47
102
}
330
47
100
AcDbScale
 70
     0
300
10:1
140
10.0
141
1.0
290
     0
  0
SCALE
  5
58
102
{ACAD_REACTORS
330
47
102
}
330
47
100
AcDbScale
 70
     0
300
100:1
140
100.0
141
1.0
290
     0
  0
SCALE
  5
59
102
{ACAD_REACTORS
330
47
102
}
330
47
100
AcDbScale
 70
     0
300
1/128" = 1'-0"
140
0.0078125
141
12.0
290
     0
  0
SCALE
  5
5A
102
{ACAD_REACTORS
330
47
102
}
330
47
100
AcDbScale
 70
     0
300
1/64" = 1'-0"
140
0.015625
141
12.0
290
     0
  0
SCALE
  5
5B
102
{ACAD_REACTORS
330
47
102
}
330
47
100
AcDbScale
 70
     0
300
1/32" = 1'-0"
140
0.03125
141
12.0
290
     0
  0
SCALE
  5
5C
102
{ACAD_REACTORS
330
47
102
}
330
47
100
AcDbScale
 70
     0
300
1/16" = 1'-0"
140
0.0625
141
12.0
290
     0
  0
SCALE
  5
5D
102
{ACAD_REACTORS
330
47
102
}
330
47
100
AcDbScale
 70
     0
300
3/32" = 1'-0"
140
0.09375
141
12.0
290
     0
  0
SCALE
  5
5E
102
{ACAD_REACTORS
330
47
102
}
330
47
100
AcDbScale
 70
     0
300
1/8" = 1'-0"
140
0.125
141
12.0
290
     0
  0
SCALE
  5
5F
102
{ACAD_REACTORS
330
47
102
}
330
47
100
AcDbScale
 70
     0
300
3/16" = 1'-0"
140
0.1875
141
12.0
290
     0
  0
SCALE
  5
60
102
{ACAD_REACTORS
330
47
102
}
330
47
100
AcDbScale
 70
     0
300
1/4" = 1'-0"
140
0.25
141
12.0
290
     0
  0
SCALE
  5
61
102
{ACAD_REACTORS
330
47
102
}
330
47
100
AcDbScale
 70
     0
300
3/8" = 1'-0"
140
0.375
141
12.0
290
     0
  0
SCALE
  5
62
102
{ACAD_REACTORS
330
47
102
}
330
47
100
AcDbScale
 70
     0
300
1/2" = 1'-0"
140
0.5
141
12.0
290
     0
  0
SCALE
  5
63
102
{ACAD_REACTORS
330
47
102
}
330
47
100
AcDbScale
 70
     0
300
3/4" = 1'-0"
140
0.75
141
12.0
290
     0
  0
SCALE
  5
64
102
{ACAD_REACTORS
330
47
102
}
330
47
100
AcDbScale
 70
     0
300
1" = 1'-0"
140
1.0
141
12.0
290
     0
  0
SCALE
  5
65
102
{ACAD_REACTORS
330
47
102
}
330
47
100
AcDbScale
 70
     0
300
1-1/2" = 1'-0"
140
1.5
141
12.0
290
     0
  0
SCALE
  5
66
102
{ACAD_REACTORS
330
47
102
}
330
47
100
AcDbScale
 70
     0
300
3" = 1'-0"
140
3.0
141
12.0
290
     0
  0
SCALE
  5
67
102
{ACAD_REACTORS
330
47
102
}
330
47
100
AcDbScale
 70
     0
300
6" = 1'-0"
140
6.0
141
12.0
290
     0
  0
SCALE
  5
68
102
{ACAD_REACTORS
330
47
102
}
330
47
100
AcDbScale
 70
     0
300
1'-0" = 1'-0"
140
12.0
141
12.0
290
     0
  0
ENDSEC
  0
EOF
