ISO-10303-21;
HEADER;
FILE_DESCRIPTION (( 'STEP AP203' ),
    '1' );
FILE_NAME ('1821-120.STEP',
    '2022-04-14T12:14:27',
    ( '' ),
    ( '' ),
    'SwSTEP 2.0',
    'SolidWorks 2018',
    '' );
FILE_SCHEMA (( 'CONFIG_CONTROL_DESIGN' ));
ENDSEC;

DATA;
#1 = CIRCLE ( 'NONE', #189, 5.700000000000000178 ) ;
#2 = PERSON ( 'UNSPECIFIED', 'UNSPECIFIED', 'UNSPECIFIED', ('UNSPECIFIED'), ('UNSPECIFIED'), ('UNSPECIFIED') ) ;
#3 = FACE_OUTER_BOUND ( 'NONE', #112, .T. ) ;
#4 = DIRECTION ( 'NONE',  ( -0.000000000000000000, -1.000000000000000000, -0.000000000000000000 ) ) ;
#5 = CALENDAR_DATE ( 2022, 14, 4 ) ;
#6 = DIRECTION ( 'NONE',  ( -0.000000000000000000, -1.000000000000000000, -0.000000000000000000 ) ) ;
#7 = DIRECTION ( 'NONE',  ( -0.000000000000000000, -1.000000000000000000, -0.000000000000000000 ) ) ;
#8 = AXIS2_PLACEMENT_3D ( 'NONE', #208, #30, #109 ) ;
#9 = VERTEX_POINT ( 'NONE', #124 ) ;
#10 = APPROVAL_DATE_TIME ( #104, #212 ) ;
#11 = ADVANCED_FACE ( 'NONE', ( #169, #203 ), #132, .T. ) ;
#12 = EDGE_LOOP ( 'NONE', ( #91 ) ) ;
#13 = PERSON_AND_ORGANIZATION ( #2, #51 ) ;
#14 = AXIS2_PLACEMENT_3D ( 'NONE', #66, #42, #183 ) ;
#15 = SHAPE_DEFINITION_REPRESENTATION ( #36, #77 ) ;
#16 = AXIS2_PLACEMENT_3D ( 'NONE', #58, #6, #78 ) ;
#17 = PERSON_AND_ORGANIZATION_ROLE ( 'classification_officer' ) ;
#18 = LOCAL_TIME ( 14, 14, 27.00000000000000000, #120 ) ;
#19 = PERSON_AND_ORGANIZATION ( #2, #51 ) ;
#20 = AXIS2_PLACEMENT_3D ( 'NONE', #63, #40, #164 ) ;
#21 = CARTESIAN_POINT ( 'NONE',  ( 0.000000000000000000, 0.2999999999999999889, 0.000000000000000000 ) ) ;
#22 = TOROIDAL_SURFACE ( 'NONE', #133, 5.304628333330374090, 0.2999999999999999889 ) ;
#23 = LOCAL_TIME ( 14, 14, 27.00000000000000000, #76 ) ;
#24 = DIRECTION ( 'NONE',  ( 0.000000000000000000, 0.000000000000000000, -1.000000000000000000 ) ) ;
#25 = CC_DESIGN_PERSON_AND_ORGANIZATION_ASSIGNMENT ( #39, #72, ( #165 ) ) ;
#26 = CARTESIAN_POINT ( 'NONE',  ( 0.000000000000000000, 1146.426417046249071, 5.999884326195812356 ) ) ;
#27 = AXIS2_PLACEMENT_3D ( 'NONE', #21, #4, #24 ) ;
#28 = DIRECTION ( 'NONE',  ( 0.000000000000000000, 0.000000000000000000, -1.000000000000000000 ) ) ;
#29 = EDGE_LOOP ( 'NONE', ( #173 ) ) ;
#30 = DIRECTION ( 'NONE',  ( 0.000000000000000000, 0.000000000000000000, 1.000000000000000000 ) ) ;
#31 = APPROVAL_ROLE ( '' ) ;
#32 = EDGE_LOOP ( 'NONE', ( #85 ) ) ;
#33 = PRODUCT_DEFINITION ( 'UNKNOWN', '', #165, #67 ) ;
#34 = PRODUCT ( '1821-120', '1821-120', '', ( #148 ) ) ;
#35 = CC_DESIGN_APPROVAL ( #80, ( #170 ) ) ;
#36 = PRODUCT_DEFINITION_SHAPE ( 'NONE', 'NONE',  #33 ) ;
#37 = VERTEX_POINT ( 'NONE', #207 ) ;
#38 = DIRECTION ( 'NONE',  ( -0.000000000000000000, -1.000000000000000000, -0.000000000000000000 ) ) ;
#39 = PERSON_AND_ORGANIZATION ( #2, #51 ) ;
#40 = DIRECTION ( 'NONE',  ( 0.000000000000000000, 1.000000000000000000, 0.000000000000000000 ) ) ;
#41 = DIRECTION ( 'NONE',  ( 0.000000000000000000, -1.000000000000000000, -0.000000000000000000 ) ) ;
#42 = DIRECTION ( 'NONE',  ( 0.000000000000000000, 1.000000000000000000, 0.000000000000000000 ) ) ;
#43 = CC_DESIGN_DATE_AND_TIME_ASSIGNMENT ( #182, #128, ( #170 ) ) ;
#44 = CALENDAR_DATE ( 2022, 14, 4 ) ;
#45 = FACE_OUTER_BOUND ( 'NONE', #32, .T. ) ;
#46 = APPROVAL_STATUS ( 'not_yet_approved' ) ;
#47 = ADVANCED_FACE ( 'NONE', ( #74, #3 ), #22, .F. ) ;
#48 = ADVANCED_FACE ( 'NONE', ( #150, #68 ), #125, .T. ) ;
#49 = PERSON_AND_ORGANIZATION_ROLE ( 'design_owner' ) ;
#50 = ORIENTED_EDGE ( 'NONE', *, *, #96, .F. ) ;
#51 = ORGANIZATION ( 'UNSPECIFIED', 'UNSPECIFIED', '' ) ;
#52 = VERTEX_POINT ( 'NONE', #176 ) ;
#53 = AXIS2_PLACEMENT_3D ( 'NONE', #142, #162, #126 ) ;
#54 = CALENDAR_DATE ( 2022, 14, 4 ) ;
#55 = EDGE_LOOP ( 'NONE', ( #188 ) ) ;
#56 = DIRECTION ( 'NONE',  ( 0.000000000000000000, 0.000000000000000000, 1.000000000000000000 ) ) ;
#57 = TOROIDAL_SURFACE ( 'NONE', #122, 5.700000000000000178, 0.2999999999999999889 ) ;
#58 = CARTESIAN_POINT ( 'NONE',  ( 0.000000000000000000, 1146.422252789298454, 0.000000000000000000 ) ) ;
#59 = CC_DESIGN_SECURITY_CLASSIFICATION ( #170, ( #165 ) ) ;
#60 = DIRECTION ( 'NONE',  ( 0.000000000000000000, 0.000000000000000000, -1.000000000000000000 ) ) ;
#61 = SPHERICAL_SURFACE ( 'NONE', #8, 9.500000000000005329 ) ;
#62 = CARTESIAN_POINT ( 'NONE',  ( 0.000000000000000000, 0.2999999999999999889, -6.000000000000000000 ) ) ;
#63 = CARTESIAN_POINT ( 'NONE',  ( 0.000000000000000000, 1146.426417046249071, 0.000000000000000000 ) ) ;
#64 = APPROVAL_DATE_TIME ( #171, #80 ) ;
#65 = DIRECTION ( 'NONE',  ( 0.000000000000000000, 1.000000000000000000, 0.000000000000000000 ) ) ;
#66 = CARTESIAN_POINT ( 'NONE',  ( -4.349819116011843789E-13, 1182.512049714282512, 0.000000000000000000 ) ) ;
#67 = DESIGN_CONTEXT ( 'detailed design', #117, 'design' ) ;
#68 = FACE_OUTER_BOUND ( 'NONE', #55, .T. ) ;
#69 = CC_DESIGN_PERSON_AND_ORGANIZATION_ASSIGNMENT ( #13, #49, ( #34 ) ) ;
#70 = PERSON_AND_ORGANIZATION ( #2, #51 ) ;
#71 = ADVANCED_FACE ( 'NONE', ( #97, #105 ), #57, .T. ) ;
#72 = PERSON_AND_ORGANIZATION_ROLE ( 'creator' ) ;
#73 = APPROVAL_ROLE ( '' ) ;
#74 = FACE_OUTER_BOUND ( 'NONE', #213, .T. ) ;
#75 = EDGE_CURVE ( 'NONE', #37, #37, #193, .T. ) ;
#76 = COORDINATED_UNIVERSAL_TIME_OFFSET ( 1, 0, .AHEAD. ) ;
#77 = ADVANCED_BREP_SHAPE_REPRESENTATION ( '1821-120', ( #138, #53 ), #116 ) ;
#78 = DIRECTION ( 'NONE',  ( 0.000000000000000000, 0.000000000000000000, -1.000000000000000000 ) ) ;
#79 = EDGE_LOOP ( 'NONE', ( #187 ) ) ;
#80 = APPROVAL ( #149, 'UNSPECIFIED' ) ;
#81 = CARTESIAN_POINT ( 'NONE',  ( 0.000000000000000000, 0.000000000000000000, -5.700000000000000178 ) ) ;
#82 = APPLICATION_PROTOCOL_DEFINITION ( 'international standard', 'config_control_design', 1994, #180 ) ;
#83 = DIRECTION ( 'NONE',  ( -0.000000000000000000, -1.000000000000000000, -0.000000000000000000 ) ) ;
#84 = CARTESIAN_POINT ( 'NONE',  ( -4.349819116011843789E-13, 1182.251468532456329, 0.000000000000000000 ) ) ;
#85 = ORIENTED_EDGE ( 'NONE', *, *, #153, .T. ) ;
#86 = EDGE_CURVE ( 'NONE', #118, #118, #99, .T. ) ;
#87 = CLOSED_SHELL ( 'NONE', ( #89, #202, #11, #147, #48, #71, #47 ) ) ;
#88 = AXIS2_PLACEMENT_3D ( 'NONE', #111, #41, #159 ) ;
#89 = ADVANCED_FACE ( 'NONE', ( #206 ), #137, .T. ) ;
#90 = PERSON_AND_ORGANIZATION_ROLE ( 'design_supplier' ) ;
#91 = ORIENTED_EDGE ( 'NONE', *, *, #75, .F. ) ;
#92 = CALENDAR_DATE ( 2022, 14, 4 ) ;
#93 = FACE_OUTER_BOUND ( 'NONE', #175, .T. ) ;
#94 = ORIENTED_EDGE ( 'NONE', *, *, #153, .F. ) ;
#95 = COORDINATED_UNIVERSAL_TIME_OFFSET ( 1, 0, .AHEAD. ) ;
#96 = EDGE_CURVE ( 'NONE', #9, #9, #102, .T. ) ;
#97 = FACE_OUTER_BOUND ( 'NONE', #200, .T. ) ;
#98 = DIRECTION ( 'NONE',  ( 0.000000000000000000, 0.000000000000000000, 1.000000000000000000 ) ) ;
#99 = CIRCLE ( 'NONE', #185, 6.000000000000000000 ) ;
#100 = APPROVAL_PERSON_ORGANIZATION ( #110, #186, #166 ) ;
#101 = CIRCLE ( 'NONE', #20, 5.999884326195812356 ) ;
#102 = CIRCLE ( 'NONE', #152, 5.004744007134552142 ) ;
#103 = SECURITY_CLASSIFICATION_LEVEL ( 'unclassified' ) ;
#104 = DATE_AND_TIME ( #92, #23 ) ;
#105 = FACE_OUTER_BOUND ( 'NONE', #12, .T. ) ;
#106 = PERSON_AND_ORGANIZATION ( #2, #51 ) ;
#107 = ORIENTED_EDGE ( 'NONE', *, *, #177, .F. ) ;
#108 = COORDINATED_UNIVERSAL_TIME_OFFSET ( 1, 0, .AHEAD. ) ;
#109 = DIRECTION ( 'NONE',  ( 1.000000000000000000, 0.000000000000000000, 0.000000000000000000 ) ) ;
#110 = PERSON_AND_ORGANIZATION ( #2, #51 ) ;
#111 = CARTESIAN_POINT ( 'NONE',  ( 0.000000000000000000, 0.000000000000000000, 0.000000000000000000 ) ) ;
#112 = EDGE_LOOP ( 'NONE', ( #50 ) ) ;
#113 = CC_DESIGN_PERSON_AND_ORGANIZATION_ASSIGNMENT ( #106, #17, ( #170 ) ) ;
#114 = DIRECTION ( 'NONE',  ( 0.000000000000000000, 0.000000000000000000, -1.000000000000000000 ) ) ;
#115 = EDGE_CURVE ( 'NONE', #210, #210, #1, .T. ) ;
#116 =( GEOMETRIC_REPRESENTATION_CONTEXT ( 3 ) GLOBAL_UNCERTAINTY_ASSIGNED_CONTEXT ( ( #143 ) ) GLOBAL_UNIT_ASSIGNED_CONTEXT ( ( #199, #209, #198 ) ) REPRESENTATION_CONTEXT ( 'NONE', 'WORKASPACE' ) );
#117 = APPLICATION_CONTEXT ( 'configuration controlled 3d designs of mechanical parts and assemblies' ) ;
#118 = VERTEX_POINT ( 'NONE', #62 ) ;
#119 = CC_DESIGN_PERSON_AND_ORGANIZATION_ASSIGNMENT ( #70, #90, ( #165 ) ) ;
#120 = COORDINATED_UNIVERSAL_TIME_OFFSET ( 1, 0, .AHEAD. ) ;
#121 = CARTESIAN_POINT ( 'NONE',  ( 0.000000000000000000, 1146.418086926076967, 0.000000000000000000 ) ) ;
#122 = AXIS2_PLACEMENT_3D ( 'NONE', #121, #157, #98 ) ;
#123 = EDGE_LOOP ( 'NONE', ( #145 ) ) ;
#124 = CARTESIAN_POINT ( 'NONE',  ( -4.349819116011843789E-13, 1182.251468532456329, -5.004744007134552142 ) ) ;
#125 = TOROIDAL_SURFACE ( 'NONE', #27, 5.700000000000000178, 0.2999999999999999889 ) ;
#126 = DIRECTION ( 'NONE',  ( 1.000000000000000000, 0.000000000000000000, 0.000000000000000000 ) ) ;
#127 = DATE_TIME_ROLE ( 'creation_date' ) ;
#128 = DATE_TIME_ROLE ( 'classification_date' ) ;
#129 = VERTEX_POINT ( 'NONE', #26 ) ;
#130 = PERSON_AND_ORGANIZATION ( #2, #51 ) ;
#131 = CC_DESIGN_DATE_AND_TIME_ASSIGNMENT ( #146, #127, ( #33 ) ) ;
#132 = CONICAL_SURFACE ( 'NONE', #16, 6.000000000000000000, 0.02777063659341954399 ) ;
#133 = AXIS2_PLACEMENT_3D ( 'NONE', #192, #135, #196 ) ;
#134 = ORIENTED_EDGE ( 'NONE', *, *, #115, .T. ) ;
#135 = DIRECTION ( 'NONE',  ( 0.000000000000000000, 1.000000000000000000, 0.000000000000000000 ) ) ;
#136 = CYLINDRICAL_SURFACE ( 'NONE', #144, 6.000000000000000000 ) ;
#137 = PLANE ( 'NONE',  #88 ) ;
#138 = MANIFOLD_SOLID_BREP ( 'Verrundung1', #87 ) ;
#139 = CC_DESIGN_PERSON_AND_ORGANIZATION_ASSIGNMENT ( #191, #214, ( #33 ) ) ;
#140 = LOCAL_TIME ( 14, 14, 27.00000000000000000, #108 ) ;
#141 = EDGE_LOOP ( 'NONE', ( #184 ) ) ;
#142 = CARTESIAN_POINT ( 'NONE',  ( 0.000000000000000000, 0.000000000000000000, 0.000000000000000000 ) ) ;
#143 = UNCERTAINTY_MEASURE_WITH_UNIT (LENGTH_MEASURE( 1.000000000000000082E-05 ), #199, 'distance_accuracy_value', 'NONE');
#144 = AXIS2_PLACEMENT_3D ( 'NONE', #161, #179, #60 ) ;
#145 = ORIENTED_EDGE ( 'NONE', *, *, #86, .T. ) ;
#146 = DATE_AND_TIME ( #190, #156 ) ;
#147 = ADVANCED_FACE ( 'NONE', ( #45 ), #61, .T. ) ;
#148 = MECHANICAL_CONTEXT ( 'NONE', #180, 'mechanical' ) ;
#149 = APPROVAL_STATUS ( 'not_yet_approved' ) ;
#150 = FACE_OUTER_BOUND ( 'NONE', #79, .T. ) ;
#151 = COORDINATED_UNIVERSAL_TIME_OFFSET ( 1, 0, .AHEAD. ) ;
#152 = AXIS2_PLACEMENT_3D ( 'NONE', #84, #83, #28 ) ;
#153 = EDGE_CURVE ( 'NONE', #52, #52, #163, .T. ) ;
#154 = CARTESIAN_POINT ( 'NONE',  ( 0.000000000000000000, 1146.418086926076967, 0.000000000000000000 ) ) ;
#155 = CC_DESIGN_APPROVAL ( #212, ( #165 ) ) ;
#156 = LOCAL_TIME ( 14, 14, 27.00000000000000000, #95 ) ;
#157 = DIRECTION ( 'NONE',  ( 0.000000000000000000, 1.000000000000000000, 0.000000000000000000 ) ) ;
#158 = AXIS2_PLACEMENT_3D ( 'NONE', #154, #38, #56 ) ;
#159 = DIRECTION ( 'NONE',  ( 0.000000000000000000, 0.000000000000000000, -1.000000000000000000 ) ) ;
#160 = LOCAL_TIME ( 14, 14, 27.00000000000000000, #151 ) ;
#161 = CARTESIAN_POINT ( 'NONE',  ( 0.000000000000000000, 0.000000000000000000, 0.000000000000000000 ) ) ;
#162 = DIRECTION ( 'NONE',  ( 0.000000000000000000, 0.000000000000000000, 1.000000000000000000 ) ) ;
#163 = CIRCLE ( 'NONE', #14, 5.142241751697974372 ) ;
#164 = DIRECTION ( 'NONE',  ( 0.000000000000000000, 0.000000000000000000, 1.000000000000000000 ) ) ;
#165 = PRODUCT_DEFINITION_FORMATION_WITH_SPECIFIED_SOURCE ( 'ANY', '', #34, .NOT_KNOWN. ) ;
#166 = APPROVAL_ROLE ( '' ) ;
#167 = APPLICATION_PROTOCOL_DEFINITION ( 'international standard', 'config_control_design', 1994, #117 ) ;
#168 = APPROVAL_STATUS ( 'not_yet_approved' ) ;
#169 = FACE_OUTER_BOUND ( 'NONE', #141, .T. ) ;
#170 = SECURITY_CLASSIFICATION ( '', '', #103 ) ;
#171 = DATE_AND_TIME ( #54, #140 ) ;
#172 = ORIENTED_EDGE ( 'NONE', *, *, #75, .T. ) ;
#173 = ORIENTED_EDGE ( 'NONE', *, *, #96, .T. ) ;
#174 = APPROVAL_DATE_TIME ( #201, #186 ) ;
#175 = EDGE_LOOP ( 'NONE', ( #172 ) ) ;
#176 = CARTESIAN_POINT ( 'NONE',  ( -4.349819116011843789E-13, 1182.512049714282512, 5.142241751697974372 ) ) ;
#177 = EDGE_CURVE ( 'NONE', #129, #129, #101, .T. ) ;
#178 = FACE_OUTER_BOUND ( 'NONE', #123, .T. ) ;
#179 = DIRECTION ( 'NONE',  ( -0.000000000000000000, -1.000000000000000000, -0.000000000000000000 ) ) ;
#180 = APPLICATION_CONTEXT ( 'configuration controlled 3d designs of mechanical parts and assemblies' ) ;
#181 = DIRECTION ( 'NONE',  ( 0.000000000000000000, 0.000000000000000000, -1.000000000000000000 ) ) ;
#182 = DATE_AND_TIME ( #5, #160 ) ;
#183 = DIRECTION ( 'NONE',  ( 0.000000000000000000, 0.000000000000000000, 1.000000000000000000 ) ) ;
#184 = ORIENTED_EDGE ( 'NONE', *, *, #177, .T. ) ;
#185 = AXIS2_PLACEMENT_3D ( 'NONE', #211, #65, #181 ) ;
#186 = APPROVAL ( #46, 'UNSPECIFIED' ) ;
#187 = ORIENTED_EDGE ( 'NONE', *, *, #86, .F. ) ;
#188 = ORIENTED_EDGE ( 'NONE', *, *, #115, .F. ) ;
#189 = AXIS2_PLACEMENT_3D ( 'NONE', #197, #7, #114 ) ;
#190 = CALENDAR_DATE ( 2022, 14, 4 ) ;
#191 = PERSON_AND_ORGANIZATION ( #2, #51 ) ;
#192 = CARTESIAN_POINT ( 'NONE',  ( -4.349819116011843789E-13, 1182.259798652628433, 0.000000000000000000 ) ) ;
#193 = CIRCLE ( 'NONE', #158, 6.000000000000000000 ) ;
#194 = CC_DESIGN_APPROVAL ( #186, ( #33 ) ) ;
#195 = APPROVAL_PERSON_ORGANIZATION ( #130, #80, #73 ) ;
#196 = DIRECTION ( 'NONE',  ( 0.000000000000000000, 0.000000000000000000, 1.000000000000000000 ) ) ;
#197 = CARTESIAN_POINT ( 'NONE',  ( 0.000000000000000000, 0.000000000000000000, 0.000000000000000000 ) ) ;
#198 =( NAMED_UNIT ( * ) SI_UNIT ( $, .STERADIAN. ) SOLID_ANGLE_UNIT ( ) );
#199 =( LENGTH_UNIT ( ) NAMED_UNIT ( * ) SI_UNIT ( .MILLI., .METRE. ) );
#200 = EDGE_LOOP ( 'NONE', ( #107 ) ) ;
#201 = DATE_AND_TIME ( #44, #18 ) ;
#202 = ADVANCED_FACE ( 'NONE', ( #178, #93 ), #136, .T. ) ;
#203 = FACE_BOUND ( 'NONE', #29, .T. ) ;
#204 = APPROVAL_PERSON_ORGANIZATION ( #19, #212, #31 ) ;
#205 = PRODUCT_RELATED_PRODUCT_CATEGORY ( 'detail', '', ( #34 ) ) ;
#206 = FACE_OUTER_BOUND ( 'NONE', #215, .T. ) ;
#207 = CARTESIAN_POINT ( 'NONE',  ( 0.000000000000000000, 1146.418086926076967, 6.000000000000000000 ) ) ;
#208 = CARTESIAN_POINT ( 'NONE',  ( -4.349819116011843789E-13, 1190.500000000000000, 0.000000000000000000 ) ) ;
#209 =( NAMED_UNIT ( * ) PLANE_ANGLE_UNIT ( ) SI_UNIT ( $, .RADIAN. ) );
#210 = VERTEX_POINT ( 'NONE', #81 ) ;
#211 = CARTESIAN_POINT ( 'NONE',  ( 0.000000000000000000, 0.2999999999999999889, 0.000000000000000000 ) ) ;
#212 = APPROVAL ( #168, 'UNSPECIFIED' ) ;
#213 = EDGE_LOOP ( 'NONE', ( #94 ) ) ;
#214 = PERSON_AND_ORGANIZATION_ROLE ( 'creator' ) ;
#215 = EDGE_LOOP ( 'NONE', ( #134 ) ) ;
ENDSEC;
END-ISO-10303-21;
