  0
SECTION
  2
HEADER
  9
$ACADVER
  1
AC1015
  9
$ACADMAINTVER
 70
     6
  9
$DWGCODEPAGE
  3
ANSI_1252
  9
$INSBASE
 10
0.0
 20
0.0
 30
0.0
  9
$EXTMIN
 10
0.0
 20
0.0
 30
0.0
  9
$EXTMAX
 10
14850.0
 20
10500.0
 30
0.0
  9
$LIMMIN
 10
0.0
 20
0.0
  9
$LIMMAX
 10
14850.0
 20
10500.0
  9
$ORTHOMODE
 70
     0
  9
$REGENMODE
 70
     1
  9
$FILLMODE
 70
     1
  9
$QTEXTMODE
 70
     0
  9
$MIRRTEXT
 70
     1
  9
$LTSCALE
 40
50.0
  9
$ATTMODE
 70
     1
  9
$TEXTSIZE
 40
175.0
  9
$TRACEWID
 40
1.0
  9
$TEXTSTYLE
  7
Standard
  9
$CLAYER
  8
0
  9
$CELTYPE
  6
ByLayer
  9
$CECOLOR
 62
   256
  9
$CELTSCALE
 40
1.0
  9
$DISPSILH
 70
     0
  9
$DIMSCALE
 40
1.0
  9
$DIMASZ
 40
165.1
  9
$DIMEXO
 40
50.0
  9
$DIMDLI
 40
3.75
  9
$DIMRND
 40
0.0
  9
$DIMDLE
 40
0.0
  9
$DIMEXE
 40
50.0
  9
$DIMTP
 40
0.0
  9
$DIMTM
 40
0.0
  9
$DIMTXT
 40
175.0
  9
$DIMCEN
 40
2.5
  9
$DIMTSZ
 40
0.0
  9
$DIMTOL
 70
     0
  9
$DIMLIM
 70
     0
  9
$DIMTIH
 70
     1
  9
$DIMTOH
 70
     1
  9
$DIMSE1
 70
     0
  9
$DIMSE2
 70
     0
  9
$DIMTAD
 70
     1
  9
$DIMZIN
 70
     0
  9
$DIMBLK
  1

  9
$DIMASO
 70
     1
  9
$DIMSHO
 70
     1
  9
$DIMPOST
  1

  9
$DIMAPOST
  1

  9
$DIMALT
 70
     0
  9
$DIMALTD
 70
     3
  9
$DIMALTF
 40
0.0393700787
  9
$DIMLFAC
 40
1.0
  9
$DIMTOFL
 70
     1
  9
$DIMTVP
 40
0.0
  9
$DIMTIX
 70
     0
  9
$DIMSOXD
 70
     0
  9
$DIMSAH
 70
     0
  9
$DIMBLK1
  1

  9
$DIMBLK2
  1

  9
$DIMSTYLE
  2
ISO-25
  9
$DIMCLRD
 70
     0
  9
$DIMCLRE
 70
     0
  9
$DIMCLRT
 70
     0
  9
$DIMTFAC
 40
1.0
  9
$DIMGAP
 40
76.2
  9
$DIMJUST
 70
     0
  9
$DIMSD1
 70
     0
  9
$DIMSD2
 70
     0
  9
$DIMTOLJ
 70
     0
  9
$DIMTZIN
 70
     0
  9
$DIMALTZ
 70
     0
  9
$DIMALTTZ
 70
     0
  9
$DIMUPT
 70
     0
  9
$DIMDEC
 70
     2
  9
$DIMTDEC
 70
     2
  9
$DIMALTU
 70
     2
  9
$DIMALTTD
 70
     3
  9
$DIMTXSTY
  7
Standard
  9
$DIMAUNIT
 70
     0
  9
$DIMADEC
 70
     2
  9
$DIMALTRND
 40
0.0
  9
$DIMAZIN
 70
     0
  9
$DIMDSEP
 70
    44
  9
$DIMATFIT
 70
     3
  9
$DIMFRAC
 70
     0
  9
$DIMLDRBLK
  1

  9
$DIMLUNIT
 70
     2
  9
$DIMLWD
 70
    -2
  9
$DIMLWE
 70
    -2
  9
$DIMTMOVE
 70
     0
  9
$LUNITS
 70
     2
  9
$LUPREC
 70
     2
  9
$SKETCHINC
 40
1.0
  9
$FILLETRAD
 40
10.0
  9
$AUNITS
 70
     0
  9
$AUPREC
 70
     2
  9
$MENU
  1
.
  9
$ELEVATION
 40
0.0
  9
$PELEVATION
 40
0.0
  9
$THICKNESS
 40
0.0
  9
$LIMCHECK
 70
     0
  9
$CHAMFERA
 40
0.0
  9
$CHAMFERB
 40
0.0
  9
$CHAMFERC
 40
0.0
  9
$CHAMFERD
 40
0.0
  9
$SKPOLY
 70
     0
  9
$TDCREATE
 40
2456902.495066644
  9
$TDUCREATE
 40
2456902.41173331
  9
$TDUPDATE
 40
2456902.495067697
  9
$TDUUPDATE
 40
2456902.411734364
  9
$TDINDWG
 40
0.0000000116
  9
$TDUSRTIMER
 40
0.0000000116
  9
$USRTIMER
 70
     1
  9
$ANGBASE
 50
0.0
  9
$ANGDIR
 70
     0
  9
$PDMODE
 70
     0
  9
$PDSIZE
 40
-1.0
  9
$PLINEWID
 40
0.0
  9
$SPLFRAME
 70
     0
  9
$SPLINETYPE
 70
     6
  9
$SPLINESEGS
 70
     8
  9
$HANDSEED
  5
429
  9
$SURFTAB1
 70
     6
  9
$SURFTAB2
 70
     6
  9
$SURFTYPE
 70
     6
  9
$SURFU
 70
     6
  9
$SURFV
 70
     6
  9
$UCSBASE
  2

  9
$UCSNAME
  2

  9
$UCSORG
 10
0.0
 20
0.0
 30
0.0
  9
$UCSXDIR
 10
1.0
 20
0.0
 30
0.0
  9
$UCSYDIR
 10
0.0
 20
1.0
 30
0.0
  9
$UCSORTHOREF
  2

  9
$UCSORTHOVIEW
 70
     0
  9
$UCSORGTOP
 10
0.0
 20
0.0
 30
0.0
  9
$UCSORGBOTTOM
 10
0.0
 20
0.0
 30
0.0
  9
$UCSORGLEFT
 10
0.0
 20
0.0
 30
0.0
  9
$UCSORGRIGHT
 10
0.0
 20
0.0
 30
0.0
  9
$UCSORGFRONT
 10
0.0
 20
0.0
 30
0.0
  9
$UCSORGBACK
 10
0.0
 20
0.0
 30
0.0
  9
$PUCSBASE
  2

  9
$PUCSNAME
  2

  9
$PUCSORG
 10
0.0
 20
0.0
 30
0.0
  9
$PUCSXDIR
 10
1.0
 20
0.0
 30
0.0
  9
$PUCSYDIR
 10
0.0
 20
1.0
 30
0.0
  9
$PUCSORTHOREF
  2

  9
$PUCSORTHOVIEW
 70
     0
  9
$PUCSORGTOP
 10
0.0
 20
0.0
 30
0.0
  9
$PUCSORGBOTTOM
 10
0.0
 20
0.0
 30
0.0
  9
$PUCSORGLEFT
 10
0.0
 20
0.0
 30
0.0
  9
$PUCSORGRIGHT
 10
0.0
 20
0.0
 30
0.0
  9
$PUCSORGFRONT
 10
0.0
 20
0.0
 30
0.0
  9
$PUCSORGBACK
 10
0.0
 20
0.0
 30
0.0
  9
$USERI1
 70
     0
  9
$USERI2
 70
     0
  9
$USERI3
 70
     0
  9
$USERI4
 70
     0
  9
$USERI5
 70
     0
  9
$USERR1
 40
0.0
  9
$USERR2
 40
0.0
  9
$USERR3
 40
0.0
  9
$USERR4
 40
0.0
  9
$USERR5
 40
0.0
  9
$WORLDVIEW
 70
     1
  9
$SHADEDGE
 70
     3
  9
$SHADEDIF
 70
    70
  9
$TILEMODE
 70
     1
  9
$MAXACTVP
 70
    64
  9
$PINSBASE
 10
0.0
 20
0.0
 30
0.0
  9
$PLIMCHECK
 70
     0
  9
$PEXTMIN
 10
1.0000000000E+20
 20
1.0000000000E+20
 30
1.0000000000E+20
  9
$PEXTMAX
 10
-1.0000000000E+20
 20
-1.0000000000E+20
 30
-1.0000000000E+20
  9
$PLIMMIN
 10
0.0
 20
0.0
  9
$PLIMMAX
 10
420.0
 20
297.0
  9
$UNITMODE
 70
     0
  9
$VISRETAIN
 70
     1
  9
$PLINEGEN
 70
     0
  9
$PSLTSCALE
 70
     1
  9
$TREEDEPTH
 70
  3020
  9
$CMLSTYLE
  2
Standard
  9
$CMLJUST
 70
     0
  9
$CMLSCALE
 40
20.0
  9
$PROXYGRAPHICS
 70
     1
  9
$MEASUREMENT
 70
     1
  9
$CELWEIGHT
370
    -1
  9
$ENDCAPS
280
     0
  9
$JOINSTYLE
280
     0
  9
$LWDISPLAY
290
     1
  9
$INSUNITS
 70
     4
  9
$HYPERLINKBASE
  1

  9
$STYLESHEET
  1

  9
$XEDIT
290
     1
  9
$CEPSNTYPE
380
     0
  9
$PSTYLEMODE
290
     1
  9
$FINGERPRINTGUID
  2
{FC16D5A8-3C1A-450E-8F93-59539FFD2765}
  9
$VERSIONGUID
  2
{FAEB1C32-E019-11D5-929B-00C0DF256EC4}
  9
$EXTNAMES
290
     1
  9
$PSVPSCALE
 40
0.0
  9
$OLESTARTUP
290
     0
  0
ENDSEC
  0
SECTION
  2
CLASSES
  0
CLASS
  1
ACDBDICTIONARYWDFLT
  2
AcDbDictionaryWithDefault
  3
ObjectDBX Classes
 90
        0
280
     0
281
     0
  0
CLASS
  1
VISUALSTYLE
  2
AcDbVisualStyle
  3
ObjectDBX Classes
 90
     4095
280
     0
281
     0
  0
CLASS
  1
MATERIAL
  2
AcDbMaterial
  3
ObjectDBX Classes
 90
     1153
280
     0
281
     0
  0
CLASS
  1
SCALE
  2
AcDbScale
  3
ObjectDBX Classes
 90
     1153
280
     0
281
     0
  0
CLASS
  1
SUN
  2
AcDbSun
  3
SCENEOE
 90
     1153
280
     0
281
     0
  0
CLASS
  1
ACDBPLACEHOLDER
  2
AcDbPlaceHolder
  3
ObjectDBX Classes
 90
        0
280
     0
281
     0
  0
CLASS
  1
LAYOUT
  2
AcDbLayout
  3
ObjectDBX Classes
 90
        0
280
     0
281
     0
  0
ENDSEC
  0
SECTION
  2
TABLES
  0
TABLE
  2
VPORT
  5
8
330
0
100
AcDbSymbolTable
 70
     1
  0
VPORT
  5
29
330
8
100
AcDbSymbolTableRecord
100
AcDbViewportTableRecord
  2
*Active
 70
     0
 10
0.0
 20
0.0
 11
1.0
 21
1.0
 12
7425.0
 22
5250.0
 13
0.0
 23
0.0
 14
10.0
 24
10.0
 15
10.0
 25
10.0
 16
0.0
 26
0.0
 36
1.0
 17
0.0
 27
0.0
 37
0.0
 40
10500.0
 41
1.4142857143
 42
50.0
 43
0.0
 44
0.0
 50
0.0
 51
0.0
 71
     0
 72
  2000
 73
     1
 74
     3
 75
     0
 76
     0
 77
     0
 78
     0
281
     0
 65
     1
110
0.0
120
0.0
130
0.0
111
1.0
121
0.0
131
0.0
112
0.0
122
1.0
132
0.0
 79
     0
146
0.0
  0
ENDTAB
  0
TABLE
  2
LTYPE
  5
5
330
0
100
AcDbSymbolTable
 70
     6
  0
LTYPE
  5
14
330
5
100
AcDbSymbolTableRecord
100
AcDbLinetypeTableRecord
  2
ByBlock
 70
     0
  3

 72
    65
 73
     0
 40
0.0
  0
LTYPE
  5
15
330
5
100
AcDbSymbolTableRecord
100
AcDbLinetypeTableRecord
  2
ByLayer
 70
     0
  3

 72
    65
 73
     0
 40
0.0
  0
LTYPE
  5
16
330
5
100
AcDbSymbolTableRecord
100
AcDbLinetypeTableRecord
  2
Continuous
 70
     0
  3
Solid line
 72
    65
 73
     0
 40
0.0
  0
LTYPE
  5
6A
330
5
100
AcDbSymbolTableRecord
100
AcDbLinetypeTableRecord
  2
HIDDEN
 70
     0
  3
Hidden __ __ __ __ __ __ __ __ __ __ __ __ __ __
 72
    65
 73
     2
 40
1.905
 49
1.27
 74
     0
 49
-0.635
 74
     0
  0
LTYPE
  5
6B
330
5
100
AcDbSymbolTableRecord
100
AcDbLinetypeTableRecord
  2
PHANTOM
 70
     0
  3
Phantom ______  __  __  ______  __  __  ______
 72
    65
 73
     6
 40
12.7
 49
6.35
 74
     0
 49
-1.27
 74
     0
 49
1.27
 74
     0
 49
-1.27
 74
     0
 49
1.27
 74
     0
 49
-1.27
 74
     0
  0
LTYPE
  5
6C
330
5
100
AcDbSymbolTableRecord
100
AcDbLinetypeTableRecord
  2
CENTER
 70
     0
  3
Center ____ _ ____ _ ____ _ ____ _ ____ _ ____
 72
    65
 73
     4
 40
10.16
 49
6.35
 74
     0
 49
-1.27
 74
     0
 49
1.27
 74
     0
 49
-1.27
 74
     0
  0
LTYPE
  5
6D
330
5
100
AcDbSymbolTableRecord
100
AcDbLinetypeTableRecord
  2
CENTERX2
 70
     0
  3
Center (2x) ________  __  ________  __  _____
 72
    65
 73
     4
 40
20.32
 49
12.7
 74
     0
 49
-2.54
 74
     0
 49
2.54
 74
     0
 49
-2.54
 74
     0
  0
LTYPE
  5
6E
330
5
100
AcDbSymbolTableRecord
100
AcDbLinetypeTableRecord
  2
DOT2
 70
     0
  3
Dot (.5x) ........................................
 72
    65
 73
     2
 40
0.635
 49
0.0
 74
     0
 49
-0.635
 74
     0
  0
ENDTAB
  0
TABLE
  2
LAYER
  5
2
330
0
100
AcDbSymbolTable
 70
     2
  0
LAYER
  5
10
330
2
100
AcDbSymbolTableRecord
100
AcDbLayerTableRecord
  2
0
 70
     0
 62
     7
  6
Continuous
370
    -3
390
F
  0
LAYER
  5
6F
330
2
100
AcDbSymbolTableRecord
100
AcDbLayerTableRecord
  2
FORMAT
 70
     0
 62
     7
  6
Continuous
370
    -3
390
F
  0
ENDTAB
  0
TABLE
  2
STYLE
  5
3
330
0
100
AcDbSymbolTable
 70
     3
  0
STYLE
  5
11
330
3
100
AcDbSymbolTableRecord
100
AcDbTextStyleTableRecord
  2
Standard
 70
     0
 40
0.0
 41
1.0
 50
0.0
 71
     0
 42
175.0
  3
txt
  4

  0
STYLE
  5
8C
330
3
100
AcDbSymbolTableRecord
100
AcDbTextStyleTableRecord
  2
SLDTEXTSTYLE0
 70
     0
 40
0.0
 41
0.75
 50
0.0
 71
     0
 42
175.0
  3
TXT
  4

  0
STYLE
  5
94
330
3
100
AcDbSymbolTableRecord
100
AcDbTextStyleTableRecord
  2
SLDTEXTSTYLE1
 70
     0
 40
0.0
 41
0.6923076923
 50
0.0
 71
     0
 42
175.0
  3
TXT
  4

  0
ENDTAB
  0
TABLE
  2
VIEW
  5
6
330
0
100
AcDbSymbolTable
 70
     0
  0
ENDTAB
  0
TABLE
  2
UCS
  5
7
330
0
100
AcDbSymbolTable
 70
     0
  0
ENDTAB
  0
TABLE
  2
APPID
  5
9
330
0
100
AcDbSymbolTable
 70
     1
  0
APPID
  5
12
330
9
100
AcDbSymbolTableRecord
100
AcDbRegAppTableRecord
  2
ACAD
 70
     0
  0
ENDTAB
  0
TABLE
  2
DIMSTYLE
  5
A
330
0
100
AcDbSymbolTable
 70
     1
100
AcDbDimStyleTable
  0
DIMSTYLE
105
27
330
A
100
AcDbSymbolTableRecord
100
AcDbDimStyleTableRecord
  2
ISO-25
 70
     0
 41
2.5
 42
0.625
 43
3.75
 44
1.25
 73
     0
 74
     0
 77
     1
 78
     8
140
2.5
141
2.5
143
0.0393700787
147
0.625
171
     3
172
     1
178
     0
271
     2
272
     2
274
     3
278
    44
283
     0
284
     8
340
11
  0
ENDTAB
  0
TABLE
  2
BLOCK_RECORD
  5
1
330
0
100
AcDbSymbolTable
 70
     1
  0
BLOCK_RECORD
  5
1F
330
1
100
AcDbSymbolTableRecord
100
AcDbBlockTableRecord
  2
*Model_Space
340
22
  0
BLOCK_RECORD
  5
1B
330
1
100
AcDbSymbolTableRecord
100
AcDbBlockTableRecord
  2
*Paper_Space
340
1E
  0
BLOCK_RECORD
  5
23
330
1
100
AcDbSymbolTableRecord
100
AcDbBlockTableRecord
  2
*Paper_Space0
340
26
  0
ENDTAB
  0
ENDSEC
  0
SECTION
  2
BLOCKS
  0
BLOCK
  5
20
330
1F
100
AcDbEntity
  8
0
100
AcDbBlockBegin
  2
*Model_Space
 70
     0
 10
0.0
 20
0.0
 30
0.0
  3
*Model_Space
  1
*Model_Space
  0
ENDBLK
  5
21
330
1F
100
AcDbEntity
  8
0
100
AcDbBlockEnd
  0
BLOCK
  5
1C
330
1B
100
AcDbEntity
 67
     1
  8
0
100
AcDbBlockBegin
  2
*Paper_Space
 70
     0
 10
0.0
 20
0.0
 30
0.0
  3
*Paper_Space
  1
*Paper_Space
  0
ENDBLK
  5
1D
330
1B
100
AcDbEntity
 67
     1
  8
0
100
AcDbBlockEnd
  0
BLOCK
  5
24
330
23
100
AcDbEntity
  8
0
100
AcDbBlockBegin
  2
*Paper_Space0
 70
     0
 10
0.0
 20
0.0
 30
0.0
  3
*Paper_Space0
  1
*Paper_Space0
  0
ENDBLK
  5
25
330
23
100
AcDbEntity
  8
0
100
AcDbBlockEnd
  0
ENDSEC
  0
SECTION
  2
ENTITIES
  0
LINE
  5
70
330
1F
100
AcDbEntity
  8
0
  6
Continuous
 62
     7
370
     0
100
AcDbLine
 10
14600.0
 20
10250.0
 30
0.0
 11
14600.0
 21
250.0
 31
0.0
  0
LINE
  5
71
330
1F
100
AcDbEntity
  8
0
  6
Continuous
 62
     7
370
     0
100
AcDbLine
 10
7970.0
 20
1737.5
 30
0.0
 11
8706.5
 21
1737.5
 31
0.0
  0
LINE
  5
72
330
1F
100
AcDbEntity
  8
0
  6
Continuous
 62
     7
370
     0
100
AcDbLine
 10
10180.0
 20
1737.5
 30
0.0
 11
14600.0
 21
1737.5
 31
0.0
  0
LINE
  5
73
330
1F
100
AcDbEntity
  8
0
  6
Continuous
 62
     7
370
     0
100
AcDbLine
 10
7970.0
 20
462.5
 30
0.0
 11
14600.0
 21
462.5
 31
0.0
  0
LINE
  5
74
330
1F
100
AcDbEntity
  8
0
  6
Continuous
 62
     7
370
     0
100
AcDbLine
 10
7970.0
 20
1737.5
 30
0.0
 11
7970.0
 21
1418.75
 31
0.0
  0
LINE
  5
75
330
1F
100
AcDbEntity
  8
0
  6
Continuous
 62
     7
370
     0
100
AcDbLine
 10
14600.0
 20
1100.0
 30
0.0
 11
13950.0
 21
1100.0
 31
0.0
  0
LINE
  5
76
330
1F
100
AcDbEntity
  8
0
  6
Continuous
 62
     7
370
     0
100
AcDbLine
 10
9443.0
 20
1100.0
 30
0.0
 11
10180.0
 21
1100.0
 31
0.0
  0
LINE
  5
77
330
1F
100
AcDbEntity
  8
0
  6
Continuous
 62
     7
370
     0
100
AcDbLine
 10
10180.0
 20
1737.5
 30
0.0
 11
10180.0
 21
250.0
 31
0.0
  0
LINE
  5
78
330
1F
100
AcDbEntity
  8
0
  6
Continuous
 62
     7
370
     0
100
AcDbLine
 10
12390.0
 20
250.0
 30
0.0
 11
12390.0
 21
462.5
 31
0.0
  0
LINE
  5
79
330
1F
100
AcDbEntity
  8
0
  6
Continuous
 62
     7
370
     0
100
AcDbLine
 10
8706.5
 20
1737.5
 30
0.0
 11
9443.0
 21
1737.5
 31
0.0
  0
LINE
  5
7A
330
1F
100
AcDbEntity
  8
0
  6
Continuous
 62
     7
370
     0
100
AcDbLine
 10
13950.0
 20
462.5
 30
0.0
 11
13950.0
 21
774.7484680088
 31
0.0
  0
LINE
  5
7B
330
1F
100
AcDbEntity
  8
0
  6
Continuous
 62
     7
370
     0
100
AcDbLine
 10
9443.0
 20
1737.5
 30
0.0
 11
10180.0
 21
1737.5
 31
0.0
  0
LINE
  5
7C
330
1F
100
AcDbEntity
  8
0
  6
Continuous
 62
     7
370
     0
100
AcDbLine
 10
14600.0
 20
774.7484680088
 30
0.0
 11
13950.0
 21
774.7484680088
 31
0.0
  0
LINE
  5
7D
330
1F
100
AcDbEntity
  8
0
  6
Continuous
 62
     7
370
     0
100
AcDbLine
 10
10180.0
 20
1100.0
 30
0.0
 11
13950.0
 21
1100.0
 31
0.0
  0
LINE
  5
7E
330
1F
100
AcDbEntity
  8
0
  6
Continuous
 62
     7
370
     0
100
AcDbLine
 10
9443.0
 20
1737.5
 30
0.0
 11
9443.0
 21
1100.0
 31
0.0
  0
LINE
  5
7F
330
1F
100
AcDbEntity
  8
0
  6
Continuous
 62
     7
370
     0
100
AcDbLine
 10
9443.0
 20
1100.0
 30
0.0
 11
8706.5
 21
1100.0
 31
0.0
  0
LINE
  5
80
330
1F
100
AcDbEntity
  8
0
  6
Continuous
 62
     7
370
     0
100
AcDbLine
 10
14600.0
 20
10250.0
 30
0.0
 11
250.0
 21
10250.0
 31
0.0
  0
LINE
  5
81
330
1F
100
AcDbEntity
  8
0
  6
Continuous
 62
     7
370
     0
100
AcDbLine
 10
250.0
 20
10250.0
 30
0.0
 11
250.0
 21
250.0
 31
0.0
  0
LINE
  5
82
330
1F
100
AcDbEntity
  8
0
  6
Continuous
 62
     7
370
     0
100
AcDbLine
 10
250.0
 20
250.0
 30
0.0
 11
14600.0
 21
250.0
 31
0.0
  0
LINE
  5
83
330
1F
100
AcDbEntity
  8
0
  6
Continuous
 62
     7
370
     0
100
AcDbLine
 10
8706.5
 20
1100.0
 30
0.0
 11
8706.5
 21
1737.5
 31
0.0
  0
LINE
  5
84
330
1F
100
AcDbEntity
  8
0
  6
Continuous
 62
     7
370
     0
100
AcDbLine
 10
8706.5
 20
1100.0
 30
0.0
 11
7970.0
 21
1100.0
 31
0.0
  0
LINE
  5
85
330
1F
100
AcDbEntity
  8
0
  6
Continuous
 62
     7
370
     0
100
AcDbLine
 10
13950.0
 20
774.7484680088
 30
0.0
 11
13950.0
 21
1100.0
 31
0.0
  0
LINE
  5
86
330
1F
100
AcDbEntity
  8
0
  6
Continuous
 62
     7
370
     0
100
AcDbLine
 10
7970.0
 20
1418.75
 30
0.0
 11
8706.5
 21
1418.75
 31
0.0
  0
LINE
  5
87
330
1F
100
AcDbEntity
  8
0
  6
Continuous
 62
     7
370
     0
100
AcDbLine
 10
8706.5
 20
1418.75
 30
0.0
 11
9443.0
 21
1418.75
 31
0.0
  0
LINE
  5
88
330
1F
100
AcDbEntity
  8
0
  6
Continuous
 62
     7
370
     0
100
AcDbLine
 10
9443.0
 20
1418.75
 30
0.0
 11
10180.0
 21
1418.75
 31
0.0
  0
LINE
  5
89
330
1F
100
AcDbEntity
  8
0
  6
Continuous
 62
     7
370
     0
100
AcDbLine
 10
7970.0
 20
1100.0
 30
0.0
 11
7970.0
 21
1418.75
 31
0.0
  0
LINE
  5
8A
330
1F
100
AcDbEntity
  8
0
  6
Continuous
 62
     7
370
     0
100
AcDbLine
 10
7970.0
 20
1100.0
 30
0.0
 11
7970.0
 21
462.5
 31
0.0
  0
LINE
  5
8B
330
1F
100
AcDbEntity
  8
0
  6
Continuous
 62
     7
370
     0
100
AcDbLine
 10
7970.0
 20
250.0
 30
0.0
 11
7970.0
 21
462.5
 31
0.0
  0
MTEXT
  5
8D
330
1F
100
AcDbEntity
  8
0
  6
Continuous
 62
     7
370
     0
100
AcDbMText
 10
14013.846863997
 20
971.6222473842
 30
0.0
 40
75.0
 41
0.0
 71
     1
 72
     1
  1
Blattformat
  7
SLDTEXTSTYLE0
 73
     1
 44
1.0
  0
MTEXT
  5
8E
330
1F
100
AcDbEntity
  8
0
  6
Continuous
 62
     7
370
     0
100
AcDbMText
 10
8118.2120446351
 20
1293.7465234676
 30
0.0
 40
75.0
 41
0.0
 71
     1
 72
     1
  1
Ch. Höfig
  7
SLDTEXTSTYLE0
 73
     1
 44
1.0
  0
MTEXT
  5
8F
330
1F
100
AcDbEntity
  8
0
  6
Continuous
 62
     7
370
     0
100
AcDbMText
 10
8338.8098912947
 20
1610.1782907916
 30
0.0
 40
75.0
 41
0.0
 71
     2
 72
     1
  1
Name
  7
SLDTEXTSTYLE0
 73
     1
 44
1.0
  0
MTEXT
  5
90
330
1F
100
AcDbEntity
  8
0
  6
Continuous
 62
     7
370
     0
100
AcDbMText
 10
8022.2931154381
 20
1049.3028144623
 30
0.0
 40
75.0
 41
0.0
 71
     1
 72
     1
  1
Werkstoff:
  7
SLDTEXTSTYLE0
 73
     1
 44
1.0
  0
MTEXT
  5
91
330
1F
100
AcDbEntity
  8
0
  6
Continuous
 62
     7
370
     0
100
AcDbMText
 10
10243.2492951712
 20
1612.3050731487
 30
0.0
 40
75.0
 41
0.0
 71
     1
 72
     1
  1
Artikelnummer
  7
SLDTEXTSTYLE0
 73
     1
 44
1.0
  0
MTEXT
  5
92
330
1F
100
AcDbEntity
  8
0
  6
Continuous
 62
     7
370
     0
100
AcDbMText
 10
10243.6983058746
 20
993.4318913516
 30
0.0
 40
75.0
 41
0.0
 71
     1
 72
     1
  1
Hersteller
  7
SLDTEXTSTYLE0
 73
     1
 44
1.0
  0
MTEXT
  5
93
330
1F
100
AcDbEntity
  8
0
  6
Continuous
 62
     7
370
     0
100
AcDbMText
 10
10243.6983058746
 20
395.0043637266
 30
0.0
 40
75.0
 41
0.0
 71
     1
 72
     1
  1
Massstab: 1:50
  7
SLDTEXTSTYLE0
 73
     1
 44
1.0
  0
MTEXT
  5
95
330
1F
100
AcDbEntity
  8
0
  6
Continuous
 62
     7
370
     0
100
AcDbMText
 10
12463.9147213908
 20
395.0043637266
 30
0.0
 40
75.0
 41
0.0
 71
     1
 72
     1
  1
Blatt 1 von 1
  7
SLDTEXTSTYLE1
 73
     1
 44
1.0
  0
MTEXT
  5
96
330
1F
100
AcDbEntity
  8
0
  6
Continuous
 62
     7
370
     0
100
AcDbMText
 10
14150.9100625978
 20
710.7246793997
 30
0.0
 40
145.5208333333
 41
0.0
 71
     1
 72
     1
  1
A4
  7
SLDTEXTSTYLE0
 73
     1
 44
1.0
  0
MTEXT
  5
97
330
1F
100
AcDbEntity
  8
0
  6
Continuous
 62
     7
370
     0
100
AcDbMText
 10
12239.2860540881
 20
914.3859686823
 30
0.0
 40
264.5833333333
 41
0.0
 71
     2
 72
     1
  1
Feldmann GmbH
  7
SLDTEXTSTYLE0
 73
     1
 44
1.0
  0
MTEXT
  5
98
330
1F
100
AcDbEntity
  8
0
  6
Continuous
 62
     7
370
     0
100
AcDbMText
 10
9812.717449829
 20
1610.1782907916
 30
0.0
 40
75.0
 41
0.0
 71
     2
 72
     1
  1
Datum
  7
SLDTEXTSTYLE0
 73
     1
 44
1.0
  0
MTEXT
  5
99
330
1F
100
AcDbEntity
  8
0
  6
Continuous
 62
     7
370
     0
100
AcDbMText
 10
9001.3375475168
 20
1293.7465234676
 30
0.0
 40
75.0
 41
0.0
 71
     1
 72
     1
  1
CH
  7
SLDTEXTSTYLE0
 73
     1
 44
1.0
  0
MTEXT
  5
9A
330
1F
100
AcDbEntity
  8
0
  6
Continuous
 62
     7
370
     0
100
AcDbMText
 10
9569.8649653201
 20
1293.848354147
 30
0.0
 40
75.0
 41
0.0
 71
     1
 72
     1
  1
01.09.2014
  7
SLDTEXTSTYLE0
 73
     1
 44
1.0
  0
MTEXT
  5
9B
330
1F
100
AcDbEntity
  8
0
  6
Continuous
 62
     7
370
     0
100
AcDbMText
 10
9080.8970971741
 20
395.6218184716
 30
0.0
 40
75.0
 41
0.0
 71
     2
 72
     1
  1
Gewicht 7.150 kg
  7
SLDTEXTSTYLE0
 73
     1
 44
1.0
  0
MTEXT
  5
9C
330
1F
100
AcDbEntity
  8
0
  6
Continuous
 62
     7
370
     0
100
AcDbMText
 10
9075.9413027092
 20
779.8860092213
 30
0.0
 40
119.0625
 41
0.0
 71
     2
 72
     1
  1
1.0037 (S235JR)
  7
SLDTEXTSTYLE0
 73
     1
 44
1.0
  0
MTEXT
  5
9D
330
1F
100
AcDbEntity
  8
0
  6
Continuous
 62
     7
370
     0
100
AcDbMText
 10
11530.6490282181
 20
1468.8109809734
 30
0.0
 40
211.6666666667
 41
0.0
 71
     2
 72
     1
  1
6104
  7
SLDTEXTSTYLE0
 73
     1
 44
1.0
  0
MTEXT
  5
9E
330
1F
100
AcDbEntity
  8
0
  6
Continuous
 62
     7
370
     0
100
AcDbMText
 10
9087.6500891234
 20
1602.9519504981
 30
0.0
 40
75.0
 41
0.0
 71
     2
 72
     1
  1
Signatur
  7
SLDTEXTSTYLE0
 73
     1
 44
1.0
  0
ARC
  5
9F
330
1F
100
AcDbEntity
  8
0
  6
Continuous
 62
     7
370
    15
100
AcDbCircle
 10
4645.7917688264
 20
9438.0544203171
 30
0.0
 40
32.68293633687821
100
AcDbArc
 50
42.2310983229
 51
43.2743847845
  0
ARC
  5
A0
330
1F
100
AcDbEntity
  8
0
  6
Continuous
 62
     7
370
    15
100
AcDbCircle
 10
4645.8042761004
 20
9438.065765286
 30
0.0
 40
32.66605024247707
100
AcDbArc
 50
41.1890797914
 51
42.2311091163
  0
ARC
  5
A1
330
1F
100
AcDbEntity
  8
0
  6
Continuous
 62
     7
370
    15
100
AcDbCircle
 10
4645.7672853271
 20
9438.0309443894
 30
0.0
 40
32.71685766076055
100
AcDbArc
 50
44.3173109078
 51
45.3598761049
  0
ARC
  5
A2
330
1F
100
AcDbEntity
  8
0
  6
Continuous
 62
     7
370
    15
100
AcDbCircle
 10
4645.7553470212
 20
9438.0188551861
 30
0.0
 40
32.73384801050728
100
AcDbArc
 50
45.3598760777
 51
46.4020804795
  0
ARC
  5
A3
330
1F
100
AcDbEntity
  8
0
  6
Continuous
 62
     7
370
    15
100
AcDbCircle
 10
4645.743637591
 20
9438.0065582385
 30
0.0
 40
32.75082816587054
100
AcDbArc
 50
46.4020804077
 51
47.4439245424
  0
ARC
  5
A4
330
1F
100
AcDbEntity
  8
0
  6
Continuous
 62
     7
370
    15
100
AcDbCircle
 10
4645.7794328021
 20
9438.0428057952
 30
0.0
 40
32.69987961327009
100
AcDbArc
 50
43.274384847
 51
44.3173108901
  0
ARC
  5
A5
330
1F
100
AcDbEntity
  8
0
  6
Continuous
 62
     7
370
    15
100
AcDbCircle
 10
4645.7209793007
 20
9437.9814258295
 30
0.0
 40
32.78466794536251
100
AcDbArc
 50
48.4854091371
 51
49.5265365287
  0
ARC
  5
A6
330
1F
100
AcDbEntity
  8
0
  6
Continuous
 62
     7
370
    15
100
AcDbCircle
 10
4664.7907320338
 20
9460.3301426525
 30
0.0
 40
3.405753518034346
100
AcDbArc
 50
49.5270421544
 51
53.2032866589
  0
ARC
  5
A7
330
1F
100
AcDbEntity
  8
0
  6
Continuous
 62
     7
370
    15
100
AcDbCircle
 10
4664.787140967
 20
9460.3253433636
 30
0.0
 40
3.411747592857113
100
AcDbArc
 50
53.2032709333
 51
56.8752075912
  0
ARC
  5
A8
330
1F
100
AcDbEntity
  8
0
  6
Continuous
 62
     7
370
    15
100
AcDbCircle
 10
4664.7840090695
 20
9460.3205459993
 30
0.0
 40
3.417476771241784
100
AcDbArc
 50
56.875185461
 51
60.5430164247
  0
ARC
  5
A9
330
1F
100
AcDbEntity
  8
0
  6
Continuous
 62
     7
370
    15
100
AcDbCircle
 10
4664.7813672189
 20
9460.3158717712
 30
0.0
 40
3.422845922004223
100
AcDbArc
 50
60.5429882888
 51
64.2069819652
  0
ARC
  5
AA
330
1F
100
AcDbEntity
  8
0
  6
Continuous
 62
     7
370
    15
100
AcDbCircle
 10
4664.7792246839
 20
9460.3114429733
 30
0.0
 40
3.427765749545999
100
AcDbArc
 50
64.2069483114
 51
67.8674346266
  0
ARC
  5
AB
330
1F
100
AcDbEntity
  8
0
  6
Continuous
 62
     7
370
    15
100
AcDbCircle
 10
4664.7775691479
 20
9460.3073786564
 30
0.0
 40
3.432154310332548
100
AcDbArc
 50
67.8673960217
 51
71.524760791
  0
ARC
  5
AC
330
1F
100
AcDbEntity
  8
0
  6
Continuous
 62
     7
370
    15
100
AcDbCircle
 10
4645.7321757766
 20
9437.9940745126
 30
0.0
 40
32.76777563177372
100
AcDbArc
 50
47.4439244261
 51
48.4854092977
  0
ARC
  5
AD
330
1F
100
AcDbEntity
  8
0
  6
Continuous
 62
     7
370
    15
100
AcDbCircle
 10
4664.7755676742
 20
9460.3007783358
 30
0.0
 40
3.439054871122859
100
AcDbArc
 50
75.1793498366
 51
78.8318197285
  0
LINE
  5
AE
330
1F
100
AcDbEntity
  8
0
  6
Continuous
 62
     7
370
    15
100
AcDbLine
 10
4665.4416765558
 20
9463.6747078523
 30
0.0
 11
4664.3275304704
 21
9463.8946759999
 31
0.0
  0
ARC
  5
AF
330
1F
100
AcDbEntity
  8
0
  6
Continuous
 62
     7
370
    15
100
AcDbCircle
 10
4664.9938045235
 20
9467.2693793641
 30
0.0
 40
3.439846378363567
100
AcDbArc
 50
257.3196866104
 51
258.8316209041
  0
ARC
  5
B0
330
1F
100
AcDbEntity
  8
0
  6
Continuous
 62
     7
370
    15
100
AcDbCircle
 10
4664.9935587105
 20
9467.2682877937
 30
0.0
 40
3.438727472600602
100
AcDbArc
 50
255.8074274791
 51
257.3196900411
  0
LINE
  5
B1
330
1F
100
AcDbEntity
  8
0
  6
Continuous
 62
     7
370
    15
100
AcDbLine
 10
4664.1504455364
 20
9463.9345198423
 30
0.0
 11
4662.8308218677
 21
9464.2682555616
 31
0.0
  0
ARC
  5
B2
330
1F
100
AcDbEntity
  8
0
  6
Continuous
 62
     7
370
    15
100
AcDbCircle
 10
4661.9875342411
 20
9460.9337520497
 30
0.0
 40
3.439483399275312
100
AcDbArc
 50
75.8076126108
 51
79.3575458091
  0
ARC
  5
B3
330
1F
100
AcDbEntity
  8
0
  6
Continuous
 62
     7
370
    15
100
AcDbCircle
 10
4661.9871205302
 20
9460.9315652955
 30
0.0
 40
3.441708942653767
100
AcDbArc
 50
79.3575001018
 51
82.905902538
  0
ARC
  5
B4
330
1F
100
AcDbEntity
  8
0
  6
Continuous
 62
     7
370
    15
100
AcDbCircle
 10
4661.9869320119
 20
9460.9300736148
 30
0.0
 40
3.443212485862577
100
AcDbArc
 50
82.9058550512
 51
86.4532242614
  0
ARC
  5
B5
330
1F
100
AcDbEntity
  8
0
  6
Continuous
 62
     7
370
    15
100
AcDbCircle
 10
4661.9868822148
 20
9460.9293173907
 30
0.0
 40
3.443970342159931
100
AcDbArc
 50
86.4531756984
 51
93.5468731312
  0
ARC
  5
B6
330
1F
100
AcDbEntity
  8
0
  6
Continuous
 62
     7
370
    15
100
AcDbCircle
 10
4661.9868294884
 20
9460.9300734333
 30
0.0
 40
3.443212485860495
100
AcDbArc
 50
93.5467757386
 51
97.0941449488
  0
ARC
  5
B7
330
1F
100
AcDbEntity
  8
0
  6
Continuous
 62
     7
370
    15
100
AcDbCircle
 10
4661.98664097
 20
9460.9315651139
 30
0.0
 40
3.44170894265311
100
AcDbArc
 50
97.094097462
 51
100.6424998982
  0
ARC
  5
B8
330
1F
100
AcDbEntity
  8
0
  6
Continuous
 62
     7
370
    15
100
AcDbCircle
 10
4661.9862272591
 20
9460.9337518682
 30
0.0
 40
3.439483399275648
100
AcDbArc
 50
100.6424541909
 51
104.1923873893
  0
LINE
  5
B9
330
1F
100
AcDbEntity
  8
0
  6
Continuous
 62
     7
370
    15
100
AcDbLine
 10
4661.1429396325
 20
9464.2682555616
 30
0.0
 11
4659.8233159638
 21
9463.9345198423
 31
0.0
  0
ARC
  5
BA
330
1F
100
AcDbEntity
  8
0
  6
Continuous
 62
     7
370
    15
100
AcDbCircle
 10
4658.9802027897
 20
9467.2682876121
 30
0.0
 40
3.438727472615623
100
AcDbArc
 50
282.6803099589
 51
284.1925725209
  0
ARC
  5
BB
330
1F
100
AcDbEntity
  8
0
  6
Continuous
 62
     7
370
    15
100
AcDbCircle
 10
4658.9799569767
 20
9467.2693791826
 30
0.0
 40
3.439846378371146
100
AcDbArc
 50
281.1683790959
 51
282.6803133896
  0
LINE
  5
BC
330
1F
100
AcDbEntity
  8
0
  6
Continuous
 62
     7
370
    15
100
AcDbLine
 10
4659.6462310298
 20
9463.8946759999
 30
0.0
 11
4658.5320849444
 21
9463.674706921
 31
0.0
  0
ARC
  5
BD
330
1F
100
AcDbEntity
  8
0
  6
Continuous
 62
     7
370
    15
100
AcDbCircle
 10
4659.198193826
 20
9460.3007781543
 30
0.0
 40
3.439054871122859
100
AcDbArc
 50
101.1681802715
 51
104.8206501634
  0
ARC
  5
BE
330
1F
100
AcDbEntity
  8
0
  6
Continuous
 62
     7
370
    15
100
AcDbCircle
 10
4659.1973939557
 20
9460.3037902185
 30
0.0
 40
3.435938412301331
100
AcDbArc
 50
104.8206036224
 51
108.4752821293
  0
ARC
  5
BF
330
1F
100
AcDbEntity
  8
0
  6
Continuous
 62
     7
370
    15
100
AcDbCircle
 10
4659.1961923523
 20
9460.3073784748
 30
0.0
 40
3.43215431033228
100
AcDbArc
 50
108.475239209
 51
112.1326039783
  0
ARC
  5
C0
330
1F
100
AcDbEntity
  8
0
  6
Continuous
 62
     7
370
    15
100
AcDbCircle
 10
4659.1945368163
 20
9460.3114427917
 30
0.0
 40
3.427765749549296
100
AcDbArc
 50
112.1325653733
 51
115.7930516885
  0
ARC
  5
C1
330
1F
100
AcDbEntity
  8
0
  6
Continuous
 62
     7
370
    15
100
AcDbCircle
 10
4659.1923942814
 20
9460.3158715897
 30
0.0
 40
3.422845922007304
100
AcDbArc
 50
115.7930180348
 51
119.4570117112
  0
ARC
  5
C2
330
1F
100
AcDbEntity
  8
0
  6
Continuous
 62
     7
370
    15
100
AcDbCircle
 10
4659.1897524307
 20
9460.3205458177
 30
0.0
 40
3.417476771241784
100
AcDbArc
 50
119.4569835754
 51
123.124814539
  0
ARC
  5
C3
330
1F
100
AcDbEntity
  8
0
  6
Continuous
 62
     7
370
    15
100
AcDbCircle
 10
4659.1866205332
 20
9460.325343182
 30
0.0
 40
3.411747592857113
100
AcDbArc
 50
123.1247924088
 51
126.7967290667
  0
ARC
  5
C4
330
1F
100
AcDbEntity
  8
0
  6
Continuous
 62
     7
370
    15
100
AcDbCircle
 10
4659.1830294664
 20
9460.3301424709
 30
0.0
 40
3.405753518032345
100
AcDbArc
 50
126.7967133411
 51
130.4729578456
  0
ARC
  5
C5
330
1F
100
AcDbEntity
  8
0
  6
Continuous
 62
     7
370
    15
100
AcDbCircle
 10
4678.2527821917
 20
9437.9814256569
 30
0.0
 40
32.78466793343028
100
AcDbArc
 50
130.4734634712
 51
131.5145916018
  0
ARC
  5
C6
330
1F
100
AcDbEntity
  8
0
  6
Continuous
 62
     7
370
    15
100
AcDbCircle
 10
4678.2415857157
 20
9437.9940743399
 30
0.0
 40
32.76777561983065
100
AcDbArc
 50
131.5145914411
 51
132.5560763131
  0
ARC
  5
C7
330
1F
100
AcDbEntity
  8
0
  6
Continuous
 62
     7
370
    15
100
AcDbCircle
 10
4678.230123901
 20
9438.0065580658
 30
0.0
 40
32.75082815374657
100
AcDbArc
 50
132.5560761967
 51
133.5979203319
  0
ARC
  5
C8
330
1F
100
AcDbEntity
  8
0
  6
Continuous
 62
     7
370
    15
100
AcDbCircle
 10
4678.2184144707
 20
9438.0188550131
 30
0.0
 40
32.73384799848073
100
AcDbArc
 50
133.59792026
 51
134.6401246622
  0
ARC
  5
C9
330
1F
100
AcDbEntity
  8
0
  6
Continuous
 62
     7
370
    15
100
AcDbCircle
 10
4678.2064761646
 20
9438.0309442163
 30
0.0
 40
32.71685764875382
100
AcDbArc
 50
134.640124635
 51
135.6826898324
  0
ARC
  5
CA
330
1F
100
AcDbEntity
  8
0
  6
Continuous
 62
     7
370
    15
100
AcDbCircle
 10
4678.1943286895
 20
9438.0428056218
 30
0.0
 40
32.69987960136378
100
AcDbArc
 50
135.6826898501
 51
136.7256158935
  0
ARC
  5
CB
330
1F
100
AcDbEntity
  8
0
  6
Continuous
 62
     7
370
    15
100
AcDbCircle
 10
4678.1819926651
 20
9438.0544201437
 30
0.0
 40
32.68293632492095
100
AcDbArc
 50
136.725615956
 51
137.768902418
  0
ARC
  5
CC
330
1F
100
AcDbEntity
  8
0
  6
Continuous
 62
     7
370
    15
100
AcDbCircle
 10
4678.1694853909
 20
9438.0657651123
 30
0.0
 40
32.66605023054883
100
AcDbArc
 50
137.7688916245
 51
138.8109202088
  0
ARC
  5
CD
330
1F
100
AcDbEntity
  8
0
  6
Continuous
 62
     7
370
    15
100
AcDbCircle
 10
4656.1345676682
 20
9457.3484150105
 30
0.0
 40
3.385370830490725
100
AcDbArc
 50
138.810343385
 51
142.7518317151
  0
ARC
  5
CE
330
1F
100
AcDbEntity
  8
0
  6
Continuous
 62
     7
370
    15
100
AcDbCircle
 10
4656.1294908132
 20
9457.3522765574
 30
0.0
 40
3.378992272649931
100
AcDbArc
 50
142.7518488957
 51
146.6982969022
  0
ARC
  5
CF
330
1F
100
AcDbEntity
  8
0
  6
Continuous
 62
     7
370
    15
100
AcDbCircle
 10
4656.1244234673
 20
9457.355607223
 30
0.0
 40
3.372928336165388
100
AcDbArc
 50
146.6983228259
 51
150.6495003658
  0
ARC
  5
D0
330
1F
100
AcDbEntity
  8
0
  6
Continuous
 62
     7
370
    15
100
AcDbCircle
 10
4656.1195120689
 20
9457.358371374
 30
0.0
 40
3.367292525642807
100
AcDbArc
 50
150.6495345938
 51
154.6051204784
  0
ARC
  5
D1
330
1F
100
AcDbEntity
  8
0
  6
Continuous
 62
     7
370
    15
100
AcDbCircle
 10
4656.1149037704
 20
9457.3605617734
 30
0.0
 40
3.362190147819
100
AcDbArc
 50
154.6051623997
 51
158.5647499978
  0
ARC
  5
D2
330
1F
100
AcDbEntity
  8
0
  6
Continuous
 62
     7
370
    15
100
AcDbCircle
 10
4656.1107405018
 20
9457.3621993709
 30
0.0
 40
3.357716388542009
100
AcDbArc
 50
158.5647988381
 51
162.5279034726
  0
ARC
  5
D3
330
1F
100
AcDbEntity
  8
0
  6
Continuous
 62
     7
370
    15
100
AcDbCircle
 10
4656.1071532205
 20
9457.3633318811
 30
0.0
 40
3.353954586247234
100
AcDbArc
 50
162.5279583075
 51
166.494026326
  0
ARC
  5
D4
330
1F
100
AcDbEntity
  8
0
  6
Continuous
 62
     7
370
    15
100
AcDbCircle
 10
4656.1042565865
 20
9457.3640312161
 30
0.0
 40
3.350974729549549
100
AcDbArc
 50
166.4940860987
 51
170.4625054541
  0
ARC
  5
D5
330
1F
100
AcDbEntity
  8
0
  6
Continuous
 62
     7
370
    15
100
AcDbCircle
 10
4630.5990249154
 20
9461.6492260481
 30
0.0
 40
22.51173466726019
100
AcDbArc
 50
348.6089096893
 51
350.4626991457
  0
ARC
  5
D6
330
1F
100
AcDbEntity
  8
0
  6
Continuous
 62
     7
370
    15
100
AcDbCircle
 10
4630.5912050946
 20
9461.6508040669
 30
0.0
 40
22.51971211886977
100
AcDbArc
 50
346.7555517435
 51
348.608903375
  0
ARC
  5
D7
330
1F
100
AcDbEntity
  8
0
  6
Continuous
 62
     7
370
    15
100
AcDbCircle
 10
4630.5822579192
 20
9461.6529124054
 30
0.0
 40
22.52890434563694
100
AcDbArc
 50
344.9026981804
 51
346.7555456204
  0
ARC
  5
D8
330
1F
100
AcDbEntity
  8
0
  6
Continuous
 62
     7
370
    15
100
AcDbCircle
 10
4630.5722467154
 20
9461.6556154154
 30
0.0
 40
22.53927403517168
100
AcDbArc
 50
343.0504134691
 51
344.9026925706
  0
ARC
  5
D9
330
1F
100
AcDbEntity
  8
0
  6
Continuous
 62
     7
370
    15
100
AcDbCircle
 10
4655.3405939573
 20
9454.1069867136
 30
0.0
 40
3.353829687124971
100
AcDbArc
 50
163.0502687715
 51
166.2524405555
  0
ARC
  5
DA
330
1F
100
AcDbEntity
  8
0
  6
Continuous
 62
     7
370
    15
100
AcDbCircle
 10
4655.338217767
 20
9454.1075699427
 30
0.0
 40
3.351382968287264
100
AcDbArc
 50
166.2524718796
 51
169.4562021989
  0
ARC
  5
DB
330
1F
100
AcDbEntity
  8
0
  6
Continuous
 62
     7
370
    15
100
AcDbCircle
 10
4655.3363447395
 20
9454.1079205317
 30
0.0
 40
3.349477413069532
100
AcDbArc
 50
169.4562352068
 51
172.66118066
  0
ARC
  5
DC
330
1F
100
AcDbEntity
  8
0
  6
Continuous
 62
     7
370
    15
100
AcDbCircle
 10
4655.3350146758
 20
9454.1080938518
 30
0.0
 40
3.348136105690917
100
AcDbArc
 50
172.661214928
 51
175.8670163969
  0
ARC
  5
DD
330
1F
100
AcDbEntity
  8
0
  6
Continuous
 62
     7
370
    15
100
AcDbCircle
 10
4655.3342559833
 20
9454.1081507298
 30
0.0
 40
3.34737528692998
100
AcDbArc
 50
175.8670514825
 51
179.0733387563
  0
ARC
  5
DE
330
1F
100
AcDbEntity
  8
0
  6
Continuous
 62
     7
370
    15
100
AcDbCircle
 10
4655.3340849182
 20
9454.1081555679
 30
0.0
 40
3.34720416594057
100
AcDbArc
 50
179.0733742049
 51
182.2797707697
  0
ARC
  5
DF
330
1F
100
AcDbEntity
  8
0
  6
Continuous
 62
     7
370
    15
100
AcDbCircle
 10
4655.3345051508
 20
9454.1081743646
 30
0.0
 40
3.347624813726082
100
AcDbArc
 50
182.2798061211
 51
185.4859340445
  0
ARC
  5
E0
330
1F
100
AcDbEntity
  8
0
  6
Continuous
 62
     7
370
    15
100
AcDbCircle
 10
4655.335507668
 20
9454.1082726906
 30
0.0
 40
3.348632139184874
100
AcDbArc
 50
185.4859688399
 51
188.6914537663
  0
LINE
  5
E1
330
1F
100
AcDbEntity
  8
0
  6
Continuous
 62
     7
370
    15
100
AcDbLine
 10
4652.0253296948
 20
9453.6022496079
 30
0.0
 11
4652.260939405
 21
9452.0609754156
 31
0.0
  0
ARC
  5
E2
330
1F
100
AcDbEntity
  8
0
  6
Continuous
 62
     7
370
    15
100
AcDbCircle
 10
4655.5725916632
 20
9452.5672242634
 30
0.0
 40
3.350123508562925
100
AcDbArc
 50
188.6914602503
 51
191.5899695222
  0
ARC
  5
E3
330
1F
100
AcDbEntity
  8
0
  6
Continuous
 62
     7
370
    15
100
AcDbCircle
 10
4655.5744391781
 20
9452.5676046033
 30
0.0
 40
3.35200976618325
100
AcDbArc
 50
191.5899935767
 51
194.4874152572
  0
ARC
  5
E4
330
1F
100
AcDbEntity
  8
0
  6
Continuous
 62
     7
370
    15
100
AcDbCircle
 10
4655.5766878464
 20
9452.5681870033
 30
0.0
 40
3.354332630141521
100
AcDbArc
 50
194.4874381083
 51
197.3835218565
  0
ARC
  5
E5
330
1F
100
AcDbEntity
  8
0
  6
Continuous
 62
     7
370
    15
100
AcDbCircle
 10
4655.5792989141
 20
9452.5690057522
 30
0.0
 40
3.357069055357528
100
AcDbArc
 50
197.3835432665
 51
200.2780528579
  0
ARC
  5
E6
330
1F
100
AcDbEntity
  8
0
  6
Continuous
 62
     7
370
    15
100
AcDbCircle
 10
4655.5822277836
 20
9452.5700891333
 30
0.0
 40
3.360191872921258
100
AcDbArc
 50
200.2780726065
 51
203.1707883757
  0
ARC
  5
E7
330
1F
100
AcDbEntity
  8
0
  6
Continuous
 62
     7
370
    15
100
AcDbCircle
 10
4655.585424984
 20
9452.5714586683
 30
0.0
 40
3.363670049993444
100
AcDbArc
 50
203.1708062624
 51
206.0615273506
  0
ARC
  5
E8
330
1F
100
AcDbEntity
  8
0
  6
Continuous
 62
     7
370
    15
100
AcDbCircle
 10
4655.5888372472
 20
9452.5731285154
 30
0.0
 40
3.367468987808664
100
AcDbArc
 50
206.0615431963
 51
208.9500895765
  0
ARC
  5
E9
330
1F
100
AcDbEntity
  8
0
  6
Continuous
 62
     7
370
    15
100
AcDbCircle
 10
4655.5924086627
 20
9452.5751050362
 30
0.0
 40
3.371550855351714
100
AcDbArc
 50
208.9501032259
 51
211.8363174874
  0
LINE
  5
EA
330
1F
100
AcDbEntity
  8
0
  6
Continuous
 62
     7
370
    15
100
AcDbLine
 10
4652.7280787012
 20
9450.7966307476
 30
0.0
 11
4654.5816113247
 21
9447.8113810085
 31
0.0
  0
ARC
  5
EB
330
1F
100
AcDbEntity
  8
0
  6
Continuous
 62
     7
370
    15
100
AcDbCircle
 10
4657.4500186309
 20
9449.5923984683
 30
0.0
 40
3.376356733251645
100
AcDbArc
 50
211.8364806676
 51
215.3430375059
  0
ARC
  5
EC
330
1F
100
AcDbEntity
  8
0
  6
Continuous
 62
     7
370
    15
100
AcDbCircle
 10
4657.454540427
 20
9449.5956062674
 30
0.0
 40
3.381900794340019
100
AcDbArc
 50
215.3430525285
 51
218.8457754475
  0
ARC
  5
ED
330
1F
100
AcDbEntity
  8
0
  6
Continuous
 62
     7
370
    15
100
AcDbCircle
 10
4657.4590178204
 20
9449.5992127983
 30
0.0
 40
3.387650065318291
100
AcDbArc
 50
218.8457849411
 51
222.3445430803
  0
ARC
  5
EE
330
1F
100
AcDbEntity
  8
0
  6
Continuous
 62
     7
370
    15
100
AcDbCircle
 10
4657.4633557536
 20
9449.603166492
 30
0.0
 40
3.393519422891408
100
AcDbArc
 50
222.3445469397
 51
225.8392690388
  0
ARC
  5
EF
330
1F
100
AcDbEntity
  8
0
  6
Continuous
 62
     7
370
    15
100
AcDbCircle
 10
4657.4674678717
 20
9449.6074007258
 30
0.0
 40
3.399421816535965
100
AcDbArc
 50
225.8392672452
 51
229.3299423044
  0
ARC
  5
F0
330
1F
100
AcDbEntity
  8
0
  6
Continuous
 62
     7
370
    15
100
AcDbCircle
 10
4657.4712791874
 20
9449.6118358028
 30
0.0
 40
3.405269554193939
100
AcDbArc
 50
229.3299349233
 51
232.8166119522
  0
ARC
  5
F1
330
1F
100
AcDbEntity
  8
0
  6
Continuous
 62
     7
370
    15
100
AcDbCircle
 10
4657.4747283518
 20
9449.6163813828
 30
0.0
 40
3.410975606448624
100
AcDbArc
 50
232.8165991302
 51
236.2993860137
  0
ARC
  5
F2
330
1F
100
AcDbEntity
  8
0
  6
Continuous
 62
     7
370
    15
100
AcDbCircle
 10
4657.4777694564
 20
9449.6209392823
 30
0.0
 40
3.416454909649461
100
AcDbArc
 50
236.2993679741
 51
239.778429496
  0
LINE
  5
F3
330
1F
100
AcDbEntity
  8
0
  6
Continuous
 62
     7
370
    15
100
AcDbLine
 10
4655.758112949
 20
9446.6688307487
 30
0.0
 11
4657.9933304346
 21
9445.366752848
 31
0.0
  0
ARC
  5
F4
330
1F
100
AcDbEntity
  8
0
  6
Continuous
 62
     7
370
    15
100
AcDbCircle
 10
4659.7158691378
 20
9448.3238319582
 30
0.0
 40
3.422200684545661
100
AcDbArc
 50
239.7786243069
 51
244.0644577878
  0
ARC
  5
F5
330
1F
100
AcDbEntity
  8
0
  6
Continuous
 62
     7
370
    15
100
AcDbCircle
 10
4659.7183974235
 20
9448.3290232287
 30
0.0
 40
3.42797489513948
100
AcDbArc
 50
244.0644042869
 51
248.3454224749
  0
ARC
  5
F6
330
1F
100
AcDbEntity
  8
0
  6
Continuous
 62
     7
370
    15
100
AcDbCircle
 10
4659.7202618681
 20
9448.333709022
 30
0.0
 40
3.433017989329731
100
AcDbArc
 50
248.3453597651
 51
252.6221834087
  0
ARC
  5
F7
330
1F
100
AcDbEntity
  8
0
  6
Continuous
 62
     7
370
    15
100
AcDbCircle
 10
4659.7215194193
 20
9448.3377131615
 30
0.0
 40
3.437214958437816
100
AcDbArc
 50
252.6221128987
 51
256.8954535774
  0
LINE
  5
F8
330
1F
100
AcDbEntity
  8
0
  6
Continuous
 62
     7
370
    15
100
AcDbLine
 10
4658.9422044816
 20
9444.9900105149
 30
0.0
 11
4661.2063724205
 21
9444.4629163966
 31
0.0
  0
ARC
  5
F9
330
1F
100
AcDbEntity
  8
0
  6
Continuous
 62
     7
370
    15
100
AcDbCircle
 10
4661.9863643701
 20
9447.8134768415
 30
0.0
 40
3.440151141025903
100
AcDbArc
 50
256.8952595437
 51
260.1728944986
  0
ARC
  5
FA
330
1F
100
AcDbEntity
  8
0
  6
Continuous
 62
     7
370
    15
100
AcDbCircle
 10
4661.9866916073
 20
9447.8153532143
 30
0.0
 40
3.442055833715485
100
AcDbArc
 50
260.1728581361
 51
263.4492836738
  0
ARC
  5
FB
330
1F
100
AcDbEntity
  8
0
  6
Continuous
 62
     7
370
    15
100
AcDbCircle
 10
4661.9868403605
 20
9447.8166288232
 30
0.0
 40
3.443340084729889
100
AcDbArc
 50
263.4492461142
 51
266.7248568243
  0
ARC
  5
FC
330
1F
100
AcDbEntity
  8
0
  6
Continuous
 62
     7
370
    15
100
AcDbCircle
 10
4661.9868795923
 20
9447.8172741226
 30
0.0
 40
3.443986571487085
100
AcDbArc
 50
266.7248185415
 51
273.2752199203
  0
ARC
  5
FD
330
1F
100
AcDbEntity
  8
0
  6
Continuous
 62
     7
370
    15
100
AcDbCircle
 10
4661.9869211321
 20
9447.8166289553
 30
0.0
 40
3.443340084731592
100
AcDbArc
 50
273.2751431757
 51
276.5507538858
  0
ARC
  5
FE
330
1F
100
AcDbEntity
  8
0
  6
Continuous
 62
     7
370
    15
100
AcDbCircle
 10
4661.9870698854
 20
9447.8153533463
 30
0.0
 40
3.442055833715802
100
AcDbArc
 50
276.5507163262
 51
279.8271418639
  0
ARC
  5
FF
330
1F
100
AcDbEntity
  8
0
  6
Continuous
 62
     7
370
    15
100
AcDbCircle
 10
4661.9873971225
 20
9447.8134769735
 30
0.0
 40
3.440151141022318
100
AcDbArc
 50
279.8271055014
 51
283.1047404563
  0
LINE
  5
100
330
1F
100
AcDbEntity
  8
0
  6
Continuous
 62
     7
370
    15
100
AcDbLine
 10
4662.7673890797
 20
9444.4629173279
 30
0.0
 11
4665.0315570186
 21
9444.9900105149
 31
0.0
  0
ARC
  5
101
330
1F
100
AcDbEntity
  8
0
  6
Continuous
 62
     7
370
    15
100
AcDbCircle
 10
4664.2522420734
 20
9448.3377132935
 30
0.0
 40
3.437214958440869
100
AcDbArc
 50
283.1045464226
 51
287.3778871013
  0
ARC
  5
102
330
1F
100
AcDbEntity
  8
0
  6
Continuous
 62
     7
370
    15
100
AcDbCircle
 10
4664.2534996245
 20
9448.3337091541
 30
0.0
 40
3.433017989330665
100
AcDbArc
 50
287.3778165913
 51
291.6546402349
  0
ARC
  5
103
330
1F
100
AcDbEntity
  8
0
  6
Continuous
 62
     7
370
    15
100
AcDbCircle
 10
4664.2553640692
 20
9448.3290233608
 30
0.0
 40
3.427974895140671
100
AcDbArc
 50
291.6545775251
 51
295.9355957131
  0
ARC
  5
104
330
1F
100
AcDbEntity
  8
0
  6
Continuous
 62
     7
370
    15
100
AcDbCircle
 10
4664.2578923549
 20
9448.3238320902
 30
0.0
 40
3.422200684545661
100
AcDbArc
 50
295.9355422122
 51
300.2213756931
  0
LINE
  5
105
330
1F
100
AcDbEntity
  8
0
  6
Continuous
 62
     7
370
    15
100
AcDbLine
 10
4665.9804310656
 20
9445.366752848
 30
0.0
 11
4668.2156485512
 21
9446.6688307487
 31
0.0
  0
ARC
  5
106
330
1F
100
AcDbEntity
  8
0
  6
Continuous
 62
     7
370
    15
100
AcDbCircle
 10
4666.4959920362
 20
9449.6209394144
 30
0.0
 40
3.416454909650055
100
AcDbArc
 50
300.221570504
 51
303.7006320259
  0
ARC
  5
107
330
1F
100
AcDbEntity
  8
0
  6
Continuous
 62
     7
370
    15
100
AcDbCircle
 10
4666.4990331408
 20
9449.6163815149
 30
0.0
 40
3.410975606452304
100
AcDbArc
 50
303.7006139863
 51
307.1834008699
  0
ARC
  5
108
330
1F
100
AcDbEntity
  8
0
  6
Continuous
 62
     7
370
    15
100
AcDbCircle
 10
4666.5024823052
 20
9449.6118359349
 30
0.0
 40
3.405269554195042
100
AcDbArc
 50
307.1833880478
 51
310.6700650767
  0
ARC
  5
109
330
1F
100
AcDbEntity
  8
0
  6
Continuous
 62
     7
370
    15
100
AcDbCircle
 10
4666.506293621
 20
9449.6074008579
 30
0.0
 40
3.399421816532807
100
AcDbArc
 50
310.6700576956
 51
314.1607327548
  0
ARC
  5
10A
330
1F
100
AcDbEntity
  8
0
  6
Continuous
 62
     7
370
    15
100
AcDbCircle
 10
4666.5104057391
 20
9449.6031666241
 30
0.0
 40
3.393519422891961
100
AcDbArc
 50
314.1607309612
 51
317.6554530603
  0
ARC
  5
10B
330
1F
100
AcDbEntity
  8
0
  6
Continuous
 62
     7
370
    15
100
AcDbCircle
 10
4666.5147436722
 20
9449.5992129304
 30
0.0
 40
3.387650065320565
100
AcDbArc
 50
317.6554569197
 51
321.1542150589
  0
ARC
  5
10C
330
1F
100
AcDbEntity
  8
0
  6
Continuous
 62
     7
370
    15
100
AcDbCircle
 10
4666.5192210657
 20
9449.5956063995
 30
0.0
 40
3.381900794341436
100
AcDbArc
 50
321.1542245525
 51
324.6569474715
  0
ARC
  5
10D
330
1F
100
AcDbEntity
  8
0
  6
Continuous
 62
     7
370
    15
100
AcDbCircle
 10
4666.5237428617
 20
9449.5923986004
 30
0.0
 40
3.376356733251645
100
AcDbArc
 50
324.6569624941
 51
328.1635193324
  0
LINE
  5
10E
330
1F
100
AcDbEntity
  8
0
  6
Continuous
 62
     7
370
    15
100
AcDbLine
 10
4669.3921501755
 20
9447.8113810085
 30
0.0
 11
4671.245682799
 21
9450.7966309805
 31
0.0
  0
ARC
  5
10F
330
1F
100
AcDbEntity
  8
0
  6
Continuous
 62
     7
370
    15
100
AcDbCircle
 10
4668.3813528299
 20
9452.5751051683
 30
0.0
 40
3.371550855348979
100
AcDbArc
 50
328.1636825126
 51
331.0498967741
  0
ARC
  5
110
330
1F
100
AcDbEntity
  8
0
  6
Continuous
 62
     7
370
    15
100
AcDbCircle
 10
4668.3849242454
 20
9452.5731286474
 30
0.0
 40
3.36746898780652
100
AcDbArc
 50
331.0499104235
 51
333.9384568037
  0
ARC
  5
111
330
1F
100
AcDbEntity
  8
0
  6
Continuous
 62
     7
370
    15
100
AcDbCircle
 10
4668.3883365086
 20
9452.5714588004
 30
0.0
 40
3.363670049989775
100
AcDbArc
 50
333.9384726494
 51
336.8291937376
  0
ARC
  5
112
330
1F
100
AcDbEntity
  8
0
  6
Continuous
 62
     7
370
    15
100
AcDbCircle
 10
4668.3915337091
 20
9452.5700892654
 30
0.0
 40
3.360191872919759
100
AcDbArc
 50
336.8292116242
 51
339.7219273935
  0
ARC
  5
113
330
1F
100
AcDbEntity
  8
0
  6
Continuous
 62
     7
370
    15
100
AcDbCircle
 10
4668.3944625785
 20
9452.5690058842
 30
0.0
 40
3.357069055356674
100
AcDbArc
 50
339.7219471421
 51
342.6164567335
  0
ARC
  5
114
330
1F
100
AcDbEntity
  8
0
  6
Continuous
 62
     7
370
    15
100
AcDbCircle
 10
4668.3970736462
 20
9452.5681871353
 30
0.0
 40
3.354332630149581
100
AcDbArc
 50
342.6164781435
 51
345.5125618917
  0
ARC
  5
115
330
1F
100
AcDbEntity
  8
0
  6
Continuous
 62
     7
370
    15
100
AcDbCircle
 10
4668.3993223145
 20
9452.5676047354
 30
0.0
 40
3.352009766184506
100
AcDbArc
 50
345.5125847428
 51
348.4100064232
  0
ARC
  5
116
330
1F
100
AcDbEntity
  8
0
  6
Continuous
 62
     7
370
    15
100
AcDbCircle
 10
4668.4011698295
 20
9452.5672243955
 30
0.0
 40
3.350123508563224
100
AcDbArc
 50
348.4100304779
 51
351.3085397498
  0
LINE
  5
117
330
1F
100
AcDbEntity
  8
0
  6
Continuous
 62
     7
370
    15
100
AcDbLine
 10
4671.7128220952
 20
9452.0609756485
 30
0.0
 11
4671.9484318054
 21
9453.6022497243
 31
0.0
  0
ARC
  5
118
330
1F
100
AcDbEntity
  8
0
  6
Continuous
 62
     7
370
    15
100
AcDbCircle
 10
4668.6382538246
 20
9454.1082728227
 30
0.0
 40
3.348632139211496
100
AcDbArc
 50
351.3085462337
 51
354.5140311022
  0
ARC
  5
119
330
1F
100
AcDbEntity
  8
0
  6
Continuous
 62
     7
370
    15
100
AcDbCircle
 10
4668.6392563418
 20
9454.1081744967
 30
0.0
 40
3.347624813734905
100
AcDbArc
 50
354.5140658977
 51
357.7201938534
  0
ARC
  5
11A
330
1F
100
AcDbEntity
  8
0
  6
Continuous
 62
     7
370
    15
100
AcDbCircle
 10
4668.6396765745
 20
9454.1081556999
 30
0.0
 40
3.34720416594005
100
AcDbArc
 50
357.7202292048
 51
0.926625802
  0
ARC
  5
11B
330
1F
100
AcDbEntity
  8
0
  6
Continuous
 62
     7
370
    15
100
AcDbCircle
 10
4668.6395055094
 20
9454.1081508618
 30
0.0
 40
3.347375286935248
100
AcDbArc
 50
0.9266612506
 51
4.1329485567
  0
ARC
  5
11C
330
1F
100
AcDbEntity
  8
0
  6
Continuous
 62
     7
370
    15
100
AcDbCircle
 10
4668.6387468169
 20
9454.1080939839
 30
0.0
 40
3.348136105709328
100
AcDbArc
 50
4.1329836424
 51
7.3387851436
  0
ARC
  5
11D
330
1F
100
AcDbEntity
  8
0
  6
Continuous
 62
     7
370
    15
100
AcDbCircle
 10
4668.6374167531
 20
9454.1079206638
 30
0.0
 40
3.349477413109651
100
AcDbArc
 50
7.3388194115
 51
10.5437648971
  0
ARC
  5
11E
330
1F
100
AcDbEntity
  8
0
  6
Continuous
 62
     7
370
    15
100
AcDbCircle
 10
4668.6355437256
 20
9454.1075700747
 30
0.0
 40
3.351382968365149
100
AcDbArc
 50
10.5437979049
 51
13.7475282566
  0
ARC
  5
11F
330
1F
100
AcDbEntity
  8
0
  6
Continuous
 62
     7
370
    15
100
AcDbCircle
 10
4668.6331675353
 20
9454.1069868457
 30
0.0
 40
3.353829687252722
100
AcDbArc
 50
13.7475595806
 51
16.9497313969
  0
ARC
  5
120
330
1F
100
AcDbEntity
  8
0
  6
Continuous
 62
     7
370
    15
100
AcDbCircle
 10
4693.4015149594
 20
9461.65561495
 30
0.0
 40
22.53927403514391
100
AcDbArc
 50
195.097305726
 51
196.9495849181
  0
ARC
  5
121
330
1F
100
AcDbEntity
  8
0
  6
Continuous
 62
     7
370
    15
100
AcDbCircle
 10
4693.391503581
 20
9461.652912587
 30
0.0
 40
22.52890434565839
100
AcDbArc
 50
193.2444543796
 51
195.0973018196
  0
ARC
  5
122
330
1F
100
AcDbEntity
  8
0
  6
Continuous
 62
     7
370
    15
100
AcDbCircle
 10
4693.3825564056
 20
9461.6508042484
 30
0.0
 40
22.5197121188905
100
AcDbArc
 50
191.391096625
 51
193.2444482565
  0
ARC
  5
123
330
1F
100
AcDbEntity
  8
0
  6
Continuous
 62
     7
370
    15
100
AcDbCircle
 10
4693.3747365848
 20
9461.6492262297
 30
0.0
 40
22.51173466727544
100
AcDbArc
 50
189.5373008543
 51
191.3910903107
  0
ARC
  5
124
330
1F
100
AcDbEntity
  8
0
  6
Continuous
 62
     7
370
    15
100
AcDbCircle
 10
4667.8695049138
 20
9457.3640313976
 30
0.0
 40
3.350974729552201
100
AcDbArc
 50
9.5374945459
 51
13.5059139013
  0
ARC
  5
125
330
1F
100
AcDbEntity
  8
0
  6
Continuous
 62
     7
370
    15
100
AcDbCircle
 10
4667.8666082797
 20
9457.3633320627
 30
0.0
 40
3.353954586244726
100
AcDbArc
 50
13.505973674
 51
17.4720416925
  0
ARC
  5
126
330
1F
100
AcDbEntity
  8
0
  6
Continuous
 62
     7
370
    15
100
AcDbCircle
 10
4667.8630209984
 20
9457.3621995524
 30
0.0
 40
3.357716388542009
100
AcDbArc
 50
17.4720965274
 51
21.4352011619
  0
ARC
  5
127
330
1F
100
AcDbEntity
  8
0
  6
Continuous
 62
     7
370
    15
100
AcDbCircle
 10
4667.8588577298
 20
9457.360561955
 30
0.0
 40
3.362190147821467
100
AcDbArc
 50
21.4352500022
 51
25.3948376003
  0
ARC
  5
128
330
1F
100
AcDbEntity
  8
0
  6
Continuous
 62
     7
370
    15
100
AcDbCircle
 10
4667.8542494313
 20
9457.3583715555
 30
0.0
 40
3.367292525640383
100
AcDbArc
 50
25.3948795216
 51
29.3504654062
  0
ARC
  5
129
330
1F
100
AcDbEntity
  8
0
  6
Continuous
 62
     7
370
    15
100
AcDbCircle
 10
4667.8493380329
 20
9457.3556074046
 30
0.0
 40
3.372928336162109
100
AcDbArc
 50
29.3504996342
 51
33.3016771741
  0
ARC
  5
12A
330
1F
100
AcDbEntity
  8
0
  6
Continuous
 62
     7
370
    15
100
AcDbCircle
 10
4667.844270687
 20
9457.352276739
 30
0.0
 40
3.378992272651757
100
AcDbArc
 50
33.3017030978
 51
37.2481511043
  0
ARC
  5
12B
330
1F
100
AcDbEntity
  8
0
  6
Continuous
 62
     7
370
    15
100
AcDbCircle
 10
4667.839193832
 20
9457.348415192
 30
0.0
 40
3.385370830490029
100
AcDbArc
 50
37.2481682849
 51
41.189656615
  0
ARC
  5
12C
330
1F
100
AcDbEntity
  8
0
  6
Continuous
 62
     7
370
    15
100
AcDbCircle
 10
4664.7763675445
 20
9460.3037904001
 30
0.0
 40
3.435938412299894
100
AcDbArc
 50
71.5247178707
 51
75.1793963776
  0
LINE
  5
12D
330
1F
100
AcDbEntity
  8
0
  6
Continuous
 62
     7
370
    15
100
AcDbLine
 10
4661.7738207023
 20
5836.0872487366
 30
0.0
 11
4661.7738207023
 21
2836.0872487366
 31
0.0
  0
LINE
  5
12E
330
1F
100
AcDbEntity
  8
0
  6
Continuous
 62
     7
370
    15
100
AcDbLine
 10
4662.1999407979
 20
5836.0872487366
 30
0.0
 11
4662.1999407979
 21
2836.0872487366
 31
0.0
  0
LINE
  5
12F
330
1F
100
AcDbEntity
  8
0
  6
Continuous
 62
     7
370
    15
100
AcDbLine
 10
4662.1999407979
 20
2836.0872487366
 30
0.0
 11
4661.7738207023
 21
2836.0872487366
 31
0.0
  0
LINE
  5
130
330
1F
100
AcDbEntity
  8
0
  6
Continuous
 62
     7
370
    15
100
AcDbLine
 10
4662.1999407979
 20
5836.0872487366
 30
0.0
 11
4661.7738207023
 21
5836.0872487366
 31
0.0
  0
LINE
  5
131
330
1F
100
AcDbEntity
  8
0
  6
Continuous
 62
     7
370
    15
100
AcDbLine
 10
4662.4121690001
 20
5836.0872487366
 30
0.0
 11
4662.4121690001
 21
2836.0872487366
 31
0.0
  0
LINE
  5
132
330
1F
100
AcDbEntity
  8
0
  6
Continuous
 62
     7
370
    15
100
AcDbLine
 10
4662.4121690001
 20
2836.0872487366
 30
0.0
 11
4662.1999407979
 21
2836.0872487366
 31
0.0
  0
LINE
  5
133
330
1F
100
AcDbEntity
  8
0
  6
Continuous
 62
     7
370
    15
100
AcDbLine
 10
4662.4121690001
 20
5836.0872487366
 30
0.0
 11
4662.1999407979
 21
5836.0872487366
 31
0.0
  0
LINE
  5
134
330
1F
100
AcDbEntity
  8
0
  6
Continuous
 62
     7
370
    15
100
AcDbLine
 10
4661.5615925001
 20
5836.0872487366
 30
0.0
 11
4661.5615925001
 21
2836.0872487366
 31
0.0
  0
LINE
  5
135
330
1F
100
AcDbEntity
  8
0
  6
Continuous
 62
     7
370
    15
100
AcDbLine
 10
4661.7738207023
 20
2836.0872487366
 30
0.0
 11
4661.5615925001
 21
2836.0872487366
 31
0.0
  0
LINE
  5
136
330
1F
100
AcDbEntity
  8
0
  6
Continuous
 62
     7
370
    15
100
AcDbLine
 10
4661.7738207023
 20
5836.0872487366
 30
0.0
 11
4661.5615925001
 21
5836.0872487366
 31
0.0
  0
LINE
  5
137
330
1F
100
AcDbEntity
  8
0
  6
Continuous
 62
     7
370
    15
100
AcDbLine
 10
4662.6227367559
 20
5836.0872487366
 30
0.0
 11
4662.6227367559
 21
2836.0872487366
 31
0.0
  0
LINE
  5
138
330
1F
100
AcDbEntity
  8
0
  6
Continuous
 62
     7
370
    15
100
AcDbLine
 10
4662.6227367559
 20
2836.0872487366
 30
0.0
 11
4662.4121690001
 21
2836.0872487366
 31
0.0
  0
LINE
  5
139
330
1F
100
AcDbEntity
  8
0
  6
Continuous
 62
     7
370
    15
100
AcDbLine
 10
4662.6227367559
 20
5836.0872487366
 30
0.0
 11
4662.4121690001
 21
5836.0872487366
 31
0.0
  0
LINE
  5
13A
330
1F
100
AcDbEntity
  8
0
  6
Continuous
 62
     7
370
    15
100
AcDbLine
 10
4661.3510247443
 20
5836.0872487366
 30
0.0
 11
4661.3510247443
 21
2836.0872487366
 31
0.0
  0
LINE
  5
13B
330
1F
100
AcDbEntity
  8
0
  6
Continuous
 62
     7
370
    15
100
AcDbLine
 10
4661.5615925001
 20
2836.0872487366
 30
0.0
 11
4661.3510247443
 21
2836.0872487366
 31
0.0
  0
LINE
  5
13C
330
1F
100
AcDbEntity
  8
0
  6
Continuous
 62
     7
370
    15
100
AcDbLine
 10
4661.5615925001
 20
5836.0872487366
 30
0.0
 11
4661.3510247443
 21
5836.0872487366
 31
0.0
  0
LINE
  5
13D
330
1F
100
AcDbEntity
  8
0
  6
Continuous
 62
     7
370
    15
100
AcDbLine
 10
4662.8308218677
 20
5836.0872487366
 30
0.0
 11
4662.8308218677
 21
2836.0872487366
 31
0.0
  0
LINE
  5
13E
330
1F
100
AcDbEntity
  8
0
  6
Continuous
 62
     7
370
    15
100
AcDbLine
 10
4662.8308218677
 20
2836.0872487366
 30
0.0
 11
4662.6227367559
 21
2836.0872487366
 31
0.0
  0
LINE
  5
13F
330
1F
100
AcDbEntity
  8
0
  6
Continuous
 62
     7
370
    15
100
AcDbLine
 10
4662.8308218677
 20
5836.0872487366
 30
0.0
 11
4662.6227367559
 21
5836.0872487366
 31
0.0
  0
LINE
  5
140
330
1F
100
AcDbEntity
  8
0
  6
Continuous
 62
     7
370
    15
100
AcDbLine
 10
4661.1429396325
 20
5836.0872487366
 30
0.0
 11
4661.1429396325
 21
2836.0872487366
 31
0.0
  0
LINE
  5
141
330
1F
100
AcDbEntity
  8
0
  6
Continuous
 62
     7
370
    15
100
AcDbLine
 10
4661.3510247443
 20
2836.0872487366
 30
0.0
 11
4661.1429396325
 21
2836.0872487366
 31
0.0
  0
LINE
  5
142
330
1F
100
AcDbEntity
  8
0
  6
Continuous
 62
     7
370
    15
100
AcDbLine
 10
4661.3510247443
 20
5836.0872487366
 30
0.0
 11
4661.1429396325
 21
5836.0872487366
 31
0.0
  0
LINE
  5
143
330
1F
100
AcDbEntity
  8
0
  6
Continuous
 62
     7
370
    15
100
AcDbLine
 10
4664.1504455364
 20
5836.0872487366
 30
0.0
 11
4664.1504455364
 21
2836.0872487366
 31
0.0
  0
LINE
  5
144
330
1F
100
AcDbEntity
  8
0
  6
Continuous
 62
     7
370
    15
100
AcDbLine
 10
4664.1504455364
 20
2836.0872487366
 30
0.0
 11
4662.8308218677
 21
2836.0872487366
 31
0.0
  0
LINE
  5
145
330
1F
100
AcDbEntity
  8
0
  6
Continuous
 62
     7
370
    15
100
AcDbLine
 10
4664.1504455364
 20
5836.0872487366
 30
0.0
 11
4662.8308218677
 21
5836.0872487366
 31
0.0
  0
LINE
  5
146
330
1F
100
AcDbEntity
  8
0
  6
Continuous
 62
     7
370
    15
100
AcDbLine
 10
4659.8233159638
 20
5836.0872487366
 30
0.0
 11
4659.8233159638
 21
2836.0872487366
 31
0.0
  0
LINE
  5
147
330
1F
100
AcDbEntity
  8
0
  6
Continuous
 62
     7
370
    15
100
AcDbLine
 10
4661.1429396325
 20
2836.0872487366
 30
0.0
 11
4659.8233159638
 21
2836.0872487366
 31
0.0
  0
LINE
  5
148
330
1F
100
AcDbEntity
  8
0
  6
Continuous
 62
     7
370
    15
100
AcDbLine
 10
4661.1429396325
 20
5836.0872487366
 30
0.0
 11
4659.8233159638
 21
5836.0872487366
 31
0.0
  0
LINE
  5
149
330
1F
100
AcDbEntity
  8
0
  6
Continuous
 62
     7
370
    15
100
AcDbLine
 10
4664.238720481
 20
5836.0872487366
 30
0.0
 11
4664.238720481
 21
2836.0872487366
 31
0.0
  0
LINE
  5
14A
330
1F
100
AcDbEntity
  8
0
  6
Continuous
 62
     7
370
    15
100
AcDbLine
 10
4664.238720481
 20
2836.0872487366
 30
0.0
 11
4664.1504455364
 21
2836.0872487366
 31
0.0
  0
LINE
  5
14B
330
1F
100
AcDbEntity
  8
0
  6
Continuous
 62
     7
370
    15
100
AcDbLine
 10
4664.238720481
 20
5836.0872487366
 30
0.0
 11
4664.1504455364
 21
5836.0872487366
 31
0.0
  0
LINE
  5
14C
330
1F
100
AcDbEntity
  8
0
  6
Continuous
 62
     7
370
    15
100
AcDbLine
 10
4659.7350410192
 20
5836.0872487366
 30
0.0
 11
4659.7350410192
 21
2836.0872487366
 31
0.0
  0
LINE
  5
14D
330
1F
100
AcDbEntity
  8
0
  6
Continuous
 62
     7
370
    15
100
AcDbLine
 10
4659.8233159638
 20
2836.0872487366
 30
0.0
 11
4659.7350410192
 21
2836.0872487366
 31
0.0
  0
LINE
  5
14E
330
1F
100
AcDbEntity
  8
0
  6
Continuous
 62
     7
370
    15
100
AcDbLine
 10
4659.8233159638
 20
5836.0872487366
 30
0.0
 11
4659.7350410192
 21
5836.0872487366
 31
0.0
  0
LINE
  5
14F
330
1F
100
AcDbEntity
  8
0
  6
Continuous
 62
     7
370
    15
100
AcDbLine
 10
4664.3275304704
 20
5836.0872487366
 30
0.0
 11
4664.3275304704
 21
2836.0872487366
 31
0.0
  0
LINE
  5
150
330
1F
100
AcDbEntity
  8
0
  6
Continuous
 62
     7
370
    15
100
AcDbLine
 10
4664.3275304704
 20
2836.0872487366
 30
0.0
 11
4664.238720481
 21
2836.0872487366
 31
0.0
  0
LINE
  5
151
330
1F
100
AcDbEntity
  8
0
  6
Continuous
 62
     7
370
    15
100
AcDbLine
 10
4664.3275304704
 20
5836.0872487366
 30
0.0
 11
4664.238720481
 21
5836.0872487366
 31
0.0
  0
LINE
  5
152
330
1F
100
AcDbEntity
  8
0
  6
Continuous
 62
     7
370
    15
100
AcDbLine
 10
4659.6462310298
 20
5836.0872487366
 30
0.0
 11
4659.6462310298
 21
2836.0872487366
 31
0.0
  0
LINE
  5
153
330
1F
100
AcDbEntity
  8
0
  6
Continuous
 62
     7
370
    15
100
AcDbLine
 10
4659.7350410192
 20
2836.0872487366
 30
0.0
 11
4659.6462310298
 21
2836.0872487366
 31
0.0
  0
LINE
  5
154
330
1F
100
AcDbEntity
  8
0
  6
Continuous
 62
     7
370
    15
100
AcDbLine
 10
4659.7350410192
 20
5836.0872487366
 30
0.0
 11
4659.6462310298
 21
5836.0872487366
 31
0.0
  0
LINE
  5
155
330
1F
100
AcDbEntity
  8
0
  6
Continuous
 62
     7
370
    15
100
AcDbLine
 10
4665.4416765558
 20
5836.0872487366
 30
0.0
 11
4665.4416765558
 21
2836.0872487366
 31
0.0
  0
LINE
  5
156
330
1F
100
AcDbEntity
  8
0
  6
Continuous
 62
     7
370
    15
100
AcDbLine
 10
4665.4416765558
 20
2836.0872487366
 30
0.0
 11
4664.3275304704
 21
2836.0872487366
 31
0.0
  0
LINE
  5
157
330
1F
100
AcDbEntity
  8
0
  6
Continuous
 62
     7
370
    15
100
AcDbLine
 10
4665.4416765558
 20
5836.0872487366
 30
0.0
 11
4664.3275304704
 21
5836.0872487366
 31
0.0
  0
LINE
  5
158
330
1F
100
AcDbEntity
  8
0
  6
Continuous
 62
     7
370
    15
100
AcDbLine
 10
4658.5320849444
 20
5836.0872487366
 30
0.0
 11
4658.5320849444
 21
2836.0872487366
 31
0.0
  0
LINE
  5
159
330
1F
100
AcDbEntity
  8
0
  6
Continuous
 62
     7
370
    15
100
AcDbLine
 10
4659.6462310298
 20
2836.0872487366
 30
0.0
 11
4658.5320849444
 21
2836.0872487366
 31
0.0
  0
LINE
  5
15A
330
1F
100
AcDbEntity
  8
0
  6
Continuous
 62
     7
370
    15
100
AcDbLine
 10
4659.6462310298
 20
5836.0872487366
 30
0.0
 11
4658.5320849444
 21
5836.0872487366
 31
0.0
  0
LINE
  5
15B
330
1F
100
AcDbEntity
  8
0
  6
Continuous
 62
     7
370
    15
100
AcDbLine
 10
4665.655257926
 20
5836.0872487366
 30
0.0
 11
4665.655257926
 21
2836.0872487366
 31
0.0
  0
LINE
  5
15C
330
1F
100
AcDbEntity
  8
0
  6
Continuous
 62
     7
370
    15
100
AcDbLine
 10
4665.655257926
 20
2836.0872487366
 30
0.0
 11
4665.4416765558
 21
2836.0872487366
 31
0.0
  0
LINE
  5
15D
330
1F
100
AcDbEntity
  8
0
  6
Continuous
 62
     7
370
    15
100
AcDbLine
 10
4665.655257926
 20
5836.0872487366
 30
0.0
 11
4665.4416765558
 21
5836.0872487366
 31
0.0
  0
LINE
  5
15E
330
1F
100
AcDbEntity
  8
0
  6
Continuous
 62
     7
370
    15
100
AcDbLine
 10
4658.3185035742
 20
5836.0872487366
 30
0.0
 11
4658.3185035742
 21
2836.0872487366
 31
0.0
  0
LINE
  5
15F
330
1F
100
AcDbEntity
  8
0
  6
Continuous
 62
     7
370
    15
100
AcDbLine
 10
4658.5320849444
 20
2836.0872487366
 30
0.0
 11
4658.3185035742
 21
2836.0872487366
 31
0.0
  0
LINE
  5
160
330
1F
100
AcDbEntity
  8
0
  6
Continuous
 62
     7
370
    15
100
AcDbLine
 10
4658.5320849444
 20
5836.0872487366
 30
0.0
 11
4658.3185035742
 21
5836.0872487366
 31
0.0
  0
LINE
  5
161
330
1F
100
AcDbEntity
  8
0
  6
Continuous
 62
     7
370
    15
100
AcDbLine
 10
4665.8652010846
 20
5836.0872487366
 30
0.0
 11
4665.8652010846
 21
2836.0872487366
 31
0.0
  0
LINE
  5
162
330
1F
100
AcDbEntity
  8
0
  6
Continuous
 62
     7
370
    15
100
AcDbLine
 10
4665.8652010846
 20
2836.0872487366
 30
0.0
 11
4665.655257926
 21
2836.0872487366
 31
0.0
  0
LINE
  5
163
330
1F
100
AcDbEntity
  8
0
  6
Continuous
 62
     7
370
    15
100
AcDbLine
 10
4665.8652010846
 20
5836.0872487366
 30
0.0
 11
4665.655257926
 21
5836.0872487366
 31
0.0
  0
LINE
  5
164
330
1F
100
AcDbEntity
  8
0
  6
Continuous
 62
     7
370
    15
100
AcDbLine
 10
4658.1085604156
 20
5836.0872487366
 30
0.0
 11
4658.1085604156
 21
2836.0872487366
 31
0.0
  0
LINE
  5
165
330
1F
100
AcDbEntity
  8
0
  6
Continuous
 62
     7
370
    15
100
AcDbLine
 10
4658.3185035742
 20
2836.0872487366
 30
0.0
 11
4658.1085604156
 21
2836.0872487366
 31
0.0
  0
LINE
  5
166
330
1F
100
AcDbEntity
  8
0
  6
Continuous
 62
     7
370
    15
100
AcDbLine
 10
4658.3185035742
 20
5836.0872487366
 30
0.0
 11
4658.1085604156
 21
5836.0872487366
 31
0.0
  0
LINE
  5
167
330
1F
100
AcDbEntity
  8
0
  6
Continuous
 62
     7
370
    15
100
AcDbLine
 10
4666.0706380389
 20
5836.0872487366
 30
0.0
 11
4666.0706380389
 21
2836.0872487366
 31
0.0
  0
LINE
  5
168
330
1F
100
AcDbEntity
  8
0
  6
Continuous
 62
     7
370
    15
100
AcDbLine
 10
4666.0706380389
 20
2836.0872487366
 30
0.0
 11
4665.8652010846
 21
2836.0872487366
 31
0.0
  0
LINE
  5
169
330
1F
100
AcDbEntity
  8
0
  6
Continuous
 62
     7
370
    15
100
AcDbLine
 10
4666.0706380389
 20
5836.0872487366
 30
0.0
 11
4665.8652010846
 21
5836.0872487366
 31
0.0
  0
LINE
  5
16A
330
1F
100
AcDbEntity
  8
0
  6
Continuous
 62
     7
370
    15
100
AcDbLine
 10
4657.9031234614
 20
5836.0872487366
 30
0.0
 11
4657.9031234614
 21
2836.0872487366
 31
0.0
  0
LINE
  5
16B
330
1F
100
AcDbEntity
  8
0
  6
Continuous
 62
     7
370
    15
100
AcDbLine
 10
4658.1085604156
 20
2836.0872487366
 30
0.0
 11
4657.9031234614
 21
2836.0872487366
 31
0.0
  0
LINE
  5
16C
330
1F
100
AcDbEntity
  8
0
  6
Continuous
 62
     7
370
    15
100
AcDbLine
 10
4658.1085604156
 20
5836.0872487366
 30
0.0
 11
4657.9031234614
 21
5836.0872487366
 31
0.0
  0
LINE
  5
16D
330
1F
100
AcDbEntity
  8
0
  6
Continuous
 62
     7
370
    15
100
AcDbLine
 10
4666.2707205868
 20
5836.0872487366
 30
0.0
 11
4666.2707205868
 21
2836.0872487366
 31
0.0
  0
LINE
  5
16E
330
1F
100
AcDbEntity
  8
0
  6
Continuous
 62
     7
370
    15
100
AcDbLine
 10
4666.2707205868
 20
2836.0872487366
 30
0.0
 11
4666.0706380389
 21
2836.0872487366
 31
0.0
  0
LINE
  5
16F
330
1F
100
AcDbEntity
  8
0
  6
Continuous
 62
     7
370
    15
100
AcDbLine
 10
4666.2707205868
 20
5836.0872487366
 30
0.0
 11
4666.0706380389
 21
5836.0872487366
 31
0.0
  0
LINE
  5
170
330
1F
100
AcDbEntity
  8
0
  6
Continuous
 62
     7
370
    15
100
AcDbLine
 10
4657.7030409134
 20
5836.0872487366
 30
0.0
 11
4657.7030409134
 21
2836.0872487366
 31
0.0
  0
LINE
  5
171
330
1F
100
AcDbEntity
  8
0
  6
Continuous
 62
     7
370
    15
100
AcDbLine
 10
4657.9031234614
 20
2836.0872487366
 30
0.0
 11
4657.7030409134
 21
2836.0872487366
 31
0.0
  0
LINE
  5
172
330
1F
100
AcDbEntity
  8
0
  6
Continuous
 62
     7
370
    15
100
AcDbLine
 10
4657.9031234614
 20
5836.0872487366
 30
0.0
 11
4657.7030409134
 21
5836.0872487366
 31
0.0
  0
LINE
  5
173
330
1F
100
AcDbEntity
  8
0
  6
Continuous
 62
     7
370
    15
100
AcDbLine
 10
4666.4646214812
 20
5836.0872487366
 30
0.0
 11
4666.4646214812
 21
2836.0872487366
 31
0.0
  0
LINE
  5
174
330
1F
100
AcDbEntity
  8
0
  6
Continuous
 62
     7
370
    15
100
AcDbLine
 10
4666.4646214812
 20
2836.0872487366
 30
0.0
 11
4666.2707205868
 21
2836.0872487366
 31
0.0
  0
LINE
  5
175
330
1F
100
AcDbEntity
  8
0
  6
Continuous
 62
     7
370
    15
100
AcDbLine
 10
4666.4646214812
 20
5836.0872487366
 30
0.0
 11
4666.2707205868
 21
5836.0872487366
 31
0.0
  0
LINE
  5
176
330
1F
100
AcDbEntity
  8
0
  6
Continuous
 62
     7
370
    15
100
AcDbLine
 10
4657.509140019
 20
5836.0872487366
 30
0.0
 11
4657.509140019
 21
2836.0872487366
 31
0.0
  0
LINE
  5
177
330
1F
100
AcDbEntity
  8
0
  6
Continuous
 62
     7
370
    15
100
AcDbLine
 10
4657.7030409134
 20
2836.0872487366
 30
0.0
 11
4657.509140019
 21
2836.0872487366
 31
0.0
  0
LINE
  5
178
330
1F
100
AcDbEntity
  8
0
  6
Continuous
 62
     7
370
    15
100
AcDbLine
 10
4657.7030409134
 20
5836.0872487366
 30
0.0
 11
4657.509140019
 21
5836.0872487366
 31
0.0
  0
LINE
  5
179
330
1F
100
AcDbEntity
  8
0
  6
Continuous
 62
     7
370
    15
100
AcDbLine
 10
4666.6515397846
 20
5836.0872487366
 30
0.0
 11
4666.6515397846
 21
2836.0872487366
 31
0.0
  0
LINE
  5
17A
330
1F
100
AcDbEntity
  8
0
  6
Continuous
 62
     7
370
    15
100
AcDbLine
 10
4666.6515397846
 20
2836.0872487366
 30
0.0
 11
4666.4646214812
 21
2836.0872487366
 31
0.0
  0
LINE
  5
17B
330
1F
100
AcDbEntity
  8
0
  6
Continuous
 62
     7
370
    15
100
AcDbLine
 10
4666.6515397846
 20
5836.0872487366
 30
0.0
 11
4666.4646214812
 21
5836.0872487366
 31
0.0
  0
LINE
  5
17C
330
1F
100
AcDbEntity
  8
0
  6
Continuous
 62
     7
370
    15
100
AcDbLine
 10
4657.3222217156
 20
5836.0872487366
 30
0.0
 11
4657.3222217156
 21
2836.0872487366
 31
0.0
  0
LINE
  5
17D
330
1F
100
AcDbEntity
  8
0
  6
Continuous
 62
     7
370
    15
100
AcDbLine
 10
4657.509140019
 20
2836.0872487366
 30
0.0
 11
4657.3222217156
 21
2836.0872487366
 31
0.0
  0
LINE
  5
17E
330
1F
100
AcDbEntity
  8
0
  6
Continuous
 62
     7
370
    15
100
AcDbLine
 10
4657.509140019
 20
5836.0872487366
 30
0.0
 11
4657.3222217156
 21
5836.0872487366
 31
0.0
  0
LINE
  5
17F
330
1F
100
AcDbEntity
  8
0
  6
Continuous
 62
     7
370
    15
100
AcDbLine
 10
4666.8307024992
 20
5836.0872487366
 30
0.0
 11
4666.8307024992
 21
2836.0872487366
 31
0.0
  0
LINE
  5
180
330
1F
100
AcDbEntity
  8
0
  6
Continuous
 62
     7
370
    15
100
AcDbLine
 10
4666.8307024992
 20
2836.0872487366
 30
0.0
 11
4666.6515397846
 21
2836.0872487366
 31
0.0
  0
LINE
  5
181
330
1F
100
AcDbEntity
  8
0
  6
Continuous
 62
     7
370
    15
100
AcDbLine
 10
4666.8307024992
 20
5836.0872487366
 30
0.0
 11
4666.6515397846
 21
5836.0872487366
 31
0.0
  0
LINE
  5
182
330
1F
100
AcDbEntity
  8
0
  6
Continuous
 62
     7
370
    15
100
AcDbLine
 10
4657.143059001
 20
5836.0872487366
 30
0.0
 11
4657.143059001
 21
2836.0872487366
 31
0.0
  0
LINE
  5
183
330
1F
100
AcDbEntity
  8
0
  6
Continuous
 62
     7
370
    15
100
AcDbLine
 10
4657.3222217156
 20
2836.0872487366
 30
0.0
 11
4657.143059001
 21
2836.0872487366
 31
0.0
  0
LINE
  5
184
330
1F
100
AcDbEntity
  8
0
  6
Continuous
 62
     7
370
    15
100
AcDbLine
 10
4657.3222217156
 20
5836.0872487366
 30
0.0
 11
4657.143059001
 21
5836.0872487366
 31
0.0
  0
LINE
  5
185
330
1F
100
AcDbEntity
  8
0
  6
Continuous
 62
     7
370
    15
100
AcDbLine
 10
4667.0013696893
 20
5836.0872487366
 30
0.0
 11
4667.0013696893
 21
2836.0872487366
 31
0.0
  0
LINE
  5
186
330
1F
100
AcDbEntity
  8
0
  6
Continuous
 62
     7
370
    15
100
AcDbLine
 10
4667.0013696893
 20
2836.0872487366
 30
0.0
 11
4666.8307024992
 21
2836.0872487366
 31
0.0
  0
LINE
  5
187
330
1F
100
AcDbEntity
  8
0
  6
Continuous
 62
     7
370
    15
100
AcDbLine
 10
4667.0013696893
 20
5836.0872487366
 30
0.0
 11
4666.8307024992
 21
5836.0872487366
 31
0.0
  0
LINE
  5
188
330
1F
100
AcDbEntity
  8
0
  6
Continuous
 62
     7
370
    15
100
AcDbLine
 10
4656.9723918109
 20
5836.0872487366
 30
0.0
 11
4656.9723918109
 21
2836.0872487366
 31
0.0
  0
LINE
  5
189
330
1F
100
AcDbEntity
  8
0
  6
Continuous
 62
     7
370
    15
100
AcDbLine
 10
4657.143059001
 20
2836.0872487366
 30
0.0
 11
4656.9723918109
 21
2836.0872487366
 31
0.0
  0
LINE
  5
18A
330
1F
100
AcDbEntity
  8
0
  6
Continuous
 62
     7
370
    15
100
AcDbLine
 10
4657.143059001
 20
5836.0872487366
 30
0.0
 11
4656.9723918109
 21
5836.0872487366
 31
0.0
  0
LINE
  5
18B
330
1F
100
AcDbEntity
  8
0
  6
Continuous
 62
     7
370
    15
100
AcDbLine
 10
4667.4510099
 20
5836.0872487366
 30
0.0
 11
4667.4510099
 21
2836.0872487366
 31
0.0
  0
LINE
  5
18C
330
1F
100
AcDbEntity
  8
0
  6
Continuous
 62
     7
370
    15
100
AcDbLine
 10
4667.4510099
 20
2836.0872487366
 30
0.0
 11
4667.0013696893
 21
2836.0872487366
 31
0.0
  0
LINE
  5
18D
330
1F
100
AcDbEntity
  8
0
  6
Continuous
 62
     7
370
    15
100
AcDbLine
 10
4667.4510099
 20
5836.0872487366
 30
0.0
 11
4667.0013696893
 21
5836.0872487366
 31
0.0
  0
LINE
  5
18E
330
1F
100
AcDbEntity
  8
0
  6
Continuous
 62
     7
370
    15
100
AcDbLine
 10
4656.5227516002
 20
5836.0872487366
 30
0.0
 11
4656.5227516002
 21
2836.0872487366
 31
0.0
  0
LINE
  5
18F
330
1F
100
AcDbEntity
  8
0
  6
Continuous
 62
     7
370
    15
100
AcDbLine
 10
4656.9723918109
 20
2836.0872487366
 30
0.0
 11
4656.5227516002
 21
2836.0872487366
 31
0.0
  0
LINE
  5
190
330
1F
100
AcDbEntity
  8
0
  6
Continuous
 62
     7
370
    15
100
AcDbLine
 10
4656.9723918109
 20
5836.0872487366
 30
0.0
 11
4656.5227516002
 21
5836.0872487366
 31
0.0
  0
LINE
  5
191
330
1F
100
AcDbEntity
  8
0
  6
Continuous
 62
     7
370
    15
100
AcDbLine
 10
4667.8933979018
 20
5836.0872487366
 30
0.0
 11
4667.8933979018
 21
2836.0872487366
 31
0.0
  0
LINE
  5
192
330
1F
100
AcDbEntity
  8
0
  6
Continuous
 62
     7
370
    15
100
AcDbLine
 10
4667.8933979018
 20
2836.0872487366
 30
0.0
 11
4667.4510099
 21
2836.0872487366
 31
0.0
  0
LINE
  5
193
330
1F
100
AcDbEntity
  8
0
  6
Continuous
 62
     7
370
    15
100
AcDbLine
 10
4667.8933979018
 20
5836.0872487366
 30
0.0
 11
4667.4510099
 21
5836.0872487366
 31
0.0
  0
LINE
  5
194
330
1F
100
AcDbEntity
  8
0
  6
Continuous
 62
     7
370
    15
100
AcDbLine
 10
4656.0803631327
 20
5836.0872487366
 30
0.0
 11
4656.0803631327
 21
2836.0872487366
 31
0.0
  0
LINE
  5
195
330
1F
100
AcDbEntity
  8
0
  6
Continuous
 62
     7
370
    15
100
AcDbLine
 10
4656.5227516002
 20
2836.0872487366
 30
0.0
 11
4656.0803631327
 21
2836.0872487366
 31
0.0
  0
LINE
  5
196
330
1F
100
AcDbEntity
  8
0
  6
Continuous
 62
     7
370
    15
100
AcDbLine
 10
4656.5227516002
 20
5836.0872487366
 30
0.0
 11
4656.0803631327
 21
5836.0872487366
 31
0.0
  0
LINE
  5
197
330
1F
100
AcDbEntity
  8
0
  6
Continuous
 62
     7
370
    15
100
AcDbLine
 10
4668.3283874771
 20
5836.0872487366
 30
0.0
 11
4668.3283874771
 21
2836.0872487366
 31
0.0
  0
LINE
  5
198
330
1F
100
AcDbEntity
  8
0
  6
Continuous
 62
     7
370
    15
100
AcDbLine
 10
4668.3283874771
 20
2836.0872487366
 30
0.0
 11
4667.8933979018
 21
2836.0872487366
 31
0.0
  0
LINE
  5
199
330
1F
100
AcDbEntity
  8
0
  6
Continuous
 62
     7
370
    15
100
AcDbLine
 10
4668.3283874771
 20
5836.0872487366
 30
0.0
 11
4667.8933979018
 21
5836.0872487366
 31
0.0
  0
LINE
  5
19A
330
1F
100
AcDbEntity
  8
0
  6
Continuous
 62
     7
370
    15
100
AcDbLine
 10
4655.6453735574
 20
5836.0872487366
 30
0.0
 11
4655.6453735574
 21
2836.0872487366
 31
0.0
  0
LINE
  5
19B
330
1F
100
AcDbEntity
  8
0
  6
Continuous
 62
     7
370
    15
100
AcDbLine
 10
4656.0803631327
 20
2836.0872487366
 30
0.0
 11
4655.6453735574
 21
2836.0872487366
 31
0.0
  0
LINE
  5
19C
330
1F
100
AcDbEntity
  8
0
  6
Continuous
 62
     7
370
    15
100
AcDbLine
 10
4656.0803631327
 20
5836.0872487366
 30
0.0
 11
4655.6453735574
 21
5836.0872487366
 31
0.0
  0
LINE
  5
19D
330
1F
100
AcDbEntity
  8
0
  6
Continuous
 62
     7
370
    15
100
AcDbLine
 10
4668.7558347366
 20
5836.0872487366
 30
0.0
 11
4668.7558347366
 21
2836.0872487366
 31
0.0
  0
LINE
  5
19E
330
1F
100
AcDbEntity
  8
0
  6
Continuous
 62
     7
370
    15
100
AcDbLine
 10
4668.7558347366
 20
2836.0872487366
 30
0.0
 11
4668.3283874771
 21
2836.0872487366
 31
0.0
  0
LINE
  5
19F
330
1F
100
AcDbEntity
  8
0
  6
Continuous
 62
     7
370
    15
100
AcDbLine
 10
4668.7558347366
 20
5836.0872487366
 30
0.0
 11
4668.3283874771
 21
5836.0872487366
 31
0.0
  0
LINE
  5
1A0
330
1F
100
AcDbEntity
  8
0
  6
Continuous
 62
     7
370
    15
100
AcDbLine
 10
4655.217926298
 20
5836.0872487366
 30
0.0
 11
4655.217926298
 21
2836.0872487366
 31
0.0
  0
LINE
  5
1A1
330
1F
100
AcDbEntity
  8
0
  6
Continuous
 62
     7
370
    15
100
AcDbLine
 10
4655.6453735574
 20
2836.0872487366
 30
0.0
 11
4655.217926298
 21
2836.0872487366
 31
0.0
  0
LINE
  5
1A2
330
1F
100
AcDbEntity
  8
0
  6
Continuous
 62
     7
370
    15
100
AcDbLine
 10
4655.6453735574
 20
5836.0872487366
 30
0.0
 11
4655.217926298
 21
5836.0872487366
 31
0.0
  0
LINE
  5
1A3
330
1F
100
AcDbEntity
  8
0
  6
Continuous
 62
     7
370
    15
100
AcDbLine
 10
4669.1755976534
 20
5836.0872487366
 30
0.0
 11
4669.1755976534
 21
2836.0872487366
 31
0.0
  0
LINE
  5
1A4
330
1F
100
AcDbEntity
  8
0
  6
Continuous
 62
     7
370
    15
100
AcDbLine
 10
4669.1755976534
 20
2836.0872487366
 30
0.0
 11
4668.7558347366
 21
2836.0872487366
 31
0.0
  0
LINE
  5
1A5
330
1F
100
AcDbEntity
  8
0
  6
Continuous
 62
     7
370
    15
100
AcDbLine
 10
4669.1755976534
 20
5836.0872487366
 30
0.0
 11
4668.7558347366
 21
5836.0872487366
 31
0.0
  0
LINE
  5
1A6
330
1F
100
AcDbEntity
  8
0
  6
Continuous
 62
     7
370
    15
100
AcDbLine
 10
4654.7981633811
 20
5836.0872487366
 30
0.0
 11
4654.7981633811
 21
2836.0872487366
 31
0.0
  0
LINE
  5
1A7
330
1F
100
AcDbEntity
  8
0
  6
Continuous
 62
     7
370
    15
100
AcDbLine
 10
4655.217926298
 20
2836.0872487366
 30
0.0
 11
4654.7981633811
 21
2836.0872487366
 31
0.0
  0
LINE
  5
1A8
330
1F
100
AcDbEntity
  8
0
  6
Continuous
 62
     7
370
    15
100
AcDbLine
 10
4655.217926298
 20
5836.0872487366
 30
0.0
 11
4654.7981633811
 21
5836.0872487366
 31
0.0
  0
LINE
  5
1A9
330
1F
100
AcDbEntity
  8
0
  6
Continuous
 62
     7
370
    15
100
AcDbLine
 10
4669.5875379263
 20
5836.0872487366
 30
0.0
 11
4669.5875379263
 21
2836.0872487366
 31
0.0
  0
LINE
  5
1AA
330
1F
100
AcDbEntity
  8
0
  6
Continuous
 62
     7
370
    15
100
AcDbLine
 10
4669.5875379263
 20
2836.0872487366
 30
0.0
 11
4669.1755976534
 21
2836.0872487366
 31
0.0
  0
LINE
  5
1AB
330
1F
100
AcDbEntity
  8
0
  6
Continuous
 62
     7
370
    15
100
AcDbLine
 10
4669.5875379263
 20
5836.0872487366
 30
0.0
 11
4669.1755976534
 21
5836.0872487366
 31
0.0
  0
LINE
  5
1AC
330
1F
100
AcDbEntity
  8
0
  6
Continuous
 62
     7
370
    15
100
AcDbLine
 10
4654.3862231082
 20
5836.0872487366
 30
0.0
 11
4654.3862231082
 21
2836.0872487366
 31
0.0
  0
LINE
  5
1AD
330
1F
100
AcDbEntity
  8
0
  6
Continuous
 62
     7
370
    15
100
AcDbLine
 10
4654.7981633811
 20
2836.0872487366
 30
0.0
 11
4654.3862231082
 21
2836.0872487366
 31
0.0
  0
LINE
  5
1AE
330
1F
100
AcDbEntity
  8
0
  6
Continuous
 62
     7
370
    15
100
AcDbLine
 10
4654.7981633811
 20
5836.0872487366
 30
0.0
 11
4654.3862231082
 21
5836.0872487366
 31
0.0
  0
LINE
  5
1AF
330
1F
100
AcDbEntity
  8
0
  6
Continuous
 62
     7
370
    15
100
AcDbLine
 10
4669.9915191165
 20
5836.0872487366
 30
0.0
 11
4669.9915191165
 21
2836.0872487366
 31
0.0
  0
LINE
  5
1B0
330
1F
100
AcDbEntity
  8
0
  6
Continuous
 62
     7
370
    15
100
AcDbLine
 10
4669.9915191165
 20
2836.0872487366
 30
0.0
 11
4669.5875379263
 21
2836.0872487366
 31
0.0
  0
LINE
  5
1B1
330
1F
100
AcDbEntity
  8
0
  6
Continuous
 62
     7
370
    15
100
AcDbLine
 10
4669.9915191165
 20
5836.0872487366
 30
0.0
 11
4669.5875379263
 21
5836.0872487366
 31
0.0
  0
LINE
  5
1B2
330
1F
100
AcDbEntity
  8
0
  6
Continuous
 62
     7
370
    15
100
AcDbLine
 10
4653.9822423837
 20
5836.0872487366
 30
0.0
 11
4653.9822423837
 21
2836.0872487366
 31
0.0
  0
LINE
  5
1B3
330
1F
100
AcDbEntity
  8
0
  6
Continuous
 62
     7
370
    15
100
AcDbLine
 10
4654.3862231082
 20
2836.0872487366
 30
0.0
 11
4653.9822423837
 21
2836.0872487366
 31
0.0
  0
LINE
  5
1B4
330
1F
100
AcDbEntity
  8
0
  6
Continuous
 62
     7
370
    15
100
AcDbLine
 10
4654.3862231082
 20
5836.0872487366
 30
0.0
 11
4653.9822423837
 21
5836.0872487366
 31
0.0
  0
LINE
  5
1B5
330
1F
100
AcDbEntity
  8
0
  6
Continuous
 62
     7
370
    15
100
AcDbLine
 10
4670.3867994255
 20
5836.0872487366
 30
0.0
 11
4670.3867994255
 21
2836.0872487366
 31
0.0
  0
LINE
  5
1B6
330
1F
100
AcDbEntity
  8
0
  6
Continuous
 62
     7
370
    15
100
AcDbLine
 10
4670.3867994255
 20
2836.0872487366
 30
0.0
 11
4669.9915191165
 21
2836.0872487366
 31
0.0
  0
LINE
  5
1B7
330
1F
100
AcDbEntity
  8
0
  6
Continuous
 62
     7
370
    15
100
AcDbLine
 10
4670.3867994255
 20
5836.0872487366
 30
0.0
 11
4669.9915191165
 21
5836.0872487366
 31
0.0
  0
LINE
  5
1B8
330
1F
100
AcDbEntity
  8
0
  6
Continuous
 62
     7
370
    15
100
AcDbLine
 10
4653.5869620747
 20
5836.0872487366
 30
0.0
 11
4653.5869620747
 21
2836.0872487366
 31
0.0
  0
LINE
  5
1B9
330
1F
100
AcDbEntity
  8
0
  6
Continuous
 62
     7
370
    15
100
AcDbLine
 10
4653.9822423837
 20
2836.0872487366
 30
0.0
 11
4653.5869620747
 21
2836.0872487366
 31
0.0
  0
LINE
  5
1BA
330
1F
100
AcDbEntity
  8
0
  6
Continuous
 62
     7
370
    15
100
AcDbLine
 10
4653.9822423837
 20
5836.0872487366
 30
0.0
 11
4653.5869620747
 21
5836.0872487366
 31
0.0
  0
LINE
  5
1BB
330
1F
100
AcDbEntity
  8
0
  6
Continuous
 62
     7
370
    15
100
AcDbLine
 10
4670.5340210355
 20
5836.0872487366
 30
0.0
 11
4670.5340210355
 21
2836.0872487366
 31
0.0
  0
LINE
  5
1BC
330
1F
100
AcDbEntity
  8
0
  6
Continuous
 62
     7
370
    15
100
AcDbLine
 10
4670.5340210355
 20
2836.0872487366
 30
0.0
 11
4670.3867994255
 21
2836.0872487366
 31
0.0
  0
LINE
  5
1BD
330
1F
100
AcDbEntity
  8
0
  6
Continuous
 62
     7
370
    15
100
AcDbLine
 10
4670.5340210355
 20
5836.0872487366
 30
0.0
 11
4670.3867994255
 21
5836.0872487366
 31
0.0
  0
LINE
  5
1BE
330
1F
100
AcDbEntity
  8
0
  6
Continuous
 62
     7
370
    15
100
AcDbLine
 10
4653.4397404647
 20
5836.0872487366
 30
0.0
 11
4653.4397404647
 21
2836.0872487366
 31
0.0
  0
LINE
  5
1BF
330
1F
100
AcDbEntity
  8
0
  6
Continuous
 62
     7
370
    15
100
AcDbLine
 10
4653.5869620747
 20
2836.0872487366
 30
0.0
 11
4653.4397404647
 21
2836.0872487366
 31
0.0
  0
LINE
  5
1C0
330
1F
100
AcDbEntity
  8
0
  6
Continuous
 62
     7
370
    15
100
AcDbLine
 10
4653.5869620747
 20
5836.0872487366
 30
0.0
 11
4653.4397404647
 21
5836.0872487366
 31
0.0
  0
LINE
  5
1C1
330
1F
100
AcDbEntity
  8
0
  6
Continuous
 62
     7
370
    15
100
AcDbLine
 10
4670.6684025011
 20
5836.0872487366
 30
0.0
 11
4670.6684025011
 21
2836.0872487366
 31
0.0
  0
LINE
  5
1C2
330
1F
100
AcDbEntity
  8
0
  6
Continuous
 62
     7
370
    15
100
AcDbLine
 10
4670.6684025011
 20
2836.0872487366
 30
0.0
 11
4670.5340210355
 21
2836.0872487366
 31
0.0
  0
LINE
  5
1C3
330
1F
100
AcDbEntity
  8
0
  6
Continuous
 62
     7
370
    15
100
AcDbLine
 10
4670.6684025011
 20
5836.0872487366
 30
0.0
 11
4670.5340210355
 21
5836.0872487366
 31
0.0
  0
LINE
  5
1C4
330
1F
100
AcDbEntity
  8
0
  6
Continuous
 62
     7
370
    15
100
AcDbLine
 10
4653.3053589991
 20
5836.0872487366
 30
0.0
 11
4653.3053589991
 21
2836.0872487366
 31
0.0
  0
LINE
  5
1C5
330
1F
100
AcDbEntity
  8
0
  6
Continuous
 62
     7
370
    15
100
AcDbLine
 10
4653.4397404647
 20
2836.0872487366
 30
0.0
 11
4653.3053589991
 21
2836.0872487366
 31
0.0
  0
LINE
  5
1C6
330
1F
100
AcDbEntity
  8
0
  6
Continuous
 62
     7
370
    15
100
AcDbLine
 10
4653.4397404647
 20
5836.0872487366
 30
0.0
 11
4653.3053589991
 21
5836.0872487366
 31
0.0
  0
LINE
  5
1C7
330
1F
100
AcDbEntity
  8
0
  6
Continuous
 62
     7
370
    15
100
AcDbLine
 10
4670.7893095917
 20
5836.0872487366
 30
0.0
 11
4670.7893095917
 21
2836.0872487366
 31
0.0
  0
LINE
  5
1C8
330
1F
100
AcDbEntity
  8
0
  6
Continuous
 62
     7
370
    15
100
AcDbLine
 10
4670.7893095917
 20
2836.0872487366
 30
0.0
 11
4670.6684025011
 21
2836.0872487366
 31
0.0
  0
LINE
  5
1C9
330
1F
100
AcDbEntity
  8
0
  6
Continuous
 62
     7
370
    15
100
AcDbLine
 10
4670.7893095917
 20
5836.0872487366
 30
0.0
 11
4670.6684025011
 21
5836.0872487366
 31
0.0
  0
LINE
  5
1CA
330
1F
100
AcDbEntity
  8
0
  6
Continuous
 62
     7
370
    15
100
AcDbLine
 10
4653.1844519085
 20
5836.0872487366
 30
0.0
 11
4653.1844519085
 21
2836.0872487366
 31
0.0
  0
LINE
  5
1CB
330
1F
100
AcDbEntity
  8
0
  6
Continuous
 62
     7
370
    15
100
AcDbLine
 10
4653.3053589991
 20
2836.0872487366
 30
0.0
 11
4653.1844519085
 21
2836.0872487366
 31
0.0
  0
LINE
  5
1CC
330
1F
100
AcDbEntity
  8
0
  6
Continuous
 62
     7
370
    15
100
AcDbLine
 10
4653.3053589991
 20
5836.0872487366
 30
0.0
 11
4653.1844519085
 21
5836.0872487366
 31
0.0
  0
LINE
  5
1CD
330
1F
100
AcDbEntity
  8
0
  6
Continuous
 62
     7
370
    15
100
AcDbLine
 10
4670.8961723379
 20
5836.0872487366
 30
0.0
 11
4670.8961723379
 21
2836.0872487366
 31
0.0
  0
LINE
  5
1CE
330
1F
100
AcDbEntity
  8
0
  6
Continuous
 62
     7
370
    15
100
AcDbLine
 10
4670.8961723379
 20
2836.0872487366
 30
0.0
 11
4670.7893095917
 21
2836.0872487366
 31
0.0
  0
LINE
  5
1CF
330
1F
100
AcDbEntity
  8
0
  6
Continuous
 62
     7
370
    15
100
AcDbLine
 10
4670.8961723379
 20
5836.0872487366
 30
0.0
 11
4670.7893095917
 21
5836.0872487366
 31
0.0
  0
LINE
  5
1D0
330
1F
100
AcDbEntity
  8
0
  6
Continuous
 62
     7
370
    15
100
AcDbLine
 10
4653.0775891623
 20
5836.0872487366
 30
0.0
 11
4653.0775891623
 21
2836.0872487366
 31
0.0
  0
LINE
  5
1D1
330
1F
100
AcDbEntity
  8
0
  6
Continuous
 62
     7
370
    15
100
AcDbLine
 10
4653.1844519085
 20
2836.0872487366
 30
0.0
 11
4653.0775891623
 21
2836.0872487366
 31
0.0
  0
LINE
  5
1D2
330
1F
100
AcDbEntity
  8
0
  6
Continuous
 62
     7
370
    15
100
AcDbLine
 10
4653.1844519085
 20
5836.0872487366
 30
0.0
 11
4653.0775891623
 21
5836.0872487366
 31
0.0
  0
LINE
  5
1D3
330
1F
100
AcDbEntity
  8
0
  6
Continuous
 62
     7
370
    15
100
AcDbLine
 10
4670.9884887568
 20
5836.0872487366
 30
0.0
 11
4670.9884887568
 21
2836.0872487366
 31
0.0
  0
LINE
  5
1D4
330
1F
100
AcDbEntity
  8
0
  6
Continuous
 62
     7
370
    15
100
AcDbLine
 10
4670.9884887568
 20
2836.0872487366
 30
0.0
 11
4670.8961723379
 21
2836.0872487366
 31
0.0
  0
LINE
  5
1D5
330
1F
100
AcDbEntity
  8
0
  6
Continuous
 62
     7
370
    15
100
AcDbLine
 10
4670.9884887568
 20
5836.0872487366
 30
0.0
 11
4670.8961723379
 21
5836.0872487366
 31
0.0
  0
LINE
  5
1D6
330
1F
100
AcDbEntity
  8
0
  6
Continuous
 62
     7
370
    15
100
AcDbLine
 10
4652.9852727434
 20
5836.0872487366
 30
0.0
 11
4652.9852727434
 21
2836.0872487366
 31
0.0
  0
LINE
  5
1D7
330
1F
100
AcDbEntity
  8
0
  6
Continuous
 62
     7
370
    15
100
AcDbLine
 10
4653.0775891623
 20
2836.0872487366
 30
0.0
 11
4652.9852727434
 21
2836.0872487366
 31
0.0
  0
LINE
  5
1D8
330
1F
100
AcDbEntity
  8
0
  6
Continuous
 62
     7
370
    15
100
AcDbLine
 10
4653.0775891623
 20
5836.0872487366
 30
0.0
 11
4652.9852727434
 21
5836.0872487366
 31
0.0
  0
LINE
  5
1D9
330
1F
100
AcDbEntity
  8
0
  6
Continuous
 62
     7
370
    15
100
AcDbLine
 10
4671.0658229894
 20
5836.0872487366
 30
0.0
 11
4671.0658229894
 21
2836.0872487366
 31
0.0
  0
LINE
  5
1DA
330
1F
100
AcDbEntity
  8
0
  6
Continuous
 62
     7
370
    15
100
AcDbLine
 10
4671.0658229894
 20
2836.0872487366
 30
0.0
 11
4670.9884887568
 21
2836.0872487366
 31
0.0
  0
LINE
  5
1DB
330
1F
100
AcDbEntity
  8
0
  6
Continuous
 62
     7
370
    15
100
AcDbLine
 10
4671.0658229894
 20
5836.0872487366
 30
0.0
 11
4670.9884887568
 21
5836.0872487366
 31
0.0
  0
LINE
  5
1DC
330
1F
100
AcDbEntity
  8
0
  6
Continuous
 62
     7
370
    15
100
AcDbLine
 10
4652.9079385108
 20
5836.0872487366
 30
0.0
 11
4652.9079385108
 21
2836.0872487366
 31
0.0
  0
LINE
  5
1DD
330
1F
100
AcDbEntity
  8
0
  6
Continuous
 62
     7
370
    15
100
AcDbLine
 10
4652.9852727434
 20
2836.0872487366
 30
0.0
 11
4652.9079385108
 21
2836.0872487366
 31
0.0
  0
LINE
  5
1DE
330
1F
100
AcDbEntity
  8
0
  6
Continuous
 62
     7
370
    15
100
AcDbLine
 10
4652.9852727434
 20
5836.0872487366
 30
0.0
 11
4652.9079385108
 21
5836.0872487366
 31
0.0
  0
LINE
  5
1DF
330
1F
100
AcDbEntity
  8
0
  6
Continuous
 62
     7
370
    15
100
AcDbLine
 10
4671.1278108886
 20
5836.0872487366
 30
0.0
 11
4671.1278108886
 21
2836.0872487366
 31
0.0
  0
LINE
  5
1E0
330
1F
100
AcDbEntity
  8
0
  6
Continuous
 62
     7
370
    15
100
AcDbLine
 10
4671.1278108886
 20
2836.0872487366
 30
0.0
 11
4671.0658229894
 21
2836.0872487366
 31
0.0
  0
LINE
  5
1E1
330
1F
100
AcDbEntity
  8
0
  6
Continuous
 62
     7
370
    15
100
AcDbLine
 10
4671.1278108886
 20
5836.0872487366
 30
0.0
 11
4671.0658229894
 21
5836.0872487366
 31
0.0
  0
LINE
  5
1E2
330
1F
100
AcDbEntity
  8
0
  6
Continuous
 62
     7
370
    15
100
AcDbLine
 10
4652.8459506116
 20
5836.0872487366
 30
0.0
 11
4652.8459506116
 21
2836.0872487366
 31
0.0
  0
LINE
  5
1E3
330
1F
100
AcDbEntity
  8
0
  6
Continuous
 62
     7
370
    15
100
AcDbLine
 10
4652.9079385108
 20
2836.0872487366
 30
0.0
 11
4652.8459506116
 21
2836.0872487366
 31
0.0
  0
LINE
  5
1E4
330
1F
100
AcDbEntity
  8
0
  6
Continuous
 62
     7
370
    15
100
AcDbLine
 10
4652.9079385108
 20
5836.0872487366
 30
0.0
 11
4652.8459506116
 21
5836.0872487366
 31
0.0
  0
LINE
  5
1E5
330
1F
100
AcDbEntity
  8
0
  6
Continuous
 62
     7
370
    15
100
AcDbLine
 10
4671.1741600192
 20
5836.0872487366
 30
0.0
 11
4671.1741600192
 21
2836.0872487366
 31
0.0
  0
LINE
  5
1E6
330
1F
100
AcDbEntity
  8
0
  6
Continuous
 62
     7
370
    15
100
AcDbLine
 10
4671.1741600192
 20
2836.0872487366
 30
0.0
 11
4671.1278108886
 21
2836.0872487366
 31
0.0
  0
LINE
  5
1E7
330
1F
100
AcDbEntity
  8
0
  6
Continuous
 62
     7
370
    15
100
AcDbLine
 10
4671.1741600192
 20
5836.0872487366
 30
0.0
 11
4671.1278108886
 21
5836.0872487366
 31
0.0
  0
LINE
  5
1E8
330
1F
100
AcDbEntity
  8
0
  6
Continuous
 62
     7
370
    15
100
AcDbLine
 10
4652.799601481
 20
5836.0872487366
 30
0.0
 11
4652.799601481
 21
2836.0872487366
 31
0.0
  0
LINE
  5
1E9
330
1F
100
AcDbEntity
  8
0
  6
Continuous
 62
     7
370
    15
100
AcDbLine
 10
4652.8459506116
 20
2836.0872487366
 30
0.0
 11
4652.799601481
 21
2836.0872487366
 31
0.0
  0
LINE
  5
1EA
330
1F
100
AcDbEntity
  8
0
  6
Continuous
 62
     7
370
    15
100
AcDbLine
 10
4652.8459506116
 20
5836.0872487366
 30
0.0
 11
4652.799601481
 21
5836.0872487366
 31
0.0
  0
LINE
  5
1EB
330
1F
100
AcDbEntity
  8
0
  6
Continuous
 62
     7
370
    15
100
AcDbLine
 10
4671.3064404211
 20
5836.0872487366
 30
0.0
 11
4671.3064404211
 21
2836.0872487366
 31
0.0
  0
LINE
  5
1EC
330
1F
100
AcDbEntity
  8
0
  6
Continuous
 62
     7
370
    15
100
AcDbLine
 10
4671.3064404211
 20
2836.0872487366
 30
0.0
 11
4671.1741600192
 21
2836.0872487366
 31
0.0
  0
LINE
  5
1ED
330
1F
100
AcDbEntity
  8
0
  6
Continuous
 62
     7
370
    15
100
AcDbLine
 10
4671.3064404211
 20
5836.0872487366
 30
0.0
 11
4671.1741600192
 21
5836.0872487366
 31
0.0
  0
LINE
  5
1EE
330
1F
100
AcDbEntity
  8
0
  6
Continuous
 62
     7
370
    15
100
AcDbLine
 10
4652.6673210791
 20
5836.0872487366
 30
0.0
 11
4652.6673210791
 21
2836.0872487366
 31
0.0
  0
LINE
  5
1EF
330
1F
100
AcDbEntity
  8
0
  6
Continuous
 62
     7
370
    15
100
AcDbLine
 10
4652.799601481
 20
2836.0872487366
 30
0.0
 11
4652.6673210791
 21
2836.0872487366
 31
0.0
  0
LINE
  5
1F0
330
1F
100
AcDbEntity
  8
0
  6
Continuous
 62
     7
370
    15
100
AcDbLine
 10
4652.799601481
 20
5836.0872487366
 30
0.0
 11
4652.6673210791
 21
5836.0872487366
 31
0.0
  0
LINE
  5
1F1
330
1F
100
AcDbEntity
  8
0
  6
Continuous
 62
     7
370
    15
100
AcDbLine
 10
4671.461835318
 20
5836.0872487366
 30
0.0
 11
4671.461835318
 21
2836.0872487366
 31
0.0
  0
LINE
  5
1F2
330
1F
100
AcDbEntity
  8
0
  6
Continuous
 62
     7
370
    15
100
AcDbLine
 10
4671.461835318
 20
2836.0872487366
 30
0.0
 11
4671.3064404211
 21
2836.0872487366
 31
0.0
  0
LINE
  5
1F3
330
1F
100
AcDbEntity
  8
0
  6
Continuous
 62
     7
370
    15
100
AcDbLine
 10
4671.461835318
 20
5836.0872487366
 30
0.0
 11
4671.3064404211
 21
5836.0872487366
 31
0.0
  0
LINE
  5
1F4
330
1F
100
AcDbEntity
  8
0
  6
Continuous
 62
     7
370
    15
100
AcDbLine
 10
4652.5119261823
 20
5836.0872487366
 30
0.0
 11
4652.5119261823
 21
2836.0872487366
 31
0.0
  0
LINE
  5
1F5
330
1F
100
AcDbEntity
  8
0
  6
Continuous
 62
     7
370
    15
100
AcDbLine
 10
4652.6673210791
 20
2836.0872487366
 30
0.0
 11
4652.5119261823
 21
2836.0872487366
 31
0.0
  0
LINE
  5
1F6
330
1F
100
AcDbEntity
  8
0
  6
Continuous
 62
     7
370
    15
100
AcDbLine
 10
4652.6673210791
 20
5836.0872487366
 30
0.0
 11
4652.5119261823
 21
5836.0872487366
 31
0.0
  0
LINE
  5
1F7
330
1F
100
AcDbEntity
  8
0
  6
Continuous
 62
     7
370
    15
100
AcDbLine
 10
4671.640186385
 20
5836.0872487366
 30
0.0
 11
4671.640186385
 21
2836.0872487366
 31
0.0
  0
LINE
  5
1F8
330
1F
100
AcDbEntity
  8
0
  6
Continuous
 62
     7
370
    15
100
AcDbLine
 10
4671.640186385
 20
2836.0872487366
 30
0.0
 11
4671.461835318
 21
2836.0872487366
 31
0.0
  0
LINE
  5
1F9
330
1F
100
AcDbEntity
  8
0
  6
Continuous
 62
     7
370
    15
100
AcDbLine
 10
4671.640186385
 20
5836.0872487366
 30
0.0
 11
4671.461835318
 21
5836.0872487366
 31
0.0
  0
LINE
  5
1FA
330
1F
100
AcDbEntity
  8
0
  6
Continuous
 62
     7
370
    15
100
AcDbLine
 10
4652.3335751152
 20
5836.0872487366
 30
0.0
 11
4652.3335751152
 21
2836.0872487366
 31
0.0
  0
LINE
  5
1FB
330
1F
100
AcDbEntity
  8
0
  6
Continuous
 62
     7
370
    15
100
AcDbLine
 10
4652.5119261823
 20
2836.0872487366
 30
0.0
 11
4652.3335751152
 21
2836.0872487366
 31
0.0
  0
LINE
  5
1FC
330
1F
100
AcDbEntity
  8
0
  6
Continuous
 62
     7
370
    15
100
AcDbLine
 10
4652.5119261823
 20
5836.0872487366
 30
0.0
 11
4652.3335751152
 21
5836.0872487366
 31
0.0
  0
LINE
  5
1FD
330
1F
100
AcDbEntity
  8
0
  6
Continuous
 62
     7
370
    15
100
AcDbLine
 10
4671.8413101516
 20
5836.0872487366
 30
0.0
 11
4671.8413101516
 21
2836.0872487366
 31
0.0
  0
LINE
  5
1FE
330
1F
100
AcDbEntity
  8
0
  6
Continuous
 62
     7
370
    15
100
AcDbLine
 10
4671.8413101516
 20
2836.0872487366
 30
0.0
 11
4671.640186385
 21
2836.0872487366
 31
0.0
  0
LINE
  5
1FF
330
1F
100
AcDbEntity
  8
0
  6
Continuous
 62
     7
370
    15
100
AcDbLine
 10
4671.8413101516
 20
5836.0872487366
 30
0.0
 11
4671.640186385
 21
5836.0872487366
 31
0.0
  0
LINE
  5
200
330
1F
100
AcDbEntity
  8
0
  6
Continuous
 62
     7
370
    15
100
AcDbLine
 10
4652.1324513486
 20
5836.0872487366
 30
0.0
 11
4652.1324513486
 21
2836.0872487366
 31
0.0
  0
LINE
  5
201
330
1F
100
AcDbEntity
  8
0
  6
Continuous
 62
     7
370
    15
100
AcDbLine
 10
4652.3335751152
 20
2836.0872487366
 30
0.0
 11
4652.1324513486
 21
2836.0872487366
 31
0.0
  0
LINE
  5
202
330
1F
100
AcDbEntity
  8
0
  6
Continuous
 62
     7
370
    15
100
AcDbLine
 10
4652.3335751152
 20
5836.0872487366
 30
0.0
 11
4652.1324513486
 21
5836.0872487366
 31
0.0
  0
LINE
  5
203
330
1F
100
AcDbEntity
  8
0
  6
Continuous
 62
     7
370
    15
100
AcDbLine
 10
4671.8909170485
 20
5836.0872487366
 30
0.0
 11
4671.8909170485
 21
2836.0872487366
 31
0.0
  0
LINE
  5
204
330
1F
100
AcDbEntity
  8
0
  6
Continuous
 62
     7
370
    15
100
AcDbLine
 10
4671.8909170485
 20
2836.0872487366
 30
0.0
 11
4671.8413101516
 21
2836.0872487366
 31
0.0
  0
LINE
  5
205
330
1F
100
AcDbEntity
  8
0
  6
Continuous
 62
     7
370
    15
100
AcDbLine
 10
4671.8909170485
 20
5836.0872487366
 30
0.0
 11
4671.8413101516
 21
5836.0872487366
 31
0.0
  0
LINE
  5
206
330
1F
100
AcDbEntity
  8
0
  6
Continuous
 62
     7
370
    15
100
AcDbLine
 10
4652.0828444517
 20
5836.0872487366
 30
0.0
 11
4652.0828444517
 21
2836.0872487366
 31
0.0
  0
LINE
  5
207
330
1F
100
AcDbEntity
  8
0
  6
Continuous
 62
     7
370
    15
100
AcDbLine
 10
4652.1324513486
 20
2836.0872487366
 30
0.0
 11
4652.0828444517
 21
2836.0872487366
 31
0.0
  0
LINE
  5
208
330
1F
100
AcDbEntity
  8
0
  6
Continuous
 62
     7
370
    15
100
AcDbLine
 10
4652.1324513486
 20
5836.0872487366
 30
0.0
 11
4652.0828444517
 21
5836.0872487366
 31
0.0
  0
LINE
  5
209
330
1F
100
AcDbEntity
  8
0
  6
Continuous
 62
     7
370
    15
100
AcDbLine
 10
4671.9303399331
 20
5836.0872487366
 30
0.0
 11
4671.9303399331
 21
2836.0872487366
 31
0.0
  0
LINE
  5
20A
330
1F
100
AcDbEntity
  8
0
  6
Continuous
 62
     7
370
    15
100
AcDbLine
 10
4671.9303399331
 20
2836.0872487366
 30
0.0
 11
4671.8909170485
 21
2836.0872487366
 31
0.0
  0
LINE
  5
20B
330
1F
100
AcDbEntity
  8
0
  6
Continuous
 62
     7
370
    15
100
AcDbLine
 10
4671.9303399331
 20
5836.0872487366
 30
0.0
 11
4671.8909170485
 21
5836.0872487366
 31
0.0
  0
LINE
  5
20C
330
1F
100
AcDbEntity
  8
0
  6
Continuous
 62
     7
370
    15
100
AcDbLine
 10
4652.0434215671
 20
5836.0872487366
 30
0.0
 11
4652.0434215671
 21
2836.0872487366
 31
0.0
  0
LINE
  5
20D
330
1F
100
AcDbEntity
  8
0
  6
Continuous
 62
     7
370
    15
100
AcDbLine
 10
4652.0828444517
 20
2836.0872487366
 30
0.0
 11
4652.0434215671
 21
2836.0872487366
 31
0.0
  0
LINE
  5
20E
330
1F
100
AcDbEntity
  8
0
  6
Continuous
 62
     7
370
    15
100
AcDbLine
 10
4652.0828444517
 20
5836.0872487366
 30
0.0
 11
4652.0434215671
 21
5836.0872487366
 31
0.0
  0
LINE
  5
20F
330
1F
100
AcDbEntity
  8
0
  6
Continuous
 62
     7
370
    15
100
AcDbLine
 10
4671.9594558707
 20
5836.0872487366
 30
0.0
 11
4671.9594558707
 21
2836.0872487366
 31
0.0
  0
LINE
  5
210
330
1F
100
AcDbEntity
  8
0
  6
Continuous
 62
     7
370
    15
100
AcDbLine
 10
4671.9594558707
 20
2836.0872487366
 30
0.0
 11
4671.9303399331
 21
2836.0872487366
 31
0.0
  0
LINE
  5
211
330
1F
100
AcDbEntity
  8
0
  6
Continuous
 62
     7
370
    15
100
AcDbLine
 10
4671.9594558707
 20
5836.0872487366
 30
0.0
 11
4671.9303399331
 21
5836.0872487366
 31
0.0
  0
LINE
  5
212
330
1F
100
AcDbEntity
  8
0
  6
Continuous
 62
     7
370
    15
100
AcDbLine
 10
4652.0143056295
 20
5836.0872487366
 30
0.0
 11
4652.0143056295
 21
2836.0872487366
 31
0.0
  0
LINE
  5
213
330
1F
100
AcDbEntity
  8
0
  6
Continuous
 62
     7
370
    15
100
AcDbLine
 10
4652.0434215671
 20
2836.0872487366
 30
0.0
 11
4652.0143056295
 21
2836.0872487366
 31
0.0
  0
LINE
  5
214
330
1F
100
AcDbEntity
  8
0
  6
Continuous
 62
     7
370
    15
100
AcDbLine
 10
4652.0434215671
 20
5836.0872487366
 30
0.0
 11
4652.0143056295
 21
5836.0872487366
 31
0.0
  0
LINE
  5
215
330
1F
100
AcDbEntity
  8
0
  6
Continuous
 62
     7
370
    15
100
AcDbLine
 10
4671.9781763858
 20
5836.0872487366
 30
0.0
 11
4671.9781763858
 21
2836.0872487366
 31
0.0
  0
LINE
  5
216
330
1F
100
AcDbEntity
  8
0
  6
Continuous
 62
     7
370
    15
100
AcDbLine
 10
4671.9781763858
 20
2836.0872487366
 30
0.0
 11
4671.9594558707
 21
2836.0872487366
 31
0.0
  0
LINE
  5
217
330
1F
100
AcDbEntity
  8
0
  6
Continuous
 62
     7
370
    15
100
AcDbLine
 10
4671.9781763858
 20
5836.0872487366
 30
0.0
 11
4671.9594558707
 21
5836.0872487366
 31
0.0
  0
LINE
  5
218
330
1F
100
AcDbEntity
  8
0
  6
Continuous
 62
     7
370
    15
100
AcDbLine
 10
4651.9955851144
 20
5836.0872487366
 30
0.0
 11
4651.9955851144
 21
2836.0872487366
 31
0.0
  0
LINE
  5
219
330
1F
100
AcDbEntity
  8
0
  6
Continuous
 62
     7
370
    15
100
AcDbLine
 10
4652.0143056295
 20
2836.0872487366
 30
0.0
 11
4651.9955851144
 21
2836.0872487366
 31
0.0
  0
LINE
  5
21A
330
1F
100
AcDbEntity
  8
0
  6
Continuous
 62
     7
370
    15
100
AcDbLine
 10
4652.0143056295
 20
5836.0872487366
 30
0.0
 11
4651.9955851144
 21
5836.0872487366
 31
0.0
  0
LINE
  5
21B
330
1F
100
AcDbEntity
  8
0
  6
Continuous
 62
     7
370
    15
100
AcDbLine
 10
4671.986442805
 20
5836.0872487366
 30
0.0
 11
4671.986442805
 21
2836.0872487366
 31
0.0
  0
LINE
  5
21C
330
1F
100
AcDbEntity
  8
0
  6
Continuous
 62
     7
370
    15
100
AcDbLine
 10
4671.986442805
 20
2836.0872487366
 30
0.0
 11
4671.9781763858
 21
2836.0872487366
 31
0.0
  0
LINE
  5
21D
330
1F
100
AcDbEntity
  8
0
  6
Continuous
 62
     7
370
    15
100
AcDbLine
 10
4671.986442805
 20
5836.0872487366
 30
0.0
 11
4671.9781763858
 21
5836.0872487366
 31
0.0
  0
LINE
  5
21E
330
1F
100
AcDbEntity
  8
0
  6
Continuous
 62
     7
370
    15
100
AcDbLine
 10
4651.9873186952
 20
5836.0872487366
 30
0.0
 11
4651.9873186952
 21
2836.0872487366
 31
0.0
  0
LINE
  5
21F
330
1F
100
AcDbEntity
  8
0
  6
Continuous
 62
     7
370
    15
100
AcDbLine
 10
4651.9955851144
 20
2836.0872487366
 30
0.0
 11
4651.9873186952
 21
2836.0872487366
 31
0.0
  0
LINE
  5
220
330
1F
100
AcDbEntity
  8
0
  6
Continuous
 62
     7
370
    15
100
AcDbLine
 10
4651.9955851144
 20
5836.0872487366
 30
0.0
 11
4651.9873186952
 21
5836.0872487366
 31
0.0
  0
ARC
  5
221
330
1F
100
AcDbEntity
  8
0
  6
Continuous
 62
     7
370
    15
100
AcDbCircle
 10
10020.7414439334
 20
3949.4911941485
 30
0.0
 40
4.218382503850957
100
AcDbArc
 50
29.7920753865
 51
32.8957643326
  0
ARC
  5
222
330
1F
100
AcDbEntity
  8
0
  6
Continuous
 62
     7
370
    15
100
AcDbCircle
 10
10020.8486295957
 20
3949.5524698814
 30
0.0
 40
4.094918034064447
100
AcDbArc
 50
26.6276425101
 51
29.7931729485
  0
ARC
  5
223
330
1F
100
AcDbEntity
  8
0
  6
Continuous
 62
     7
370
    15
100
AcDbCircle
 10
10020.9758780698
 20
3949.6161984923
 30
0.0
 40
3.952603220989798
100
AcDbArc
 50
23.3873579356
 51
26.628542888
  0
ARC
  5
224
330
1F
100
AcDbEntity
  8
0
  6
Continuous
 62
     7
370
    15
100
AcDbCircle
 10
10021.1201139947
 20
3949.6784449114
 30
0.0
 40
3.795508971045825
100
AcDbArc
 50
20.0588493055
 51
23.3891904325
  0
ARC
  5
225
330
1F
100
AcDbEntity
  8
0
  6
Continuous
 62
     7
370
    15
100
AcDbCircle
 10
10021.2766269362
 20
3949.7354498646
 30
0.0
 40
3.628938125323875
100
AcDbArc
 50
16.6294816144
 51
20.060973376
  0
ARC
  5
226
330
1F
100
AcDbEntity
  8
0
  6
Continuous
 62
     7
370
    15
100
AcDbCircle
 10
10021.4423554976
 20
3949.7848338423
 30
0.0
 40
3.456008311157698
100
AcDbArc
 50
13.0864589439
 51
16.6313039802
  0
ARC
  5
227
330
1F
100
AcDbEntity
  8
0
  6
Continuous
 62
     7
370
    15
100
AcDbCircle
 10
10021.615404998
 20
3949.8249483979
 30
0.0
 40
3.27837021119159
100
AcDbArc
 50
9.416273186
 51
13.0883691725
  0
ARC
  5
228
330
1F
100
AcDbEntity
  8
0
  6
Continuous
 62
     7
370
    15
100
AcDbCircle
 10
10046.2781554109
 20
3953.9103119877
 30
0.0
 40
21.72045889881051
100
AcDbArc
 50
189.4039763806
 51
191.1350807992
  0
ARC
  5
229
330
1F
100
AcDbEntity
  8
0
  6
Continuous
 62
     7
370
    15
100
AcDbCircle
 10
10046.8242108407
 20
3954.0177459863
 30
0.0
 40
22.27698256808182
100
AcDbArc
 50
191.1349670761
 51
192.8371094879
  0
ARC
  5
22A
330
1F
100
AcDbEntity
  8
0
  6
Continuous
 62
     7
370
    15
100
AcDbCircle
 10
10047.3683205328
 20
3954.1417685976
 30
0.0
 40
22.8350479443727
100
AcDbArc
 50
192.8371908716
 51
194.5114297358
  0
ARC
  5
22B
330
1F
100
AcDbEntity
  8
0
  6
Continuous
 62
     7
370
    15
100
AcDbCircle
 10
10047.9013779821
 20
3954.2797723384
 30
0.0
 40
23.38567965051141
100
AcDbArc
 50
194.511506241
 51
196.159411778
  0
ARC
  5
22C
330
1F
100
AcDbEntity
  8
0
  6
Continuous
 62
     7
370
    15
100
AcDbCircle
 10
10022.1260170608
 20
3946.8107308828
 30
0.0
 40
3.450039305885971
100
AcDbArc
 50
13.3005732875
 51
16.1658432323
  0
ARC
  5
22D
330
1F
100
AcDbEntity
  8
0
  6
Continuous
 62
     7
370
    15
100
AcDbCircle
 10
10022.264766563
 20
3946.8434743563
 30
0.0
 40
3.307478595341298
100
AcDbArc
 50
10.3545453933
 51
13.3015339619
  0
ARC
  5
22E
330
1F
100
AcDbEntity
  8
0
  6
Continuous
 62
     7
370
    15
100
AcDbCircle
 10
10022.4052258945
 20
3946.8691209026
 30
0.0
 40
3.164697052975331
100
AcDbArc
 50
7.319900161
 51
10.3548552351
  0
ARC
  5
22F
330
1F
100
AcDbEntity
  8
0
  6
Continuous
 62
     7
370
    15
100
AcDbCircle
 10
10022.5447017467
 20
3946.8870258294
 30
0.0
 40
3.024076643299812
100
AcDbArc
 50
4.1919577011
 51
7.320117818
  0
ARC
  5
230
330
1F
100
AcDbEntity
  8
0
  6
Continuous
 62
     7
370
    15
100
AcDbCircle
 10
10022.6821402165
 20
3946.8971208006
 30
0.0
 40
2.886267931898529
100
AcDbArc
 50
0.9645235752
 51
4.1915317227
  0
ARC
  5
231
330
1F
100
AcDbEntity
  8
0
  6
Continuous
 62
     7
370
    15
100
AcDbCircle
 10
10022.8151974322
 20
3946.899338443
 30
0.0
 40
2.753192238872183
100
AcDbArc
 50
357.6346021468
 51
0.9649911108
  0
ARC
  5
232
330
1F
100
AcDbEntity
  8
0
  6
Continuous
 62
     7
370
    15
100
AcDbCircle
 10
10022.9407182533
 20
3946.8941666928
 30
0.0
 40
2.627564919649328
100
AcDbArc
 50
354.1987481655
 51
357.6343146664
  0
ARC
  5
233
330
1F
100
AcDbEntity
  8
0
  6
Continuous
 62
     7
370
    15
100
AcDbCircle
 10
10023.0576270065
 20
3946.8823225196
 30
0.0
 40
2.510057729064515
100
AcDbArc
 50
350.656279225
 51
354.1979859063
  0
LINE
  5
234
330
1F
100
AcDbEntity
  8
0
  6
Continuous
 62
     7
370
    15
100
AcDbLine
 10
10025.326004078
 20
3945.2103003397
 30
0.0
 11
10025.5343815753
 21
3946.4747975401
 31
0.0
  0
ARC
  5
235
330
1F
100
AcDbEntity
  8
0
  6
Continuous
 62
     7
370
    15
100
AcDbCircle
 10
10022.9514074694
 20
3945.6011881256
 30
0.0
 40
2.406554033226006
100
AcDbArc
 50
347.3578128176
 51
350.6522416357
  0
ARC
  5
236
330
1F
100
AcDbEntity
  8
0
  6
Continuous
 62
     7
370
    15
100
AcDbCircle
 10
10023.0398302692
 20
3945.5814550504
 30
0.0
 40
2.315956153208952
100
AcDbArc
 50
343.9755229757
 51
347.3553956383
  0
ARC
  5
237
330
1F
100
AcDbEntity
  8
0
  6
Continuous
 62
     7
370
    15
100
AcDbCircle
 10
10023.1193787195
 20
3945.5586605782
 30
0.0
 40
2.233206281488968
100
AcDbArc
 50
340.5107530378
 51
343.9742293165
  0
ARC
  5
238
330
1F
100
AcDbEntity
  8
0
  6
Continuous
 62
     7
370
    15
100
AcDbCircle
 10
10023.1878556722
 20
3945.5344271032
 30
0.0
 40
2.160567762960329
100
AcDbArc
 50
336.9697684784
 51
340.5107274476
  0
ARC
  5
239
330
1F
100
AcDbEntity
  8
0
  6
Continuous
 62
     7
370
    15
100
AcDbCircle
 10
10023.2439257065
 20
3945.5106410527
 30
0.0
 40
2.099661089864002
100
AcDbArc
 50
333.3602051326
 51
336.9685331555
  0
ARC
  5
23A
330
1F
100
AcDbEntity
  8
0
  6
Continuous
 62
     7
370
    15
100
AcDbCircle
 10
10023.2903566008
 20
3945.4874679372
 30
0.0
 40
2.047768799424429
100
AcDbArc
 50
329.6883451879
 51
333.3572516771
  0
ARC
  5
23B
330
1F
100
AcDbEntity
  8
0
  6
Continuous
 62
     7
370
    15
100
AcDbCircle
 10
10023.3269680797
 20
3945.4661531489
 30
0.0
 40
2.005404728252551
100
AcDbArc
 50
325.9652975613
 51
329.6861444873
  0
ARC
  5
23C
330
1F
100
AcDbEntity
  8
0
  6
Continuous
 62
     7
370
    15
100
AcDbCircle
 10
10023.3526734857
 20
3945.4488681718
 30
0.0
 40
1.974428377872369
100
AcDbArc
 50
322.2037714856
 51
325.9634651135
  0
LINE
  5
23D
330
1F
100
AcDbEntity
  8
0
  6
Continuous
 62
     7
370
    15
100
AcDbLine
 10
10023.2735597777
 20
3942.1254971553
 30
0.0
 11
10024.912857619
 21
3944.2388297883
 31
0.0
  0
ARC
  5
23E
330
1F
100
AcDbEntity
  8
0
  6
Continuous
 62
     7
370
    15
100
AcDbCircle
 10
10021.7307364716
 20
3943.3220951056
 30
0.0
 40
1.952472895741459
100
AcDbArc
 50
317.5964478599
 51
322.2032109161
  0
ARC
  5
23F
330
1F
100
AcDbEntity
  8
0
  6
Continuous
 62
     7
370
    15
100
AcDbCircle
 10
10021.7367683342
 20
3943.3166898313
 30
0.0
 40
1.944373851395599
100
AcDbArc
 50
312.9747865737
 51
317.5942010311
  0
ARC
  5
240
330
1F
100
AcDbEntity
  8
0
  6
Continuous
 62
     7
370
    15
100
AcDbCircle
 10
10021.7313855013
 20
3943.3226052549
 30
0.0
 40
1.952371245971005
100
AcDbArc
 50
308.3652787524
 51
312.9720269448
  0
ARC
  5
241
330
1F
100
AcDbEntity
  8
0
  6
Continuous
 62
     7
370
    15
100
AcDbCircle
 10
10021.7165602216
 20
3943.3414671744
 30
0.0
 40
1.976361954872187
100
AcDbArc
 50
303.7933943506
 51
308.3628717748
  0
ARC
  5
242
330
1F
100
AcDbEntity
  8
0
  6
Continuous
 62
     7
370
    15
100
AcDbCircle
 10
10021.6943486032
 20
3943.3747789227
 30
0.0
 40
2.01639973577544
100
AcDbArc
 50
299.2825975301
 51
303.7914321989
  0
ARC
  5
243
330
1F
100
AcDbEntity
  8
0
  6
Continuous
 62
     7
370
    15
100
AcDbCircle
 10
10021.667054315
 20
3943.4235784009
 30
0.0
 40
2.072313629221012
100
AcDbArc
 50
294.8535930145
 51
299.2808801471
  0
ARC
  5
244
330
1F
100
AcDbEntity
  8
0
  6
Continuous
 62
     7
370
    15
100
AcDbCircle
 10
10021.6371771266
 20
3943.488225833
 30
0.0
 40
2.143531135710596
100
AcDbArc
 50
290.5233731965
 51
294.8519551222
  0
ARC
  5
245
330
1F
100
AcDbEntity
  8
0
  6
Continuous
 62
     7
370
    15
100
AcDbCircle
 10
10021.6071758616
 20
3943.5684849999
 30
0.0
 40
2.229214320564163
100
AcDbArc
 50
286.3053106026
 51
290.5223205459
  0
LINE
  5
246
330
1F
100
AcDbEntity
  8
0
  6
Continuous
 62
     7
370
    15
100
AcDbLine
 10
10020.2561735708
 20
3940.85010275
 30
0.0
 11
10022.233040421
 21
3941.4289312987
 31
0.0
  0
ARC
  5
247
330
1F
100
AcDbEntity
  8
0
  6
Continuous
 62
     7
370
    15
100
AcDbCircle
 10
10019.5991184834
 20
3943.0975748027
 30
0.0
 40
2.341549063242853
100
AcDbArc
 50
281.2633399947
 51
286.2964364476
  0
ARC
  5
248
330
1F
100
AcDbEntity
  8
0
  6
Continuous
 62
     7
370
    15
100
AcDbCircle
 10
10019.5713379409
 20
3943.2371600207
 30
0.0
 40
2.483871905064245
100
AcDbArc
 50
276.4239444861
 51
281.2629221437
  0
ARC
  5
249
330
1F
100
AcDbEntity
  8
0
  6
Continuous
 62
     7
370
    15
100
AcDbCircle
 10
10019.5534902185
 20
3943.3954184444
 30
0.0
 40
2.643133542280125
100
AcDbArc
 50
271.7818667821
 51
276.424573979
  0
ARC
  5
24A
330
1F
100
AcDbEntity
  8
0
  6
Continuous
 62
     7
370
    15
100
AcDbCircle
 10
10019.548018322
 20
3943.5692907451
 30
0.0
 40
2.817091913435306
100
AcDbArc
 50
267.3337390658
 51
271.7831438579
  0
LINE
  5
24B
330
1F
100
AcDbEntity
  8
0
  6
Continuous
 62
     7
370
    15
100
AcDbLine
 10
10017.4145010128
 20
3940.8476702086
 30
0.0
 11
10019.4169721685
 21
3940.7552485005
 31
0.0
  0
ARC
  5
24C
330
1F
100
AcDbEntity
  8
0
  6
Continuous
 62
     7
370
    15
100
AcDbCircle
 10
10017.5524963256
 20
3943.8232902048
 30
0.0
 40
2.978818065725548
100
AcDbArc
 50
264.0545964555
 51
267.3447926132
  0
ARC
  5
24D
330
1F
100
AcDbEntity
  8
0
  6
Continuous
 62
     7
370
    15
100
AcDbCircle
 10
10017.5675839667
 20
3943.9690895305
 30
0.0
 40
3.12539593438787
100
AcDbArc
 50
260.8700606296
 51
264.0563475195
  0
ARC
  5
24E
330
1F
100
AcDbEntity
  8
0
  6
Continuous
 62
     7
370
    15
100
AcDbCircle
 10
10017.5912365923
 20
3944.116563837
 30
0.0
 40
3.27475495024051
100
AcDbArc
 50
257.7825480932
 51
260.8708893966
  0
ARC
  5
24F
330
1F
100
AcDbEntity
  8
0
  6
Continuous
 62
     7
370
    15
100
AcDbCircle
 10
10017.6399819673
 20
3944.3328410671
 30
0.0
 40
3.496449940803633
100
AcDbArc
 50
251.8391056311
 51
257.7518680514
  0
ARC
  5
250
330
1F
100
AcDbEntity
  8
0
  6
Continuous
 62
     7
370
    15
100
AcDbCircle
 10
10017.7056988615
 20
3944.5397396658
 30
0.0
 40
3.71352551644384
100
AcDbArc
 50
249.0306604507
 51
251.8706468106
  0
ARC
  5
251
330
1F
100
AcDbEntity
  8
0
  6
Continuous
 62
     7
370
    15
100
AcDbCircle
 10
10017.7543436195
 20
3944.6668534393
 30
0.0
 40
3.849629225302271
100
AcDbArc
 50
246.2588493111
 51
249.0316557946
  0
ARC
  5
252
330
1F
100
AcDbEntity
  8
0
  6
Continuous
 62
     7
370
    15
100
AcDbCircle
 10
10017.8068175065
 20
3944.7862115661
 30
0.0
 40
3.980012778053398
100
AcDbArc
 50
243.5476863073
 51
246.2591516477
  0
LINE
  5
253
330
1F
100
AcDbEntity
  8
0
  6
Continuous
 62
     7
370
    15
100
AcDbLine
 10
10014.0314384355
 20
3942.2189211711
 30
0.0
 11
10016.0339095911
 21
3941.2228845762
 31
0.0
  0
ARC
  5
254
330
1F
100
AcDbEntity
  8
0
  6
Continuous
 62
     7
370
    15
100
AcDbCircle
 10
10015.8633794642
 20
3945.9003453029
 30
0.0
 40
4.112042262728692
100
AcDbArc
 50
240.0864470327
 51
243.5442591704
  0
ARC
  5
255
330
1F
100
AcDbEntity
  8
0
  6
Continuous
 62
     7
370
    15
100
AcDbCircle
 10
10015.9293268652
 20
3946.0153337195
 30
0.0
 40
4.244599282734248
100
AcDbArc
 50
236.7035782844
 51
240.0889048945
  0
ARC
  5
256
330
1F
100
AcDbEntity
  8
0
  6
Continuous
 62
     7
370
    15
100
AcDbCircle
 10
10015.9877738923
 20
3946.1046433872
 30
0.0
 40
4.351333726674304
100
AcDbArc
 50
233.3761056686
 51
236.7058947476
  0
ARC
  5
257
330
1F
100
AcDbEntity
  8
0
  6
Continuous
 62
     7
370
    15
100
AcDbCircle
 10
10016.0346462125
 20
3946.1679973511
 30
0.0
 40
4.430141776159247
100
AcDbArc
 50
230.0882593287
 51
233.3783839398
  0
LINE
  5
258
330
1F
100
AcDbEntity
  8
0
  6
Continuous
 62
     7
370
    15
100
AcDbLine
 10
10011.215370183
 20
3944.4232979893
 30
0.0
 11
10013.1922370331
 21
3942.7699293391
 31
0.0
  0
ARC
  5
259
330
1F
100
AcDbEntity
  8
0
  6
Continuous
 62
     7
370
    15
100
AcDbCircle
 10
10014.0871723052
 20
3947.8568133006
 30
0.0
 40
4.476189766133015
100
AcDbArc
 50
227.4414948968
 51
230.0907918528
  0
ARC
  5
25A
330
1F
100
AcDbEntity
  8
0
  6
Continuous
 62
     7
370
    15
100
AcDbCircle
 10
10014.0993276844
 20
3947.8701200777
 30
0.0
 40
4.494212568686817
100
AcDbArc
 50
224.7999061709
 51
227.4420870254
  0
ARC
  5
25B
330
1F
100
AcDbEntity
  8
0
  6
Continuous
 62
     7
370
    15
100
AcDbCircle
 10
10014.0964697942
 20
3947.8673697824
 30
0.0
 40
4.490246741579715
100
AcDbArc
 50
222.156882339
 51
224.8007002499
  0
ARC
  5
25C
330
1F
100
AcDbEntity
  8
0
  6
Continuous
 62
     7
370
    15
100
AcDbCircle
 10
10014.077938825
 20
3947.8506935005
 30
0.0
 40
4.465317049654843
100
AcDbArc
 50
219.5041922048
 51
222.1578447707
  0
ARC
  5
25D
330
1F
100
AcDbEntity
  8
0
  6
Continuous
 62
     7
370
    15
100
AcDbCircle
 10
10014.0427561051
 20
3947.8217603017
 30
0.0
 40
4.41976542486255
100
AcDbArc
 50
216.8331024258
 51
219.5049275911
  0
ARC
  5
25E
330
1F
100
AcDbEntity
  8
0
  6
Continuous
 62
     7
370
    15
100
AcDbCircle
 10
10013.9899857475
 20
3947.782325883
 30
0.0
 40
4.353888428083282
100
AcDbArc
 50
214.1353091804
 51
216.8340548378
  0
ARC
  5
25F
330
1F
100
AcDbEntity
  8
0
  6
Continuous
 62
     7
370
    15
100
AcDbCircle
 10
10013.9202433414
 20
3947.7351163351
 30
0.0
 40
4.269670015784089
100
AcDbArc
 50
211.4020250159
 51
214.1361124437
  0
ARC
  5
260
330
1F
100
AcDbEntity
  8
0
  6
Continuous
 62
     7
370
    15
100
AcDbCircle
 10
10013.8331057379
 20
3947.6820172967
 30
0.0
 40
4.16762853793661
100
AcDbArc
 50
208.6244592682
 51
211.4031304863
  0
LINE
  5
261
330
1F
100
AcDbEntity
  8
0
  6
Continuous
 62
     7
370
    15
100
AcDbLine
 10
10008.535552985
 20
3948.6898300651
 30
0.0
 11
10010.1748508263
 21
3945.6854455769
 31
0.0
  0
ARC
  5
262
330
1F
100
AcDbEntity
  8
0
  6
Continuous
 62
     7
370
    15
100
AcDbCircle
 10
10012.102568401
 20
3950.636473884
 30
0.0
 40
4.06362167727456
100
AcDbArc
 50
206.2993462755
 51
208.6228259142
  0
ARC
  5
263
330
1F
100
AcDbEntity
  8
0
  6
Continuous
 62
     7
370
    15
100
AcDbCircle
 10
10012.0083276143
 20
3950.5898997017
 30
0.0
 40
3.958500412399901
100
AcDbArc
 50
203.9348723178
 51
206.2993615555
  0
ARC
  5
264
330
1F
100
AcDbEntity
  8
0
  6
Continuous
 62
     7
370
    15
100
AcDbCircle
 10
10011.9059794848
 20
3950.5444732584
 30
0.0
 40
3.846524069545353
100
AcDbArc
 50
201.5248412859
 51
203.9349070392
  0
ARC
  5
265
330
1F
100
AcDbEntity
  8
0
  6
Continuous
 62
     7
370
    15
100
AcDbCircle
 10
10011.7956182259
 20
3950.5009166152
 30
0.0
 40
3.727878429530271
100
AcDbArc
 50
199.0635161057
 51
201.5244280151
  0
ARC
  5
266
330
1F
100
AcDbEntity
  8
0
  6
Continuous
 62
     7
370
    15
100
AcDbCircle
 10
10011.6768676355
 20
3950.4599033956
 30
0.0
 40
3.602244889411065
100
AcDbArc
 50
196.5455792884
 51
199.063864796
  0
ARC
  5
267
330
1F
100
AcDbEntity
  8
0
  6
Continuous
 62
     7
370
    15
100
AcDbCircle
 10
10011.5560621795
 20
3950.424070893
 30
0.0
 40
3.476237257006991
100
AcDbArc
 50
193.9678941326
 51
196.5464682155
  0
ARC
  5
268
330
1F
100
AcDbEntity
  8
0
  6
Continuous
 62
     7
370
    15
100
AcDbCircle
 10
10011.432713208
 20
3950.3933766398
 30
0.0
 40
3.349126652496438
100
AcDbArc
 50
191.3247140891
 51
193.9676732284
  0
ARC
  5
269
330
1F
100
AcDbEntity
  8
0
  6
Continuous
 62
     7
370
    15
100
AcDbCircle
 10
10011.3059527523
 20
3950.3679197976
 30
0.0
 40
3.21983528027536
100
AcDbArc
 50
188.6102817596
 51
191.3234798317
  0
LINE
  5
26A
330
1F
100
AcDbEntity
  8
0
  6
Continuous
 62
     7
370
    15
100
AcDbLine
 10
10007.9140290287
 20
3951.2636317041
 30
0.0
 11
10008.122406526
 21
3949.8858693262
 31
0.0
  0
ARC
  5
26B
330
1F
100
AcDbEntity
  8
0
  6
Continuous
 62
     7
370
    15
100
AcDbCircle
 10
10010.9630519596
 20
3951.7253839887
 30
0.0
 40
3.08378922850454
100
AcDbArc
 50
185.5241045176
 51
188.611590495
  0
ARC
  5
26C
330
1F
100
AcDbEntity
  8
0
  6
Continuous
 62
     7
370
    15
100
AcDbCircle
 10
10010.8236405746
 20
3951.7118892473
 30
0.0
 40
2.943726234917065
100
AcDbArc
 50
182.3389571289
 51
185.5238767864
  0
ARC
  5
26D
330
1F
100
AcDbEntity
  8
0
  6
Continuous
 62
     7
370
    15
100
AcDbCircle
 10
10010.6884276473
 20
3951.7063626499
 30
0.0
 40
2.808400409744373
100
AcDbArc
 50
179.0522862607
 51
182.3388796881
  0
ARC
  5
26E
330
1F
100
AcDbEntity
  8
0
  6
Continuous
 62
     7
370
    15
100
AcDbCircle
 10
10010.5600196611
 20
3951.7085048704
 30
0.0
 40
2.679974556834848
100
AcDbArc
 50
175.662098641
 51
179.0526724359
  0
ARC
  5
26F
330
1F
100
AcDbEntity
  8
0
  6
Continuous
 62
     7
370
    15
100
AcDbCircle
 10
10010.4388617207
 20
3951.7176581099
 30
0.0
 40
2.558471359872628
100
AcDbArc
 50
172.1642083362
 51
175.661266267
  0
ARC
  5
270
330
1F
100
AcDbEntity
  8
0
  6
Continuous
 62
     7
370
    15
100
AcDbCircle
 10
10010.3265207523
 20
3951.7331005912
 30
0.0
 40
2.445073991791913
100
AcDbArc
 50
168.5592169368
 51
172.1637947131
  0
ARC
  5
271
330
1F
100
AcDbEntity
  8
0
  6
Continuous
 62
     7
370
    15
100
AcDbCircle
 10
10010.2252173638
 20
3951.7535761882
 30
0.0
 40
2.341722040039985
100
AcDbArc
 50
164.848681386
 51
168.5585982402
  0
ARC
  5
272
330
1F
100
AcDbEntity
  8
0
  6
Continuous
 62
     7
370
    15
100
AcDbCircle
 10
10010.1356528405
 20
3951.7778247439
 30
0.0
 40
2.248933052169387
100
AcDbArc
 50
161.0372450326
 51
164.8485857357
  0
ARC
  5
273
330
1F
100
AcDbEntity
  8
0
  6
Continuous
 62
     7
370
    15
100
AcDbCircle
 10
9993.8331475359
 20
3957.3816796734
 30
0.0
 40
14.98982763376345
100
AcDbArc
 50
341.0289185299
 51
343.2456196036
  0
ARC
  5
274
330
1F
100
AcDbEntity
  8
0
  6
Continuous
 62
     7
370
    15
100
AcDbCircle
 10
9993.5040417825
 20
3957.4806539387
 30
0.0
 40
15.33349388563683
100
AcDbArc
 50
343.245987297
 51
345.4293705026
  0
ARC
  5
275
330
1F
100
AcDbEntity
  8
0
  6
Continuous
 62
     7
370
    15
100
AcDbCircle
 10
9993.1500436627
 20
3957.5725710431
 30
0.0
 40
15.69923069535811
100
AcDbArc
 50
345.4297193051
 51
347.5791255693
  0
ARC
  5
276
330
1F
100
AcDbEntity
  8
0
  6
Continuous
 62
     7
370
    15
100
AcDbCircle
 10
9992.7681348168
 20
3957.6566620103
 30
0.0
 40
16.09028779709479
100
AcDbArc
 50
347.5792056085
 51
349.6936448107
  0
ARC
  5
277
330
1F
100
AcDbEntity
  8
0
  6
Continuous
 62
     7
370
    15
100
AcDbCircle
 10
10010.9211691122
 20
3954.3563080504
 30
0.0
 40
2.360321773983356
100
AcDbArc
 50
165.1387146948
 51
169.7101608541
  0
ARC
  5
278
330
1F
100
AcDbEntity
  8
0
  6
Continuous
 62
     7
370
    15
100
AcDbCircle
 10
10010.8097459122
 20
3954.385872815
 30
0.0
 40
2.24504296068275
100
AcDbArc
 50
160.4123437941
 51
165.1386640712
  0
ARC
  5
279
330
1F
100
AcDbEntity
  8
0
  6
Continuous
 62
     7
370
    15
100
AcDbCircle
 10
10010.7167905813
 20
3954.4189286021
 30
0.0
 40
2.146385076152164
100
AcDbArc
 50
155.5414382191
 51
160.411801739
  0
ARC
  5
27A
330
1F
100
AcDbEntity
  8
0
  6
Continuous
 62
     7
370
    15
100
AcDbCircle
 10
10010.6443160315
 20
3954.4518534092
 30
0.0
 40
2.066782300584284
100
AcDbArc
 50
150.5458537237
 51
155.5404170595
  0
ARC
  5
27B
330
1F
100
AcDbEntity
  8
0
  6
Continuous
 62
     7
370
    15
100
AcDbCircle
 10
10010.5922061347
 20
3954.4812004335
 30
0.0
 40
2.006976915043569
100
AcDbArc
 50
145.4509475337
 51
150.5438573695
  0
ARC
  5
27C
330
1F
100
AcDbEntity
  8
0
  6
Continuous
 62
     7
370
    15
100
AcDbCircle
 10
10010.5591151025
 20
3954.5038270969
 30
0.0
 40
1.966889946431414
100
AcDbArc
 50
140.2854414951
 51
145.4471588473
  0
ARC
  5
27D
330
1F
100
AcDbEntity
  8
0
  6
Continuous
 62
     7
370
    15
100
AcDbCircle
 10
10010.5434262346
 20
3954.5166881859
 30
0.0
 40
1.946603725872778
100
AcDbArc
 50
135.0837283593
 51
140.2815744242
  0
ARC
  5
27E
330
1F
100
AcDbEntity
  8
0
  6
Continuous
 62
     7
370
    15
100
AcDbCircle
 10
10010.5436558495
 20
3954.5163226484
 30
0.0
 40
1.947024423670011
100
AcDbArc
 50
129.8836130857
 51
135.0808819474
  0
ARC
  5
27F
330
1F
100
AcDbEntity
  8
0
  6
Continuous
 62
     7
370
    15
100
AcDbCircle
 10
10021.3943760795
 20
3941.5330357868
 30
0.0
 40
18.86754058409711
100
AcDbArc
 50
128.5166787318
 51
129.8866778261
  0
ARC
  5
280
330
1F
100
AcDbEntity
  8
0
  6
Continuous
 62
     7
370
    15
100
AcDbCircle
 10
10021.4369457173
 20
3941.4795634388
 30
0.0
 40
18.9358887076751
100
AcDbArc
 50
127.1478930646
 51
128.5167033325
  0
ARC
  5
281
330
1F
100
AcDbEntity
  8
0
  6
Continuous
 62
     7
370
    15
100
AcDbCircle
 10
10021.4870513965
 20
3941.4133985193
 30
0.0
 40
19.01888494481841
100
AcDbArc
 50
125.7830468854
 51
127.1478415517
  0
ARC
  5
282
330
1F
100
AcDbEntity
  8
0
  6
Continuous
 62
     7
370
    15
100
AcDbCircle
 10
10021.5428711632
 20
3941.3358888079
 30
0.0
 40
19.11440248379235
100
AcDbArc
 50
124.4226908093
 51
125.7829322456
  0
ARC
  5
283
330
1F
100
AcDbEntity
  8
0
  6
Continuous
 62
     7
370
    15
100
AcDbCircle
 10
10021.6034877694
 20
3941.247424486
 30
0.0
 40
19.22164197817473
100
AcDbArc
 50
123.0674481185
 51
124.4226719918
  0
ARC
  5
284
330
1F
100
AcDbEntity
  8
0
  6
Continuous
 62
     7
370
    15
100
AcDbCircle
 10
10021.6707059198
 20
3941.1442014482
 30
0.0
 40
19.34482182707867
100
AcDbArc
 50
121.7180215526
 51
123.0674765
  0
ARC
  5
285
330
1F
100
AcDbEntity
  8
0
  6
Continuous
 62
     7
370
    15
100
AcDbCircle
 10
10021.7442238775
 20
3941.0251813138
 30
0.0
 40
19.48471707806861
100
AcDbArc
 50
120.3750087126
 51
121.7179162416
  0
ARC
  5
286
330
1F
100
AcDbEntity
  8
0
  6
Continuous
 62
     7
370
    15
100
AcDbCircle
 10
10021.8155226876
 20
3940.9035829391
 30
0.0
 40
19.62567694617302
100
AcDbArc
 50
119.0384111156
 51
120.3750811115
  0
ARC
  5
287
330
1F
100
AcDbEntity
  8
0
  6
Continuous
 62
     7
370
    15
100
AcDbCircle
 10
10013.2972909582
 20
3956.2457938212
 30
0.0
 40
2.077352095853431
100
AcDbArc
 50
114.3662667572
 51
119.0274474564
  0
ARC
  5
288
330
1F
100
AcDbEntity
  8
0
  6
Continuous
 62
     7
370
    15
100
AcDbCircle
 10
10013.3288698841
 20
3956.1760096582
 30
0.0
 40
2.153948815020928
100
AcDbArc
 50
109.8155338718
 51
114.3656113719
  0
ARC
  5
289
330
1F
100
AcDbEntity
  8
0
  6
Continuous
 62
     7
370
    15
100
AcDbCircle
 10
10013.3605697676
 20
3956.0879373532
 30
0.0
 40
2.247552300403616
100
AcDbArc
 50
105.3922857061
 51
109.8146927153
  0
ARC
  5
28A
330
1F
100
AcDbEntity
  8
0
  6
Continuous
 62
     7
370
    15
100
AcDbCircle
 10
10013.3891456062
 20
3955.9840731683
 30
0.0
 40
2.355275775842852
100
AcDbArc
 50
101.1050464143
 51
105.3918616651
  0
ARC
  5
28B
330
1F
100
AcDbEntity
  8
0
  6
Continuous
 62
     7
370
    15
100
AcDbCircle
 10
10013.4128810139
 20
3955.8630775969
 30
0.0
 40
2.47857742904379
100
AcDbArc
 50
96.9618539089
 51
101.1047277808
  0
ARC
  5
28C
330
1F
100
AcDbEntity
  8
0
  6
Continuous
 62
     7
370
    15
100
AcDbCircle
 10
10013.4291763495
 20
3955.7292766807
 30
0.0
 40
2.613366974035104
100
AcDbArc
 50
92.9616855953
 51
96.9609195535
  0
ARC
  5
28D
330
1F
100
AcDbEntity
  8
0
  6
Continuous
 62
     7
370
    15
100
AcDbCircle
 10
10013.4367121084
 20
3955.5836049651
 30
0.0
 40
2.75923347590827
100
AcDbArc
 50
89.104697928
 51
92.9616670239
  0
ARC
  5
28E
330
1F
100
AcDbEntity
  8
0
  6
Continuous
 62
     7
370
    15
100
AcDbCircle
 10
10013.4342897281
 20
3955.4292946245
 30
0.0
 40
2.913562828381317
100
AcDbArc
 50
85.3848688431
 51
89.104482906
  0
LINE
  5
28F
330
1F
100
AcDbEntity
  8
0
  6
Continuous
 62
     7
370
    15
100
AcDbLine
 10
10014.6540922729
 20
3958.2541582844
 30
0.0
 11
10013.6687212847
 21
3958.3334107035
 31
0.0
  0
ARC
  5
290
330
1F
100
AcDbEntity
  8
0
  6
Continuous
 62
     7
370
    15
100
AcDbCircle
 10
10014.8911156504
 20
3961.1984264673
 30
0.0
 40
2.953793360054199
100
AcDbArc
 50
265.3974249002
 51
266.924465037
  0
ARC
  5
291
330
1F
100
AcDbEntity
  8
0
  6
Continuous
 62
     7
370
    15
100
AcDbCircle
 10
10014.8880163104
 20
3961.1385583356
 30
0.0
 40
2.89384517342937
100
AcDbArc
 50
266.9221446661
 51
268.4692039231
  0
LINE
  5
292
330
1F
100
AcDbEntity
  8
0
  6
Continuous
 62
     7
370
    15
100
AcDbLine
 10
10015.9778084839
 20
3958.2146207666
 30
0.0
 11
10014.8107093976
 21
3958.2457459447
 31
0.0
  0
ARC
  5
293
330
1F
100
AcDbEntity
  8
0
  6
Continuous
 62
     7
370
    15
100
AcDbCircle
 10
10015.8986173845
 20
3955.2766821135
 30
0.0
 40
2.939005743376701
100
AcDbArc
 50
84.861548903
 51
88.4559863488
  0
ARC
  5
294
330
1F
100
AcDbEntity
  8
0
  6
Continuous
 62
     7
370
    15
100
AcDbCircle
 10
10015.8846496564
 20
3955.1210600584
 30
0.0
 40
3.095253369961924
100
AcDbArc
 50
81.389268123
 51
84.8620364787
  0
ARC
  5
295
330
1F
100
AcDbEntity
  8
0
  6
Continuous
 62
     7
370
    15
100
AcDbCircle
 10
10015.860738993
 20
3954.9626220633
 30
0.0
 40
3.255485426623075
100
AcDbArc
 50
78.0327692575
 51
81.3906808815
  0
ARC
  5
296
330
1F
100
AcDbEntity
  8
0
  6
Continuous
 62
     7
370
    15
100
AcDbCircle
 10
10015.8086424663
 20
3954.7273592803
 30
0.0
 40
3.49643810257556
100
AcDbArc
 50
71.5939609359
 51
77.997012747
  0
ARC
  5
297
330
1F
100
AcDbEntity
  8
0
  6
Continuous
 62
     7
370
    15
100
AcDbCircle
 10
10015.7367556111
 20
3954.5037270402
 30
0.0
 40
3.731328908757056
100
AcDbArc
 50
68.5652458818
 51
71.6308497583
  0
ARC
  5
298
330
1F
100
AcDbEntity
  8
0
  6
Continuous
 62
     7
370
    15
100
AcDbCircle
 10
10015.683024184
 20
3954.3668548364
 30
0.0
 40
3.878369945258654
100
AcDbArc
 50
65.5777432062
 51
68.5653008841
  0
ARC
  5
299
330
1F
100
AcDbEntity
  8
0
  6
Continuous
 62
     7
370
    15
100
AcDbCircle
 10
10015.6271162965
 20
3954.2435860936
 30
0.0
 40
4.013724558177093
100
AcDbArc
 50
62.6583401105
 51
65.5786145948
  0
LINE
  5
29A
330
1F
100
AcDbEntity
  8
0
  6
Continuous
 62
     7
370
    15
100
AcDbLine
 10
10018.6377012064
 20
3957.2056515735
 30
0.0
 11
10017.4706021201
 21
3957.808911443
 31
0.0
  0
ARC
  5
29B
330
1F
100
AcDbEntity
  8
0
  6
Continuous
 62
     7
370
    15
100
AcDbCircle
 10
10020.4976755613
 20
3960.8038771421
 30
0.0
 40
4.050522416031324
100
AcDbArc
 50
242.6649096552
 51
243.9012770456
  0
ARC
  5
29C
330
1F
100
AcDbEntity
  8
0
  6
Continuous
 62
     7
370
    15
100
AcDbCircle
 10
10020.4747835307
 20
3960.7571079984
 30
0.0
 40
3.998451334011248
100
AcDbArc
 50
243.9010371289
 51
245.147795697
  0
LINE
  5
29D
330
1F
100
AcDbEntity
  8
0
  6
Continuous
 62
     7
370
    15
100
AcDbLine
 10
10019.7796893193
 20
3956.6725813322
 30
0.0
 11
10018.7943183311
 21
3957.1289335561
 31
0.0
  0
ARC
  5
29E
330
1F
100
AcDbEntity
  8
0
  6
Continuous
 62
     7
370
    15
100
AcDbCircle
 10
10018.0827932591
 20
3953.01008847
 30
0.0
 40
4.036497269222821
100
AcDbArc
 50
62.1482715022
 51
65.1408976628
  0
ARC
  5
29F
330
1F
100
AcDbEntity
  8
0
  6
Continuous
 62
     7
370
    15
100
AcDbCircle
 10
10018.02542039
 20
3952.9014426127
 30
0.0
 40
4.159361289605775
100
AcDbArc
 50
59.2149064095
 51
62.1486978905
  0
ARC
  5
2A0
330
1F
100
AcDbEntity
  8
0
  6
Continuous
 62
     7
370
    15
100
AcDbCircle
 10
10017.9699879273
 20
3952.8082456046
 30
0.0
 40
4.267797603866008
100
AcDbArc
 50
56.3322256324
 51
59.2159587951
  0
ARC
  5
2A1
330
1F
100
AcDbEntity
  8
0
  6
Continuous
 62
     7
370
    15
100
AcDbCircle
 10
10017.9205269597
 20
3952.7339399283
 30
0.0
 40
4.357059690072083
100
AcDbArc
 50
53.4884574231
 51
56.3326021156
  0
ARC
  5
2A2
330
1F
100
AcDbEntity
  8
0
  6
Continuous
 62
     7
370
    15
100
AcDbCircle
 10
10017.8811067492
 20
3952.6805540951
 30
0.0
 40
4.423422283699067
100
AcDbArc
 50
50.6735059687
 51
53.4894971791
  0
ARC
  5
2A3
330
1F
100
AcDbEntity
  8
0
  6
Continuous
 62
     7
370
    15
100
AcDbCircle
 10
10017.8513142655
 20
3952.6440276333
 30
0.0
 40
4.470557876848257
100
AcDbArc
 50
47.8789402787
 51
50.6748175357
  0
ARC
  5
2A4
330
1F
100
AcDbEntity
  8
0
  6
Continuous
 62
     7
370
    15
100
AcDbCircle
 10
10017.8356913143
 20
3952.6267208687
 30
0.0
 40
4.493873114766567
100
AcDbArc
 50
45.0931517446
 51
47.8791905964
  0
ARC
  5
2A5
330
1F
100
AcDbEntity
  8
0
  6
Continuous
 62
     7
370
    15
100
AcDbCircle
 10
10017.8364740139
 20
3952.6274846094
 30
0.0
 40
4.492779639586224
100
AcDbArc
 50
42.3068845864
 51
45.0933453807
  0
ARC
  5
2A6
330
1F
100
AcDbEntity
  8
0
  6
Continuous
 62
     7
370
    15
100
AcDbCircle
 10
9989.2348524976
 20
3926.5969687497
 30
0.0
 40
43.16629136534546
100
AcDbArc
 50
41.5154483766
 51
42.305667165
  0
ARC
  5
2A7
330
1F
100
AcDbEntity
  8
0
  6
Continuous
 62
     7
370
    15
100
AcDbCircle
 10
9989.3125914611
 20
3926.6656287376
 30
0.0
 40
43.06257286700775
100
AcDbArc
 50
40.7240102568
 51
41.5156028106
  0
ARC
  5
2A8
330
1F
100
AcDbEntity
  8
0
  6
Continuous
 62
     7
370
    15
100
AcDbCircle
 10
9989.3835298863
 20
3926.726537864
 30
0.0
 40
42.96907330963138
100
AcDbArc
 50
39.9314969052
 51
40.7241712212
  0
ARC
  5
2A9
330
1F
100
AcDbEntity
  8
0
  6
Continuous
 62
     7
370
    15
100
AcDbCircle
 10
9989.4764347041
 20
3926.8042277479
 30
0.0
 40
42.84796583786297
100
AcDbArc
 50
39.1374153061
 51
39.9315762878
  0
ARC
  5
2AA
330
1F
100
AcDbEntity
  8
0
  6
Continuous
 62
     7
370
    15
100
AcDbCircle
 10
9989.5851579855
 20
3926.8926961647
 30
0.0
 40
42.70779660927544
100
AcDbArc
 50
38.3415214462
 51
39.1374221207
  0
ARC
  5
2AB
330
1F
100
AcDbEntity
  8
0
  6
Continuous
 62
     7
370
    15
100
AcDbCircle
 10
9989.7062053417
 20
3926.9883961474
 30
0.0
 40
42.5534886439964
100
AcDbArc
 50
37.5437568325
 51
38.3415636612
  0
ARC
  5
2AC
330
1F
100
AcDbEntity
  8
0
  6
Continuous
 62
     7
370
    15
100
AcDbCircle
 10
9989.840381579
 20
3927.0915124469
 30
0.0
 40
42.38426620497239
100
AcDbArc
 50
36.7438630708
 51
37.5437607428
  0
ARC
  5
2AD
330
1F
100
AcDbEntity
  8
0
  6
Continuous
 62
     7
370
    15
100
AcDbCircle
 10
9989.9955578839
 20
3927.2074794726
 30
0.0
 40
42.19054468369454
100
AcDbArc
 50
35.9426159457
 51
36.7437354568
  0
ARC
  5
2AE
330
1F
100
AcDbEntity
  8
0
  6
Continuous
 62
     7
370
    15
100
AcDbCircle
 10
10020.6539254436
 20
3949.434735157
 30
0.0
 40
4.322531859457596
100
AcDbArc
 50
32.8940939531
 51
35.9476843798
  0
LINE
  5
2AF
330
1F
100
AcDbEntity
  8
0
  6
Continuous
 62
     7
370
    15
100
AcDbLine
 10
11421.245276981
 20
5322.1786012056
 30
0.0
 11
10021.1591101908
 21
3955.6515807928
 31
0.0
  0
ARC
  5
2B0
330
1F
100
AcDbEntity
  8
0
  6
Continuous
 62
     7
370
    15
100
AcDbCircle
 10
11389.3210193215
 20
5293.1239891927
 30
0.0
 40
43.16629132007831
100
AcDbArc
 50
41.5154483763
 51
42.3056671655
  0
LINE
  5
2B1
330
1F
100
AcDbEntity
  8
0
  6
Continuous
 62
     7
370
    15
100
AcDbLine
 10
11421.6429469315
 20
5321.7355550691
 30
0.0
 11
10021.5567801414
 21
3955.2085346563
 31
0.0
  0
ARC
  5
2B2
330
1F
100
AcDbEntity
  8
0
  6
Continuous
 62
     7
370
    15
100
AcDbCircle
 10
11389.3987582487
 20
5293.1926491482
 30
0.0
 40
43.06257287043679
100
AcDbArc
 50
40.7240102569
 51
41.5156028106
  0
LINE
  5
2B3
330
1F
100
AcDbEntity
  8
0
  6
Continuous
 62
     7
370
    15
100
AcDbLine
 10
11422.0342028972
 20
5321.2873627936
 30
0.0
 11
10021.948036107
 21
3954.7603423808
 31
0.0
  0
ARC
  5
2B4
330
1F
100
AcDbEntity
  8
0
  6
Continuous
 62
     7
370
    15
100
AcDbCircle
 10
11389.4696966609
 20
5293.2535582636
 30
0.0
 40
42.96907333000591
100
AcDbArc
 50
39.9314969054
 51
40.7241712209
  0
LINE
  5
2B5
330
1F
100
AcDbEntity
  8
0
  6
Continuous
 62
     7
370
    15
100
AcDbLine
 10
11422.4189155603
 20
5320.8341716861
 30
0.0
 11
10022.3327487701
 21
3954.3071512733
 31
0.0
  0
ARC
  5
2B6
330
1F
100
AcDbEntity
  8
0
  6
Continuous
 62
     7
370
    15
100
AcDbCircle
 10
11389.5626014831
 20
5293.3312481515
 30
0.0
 40
42.84796585241696
100
AcDbArc
 50
39.1374153062
 51
39.9315762877
  0
LINE
  5
2B7
330
1F
100
AcDbEntity
  8
0
  6
Continuous
 62
     7
370
    15
100
AcDbLine
 10
11422.7969576626
 20
5320.3761320858
 30
0.0
 11
10022.7107908724
 21
3953.849111673
 31
0.0
  0
LINE
  5
2B8
330
1F
100
AcDbEntity
  8
0
  6
Continuous
 62
     7
370
    15
100
AcDbLine
 10
11421.0943358252
 20
5322.336551468
 30
0.0
 11
10021.0081690351
 21
3955.8095310552
 31
0.0
  0
ARC
  5
2B9
330
1F
100
AcDbEntity
  8
0
  6
Continuous
 62
     7
370
    15
100
AcDbCircle
 10
11417.9226408061
 20
5319.1545050242
 30
0.0
 40
4.492779636795531
100
AcDbArc
 50
42.3068845852
 51
45.0933453812
  0
LINE
  5
2BA
330
1F
100
AcDbEntity
  8
0
  6
Continuous
 62
     7
370
    15
100
AcDbLine
 10
11420.9358810737
 20
5322.4869921141
 30
0.0
 11
10020.8497142835
 21
3955.9599717013
 31
0.0
  0
ARC
  5
2BB
330
1F
100
AcDbEntity
  8
0
  6
Continuous
 62
     7
370
    15
100
AcDbCircle
 10
11417.9218581051
 20
5319.1537412821
 30
0.0
 40
4.493873113959433
100
AcDbArc
 50
45.0931517444
 51
47.8791905966
  0
LINE
  5
2BC
330
1F
100
AcDbEntity
  8
0
  6
Continuous
 62
     7
370
    15
100
AcDbLine
 10
11420.7705671389
 20
5322.6293006359
 30
0.0
 11
10020.6844003487
 21
3956.1022802231
 31
0.0
  0
ARC
  5
2BD
330
1F
100
AcDbEntity
  8
0
  6
Continuous
 62
     7
370
    15
100
AcDbCircle
 10
11417.9374810545
 20
5319.1710480448
 30
0.0
 40
4.470557878536199
100
AcDbArc
 50
47.8789402792
 51
50.6748175351
  0
ARC
  5
2BE
330
1F
100
AcDbEntity
  8
0
  6
Continuous
 62
     7
370
    15
100
AcDbCircle
 10
11389.6713247605
 20
5293.4197165654
 30
0.0
 40
42.70779662872187
100
AcDbArc
 50
38.3415214464
 51
39.1374221205
  0
LINE
  5
2BF
330
1F
100
AcDbEntity
  8
0
  6
Continuous
 62
     7
370
    15
100
AcDbLine
 10
11423.1682035931
 20
5319.9133950822
 30
0.0
 11
10023.0820368029
 21
3953.3863746694
 31
0.0
  0
LINE
  5
2C0
330
1F
100
AcDbEntity
  8
0
  6
Continuous
 62
     7
370
    15
100
AcDbLine
 10
11420.5990776741
 20
5322.7628904849
 30
0.0
 11
10020.5129108839
 21
3956.2358700721
 31
0.0
  0
ARC
  5
2C1
330
1F
100
AcDbEntity
  8
0
  6
Continuous
 62
     7
370
    15
100
AcDbCircle
 10
11417.9672735405
 20
5319.2075745093
 30
0.0
 40
4.423422281927381
100
AcDbArc
 50
50.6735059682
 51
53.4894971797
  0
LINE
  5
2C2
330
1F
100
AcDbEntity
  8
0
  6
Continuous
 62
     7
370
    15
100
AcDbLine
 10
11420.4221210429
 20
5322.8872091102
 30
0.0
 11
10020.3359542527
 21
3956.3601886974
 31
0.0
  0
ARC
  5
2C3
330
1F
100
AcDbEntity
  8
0
  6
Continuous
 62
     7
370
    15
100
AcDbCircle
 10
11418.0066937525
 20
5319.2609603448
 30
0.0
 40
4.357059685595255
100
AcDbArc
 50
53.4884574219
 51
56.3326021173
  0
ARC
  5
2C4
330
1F
100
AcDbEntity
  8
0
  6
Continuous
 62
     7
370
    15
100
AcDbCircle
 10
11389.7923721369
 20
5293.5154165641
 30
0.0
 40
42.55348863758613
100
AcDbArc
 50
37.5437568324
 51
38.3415636613
  0
LINE
  5
2C5
330
1F
100
AcDbEntity
  8
0
  6
Continuous
 62
     7
370
    15
100
AcDbLine
 10
11423.5325310355
 20
5319.4461140621
 30
0.0
 11
10023.4463642453
 21
3952.9190936493
 31
0.0
  0
LINE
  5
2C6
330
1F
100
AcDbEntity
  8
0
  6
Continuous
 62
     7
370
    15
100
AcDbLine
 10
11420.2404288777
 20
5323.0017415431
 30
0.0
 11
10020.1542620875
 21
3956.4747211303
 31
0.0
  0
ARC
  5
2C7
330
1F
100
AcDbEntity
  8
0
  6
Continuous
 62
     7
370
    15
100
AcDbCircle
 10
11418.056154718
 20
5319.3352660183
 30
0.0
 40
4.26779760279446
100
AcDbArc
 50
56.3322256318
 51
59.2159587952
  0
ARC
  5
2C8
330
1F
100
AcDbEntity
  8
0
  6
Continuous
 62
     7
370
    15
100
AcDbCircle
 10
11389.9265483981
 20
5293.6185328816
 30
0.0
 40
42.38426616868148
100
AcDbArc
 50
36.7438630705
 51
37.5437607432
  0
LINE
  5
2C9
330
1F
100
AcDbEntity
  8
0
  6
Continuous
 62
     7
370
    15
100
AcDbLine
 10
11423.8898193209
 20
5318.9744443597
 30
0.0
 11
10023.8036525307
 21
3952.4474239468
 31
0.0
  0
LINE
  5
2CA
330
1F
100
AcDbEntity
  8
0
  6
Continuous
 62
     7
370
    15
100
AcDbLine
 10
11420.0547513437
 20
5323.1060164746
 30
0.0
 11
10019.9685845535
 21
3956.5789960618
 31
0.0
  0
ARC
  5
2CB
330
1F
100
AcDbEntity
  8
0
  6
Continuous
 62
     7
370
    15
100
AcDbCircle
 10
11418.1115871817
 20
5319.4284630283
 30
0.0
 40
4.159361286381338
100
AcDbArc
 50
59.2149064086
 51
62.1486978919
  0
LINE
  5
2CC
330
1F
100
AcDbEntity
  8
0
  6
Continuous
 62
     7
370
    15
100
AcDbLine
 10
11418.8804851213
 20
5323.6559539689
 30
0.0
 11
10018.7943183311
 21
3957.1289335561
 31
0.0
  0
LINE
  5
2CD
330
1F
100
AcDbEntity
  8
0
  6
Continuous
 62
     7
370
    15
100
AcDbLine
 10
11419.8658561095
 20
5323.199601745
 30
0.0
 11
11418.8804851213
 21
5323.6559539689
 31
0.0
  0
LINE
  5
2CE
330
1F
100
AcDbEntity
  8
0
  6
Continuous
 62
     7
370
    15
100
AcDbLine
 10
11419.8658561095
 20
5323.199601745
 30
0.0
 11
10019.7796893193
 21
3956.6725813322
 31
0.0
  0
ARC
  5
2CF
330
1F
100
AcDbEntity
  8
0
  6
Continuous
 62
     7
370
    15
100
AcDbCircle
 10
11390.0817246312
 20
5293.7344998539
 30
0.0
 40
42.19054473696112
100
AcDbArc
 50
35.9426159462
 51
36.7437354564
  0
LINE
  5
2D0
330
1F
100
AcDbEntity
  8
0
  6
Continuous
 62
     7
370
    15
100
AcDbLine
 10
11424.2394123893
 20
5318.499281949
 30
0.0
 11
10024.1532455992
 21
3951.9722615362
 31
0.0
  0
ARC
  5
2D1
330
1F
100
AcDbEntity
  8
0
  6
Continuous
 62
     7
370
    15
100
AcDbCircle
 10
11418.1689600496
 20
5319.5371088834
 30
0.0
 40
4.036497268578846
100
AcDbArc
 50
62.1482715016
 51
65.1408976627
  0
ARC
  5
2D2
330
1F
100
AcDbEntity
  8
0
  6
Continuous
 62
     7
370
    15
100
AcDbCircle
 10
11420.740092234
 20
5315.96175557
 30
0.0
 40
4.322531859218087
100
AcDbArc
 50
32.8940939529
 51
35.9476843798
  0
LINE
  5
2D3
330
1F
100
AcDbEntity
  8
0
  6
Continuous
 62
     7
370
    15
100
AcDbLine
 10
11424.3696178491
 20
5318.3092703161
 30
0.0
 11
10024.2834510589
 21
3951.7822499033
 31
0.0
  0
ARC
  5
2D4
330
1F
100
AcDbEntity
  8
0
  6
Continuous
 62
     7
370
    15
100
AcDbCircle
 10
11420.8276107233
 20
5316.0182145611
 30
0.0
 40
4.21838250415803
100
AcDbArc
 50
29.7920753866
 51
32.8957643325
  0
LINE
  5
2D5
330
1F
100
AcDbEntity
  8
0
  6
Continuous
 62
     7
370
    15
100
AcDbLine
 10
11424.4884672525
 20
5318.1141345081
 30
0.0
 11
10024.4023004623
 21
3951.5871140953
 31
0.0
  0
ARC
  5
2D6
330
1F
100
AcDbEntity
  8
0
  6
Continuous
 62
     7
370
    15
100
AcDbCircle
 10
11420.9347963864
 20
5316.0794902945
 30
0.0
 40
4.09491803340832
100
AcDbArc
 50
26.6276425099
 51
29.7931729488
  0
LINE
  5
2D7
330
1F
100
AcDbEntity
  8
0
  6
Continuous
 62
     7
370
    15
100
AcDbLine
 10
11424.5953996745
 20
5317.9147933398
 30
0.0
 11
10024.5092328843
 21
3951.387772927
 31
0.0
  0
LINE
  5
2D8
330
1F
100
AcDbEntity
  8
0
  6
Continuous
 62
     7
370
    15
100
AcDbLine
 10
11417.5567689102
 20
5324.3359318558
 30
0.0
 11
10017.4706021201
 21
3957.808911443
 31
0.0
  0
LINE
  5
2D9
330
1F
100
AcDbEntity
  8
0
  6
Continuous
 62
     7
370
    15
100
AcDbLine
 10
11418.7238679966
 20
5323.7326719864
 30
0.0
 11
11417.5567689102
 21
5324.3359318558
 31
0.0
  0
LINE
  5
2DA
330
1F
100
AcDbEntity
  8
0
  6
Continuous
 62
     7
370
    15
100
AcDbLine
 10
11418.7238679966
 20
5323.7326719864
 30
0.0
 11
10018.6377012064
 21
3957.2056515735
 31
0.0
  0
ARC
  5
2DB
330
1F
100
AcDbEntity
  8
0
  6
Continuous
 62
     7
370
    15
100
AcDbCircle
 10
11421.0620448579
 20
5316.1432189041
 30
0.0
 40
3.952603223315267
100
AcDbArc
 50
23.387357937
 51
26.6285428874
  0
LINE
  5
2DC
330
1F
100
AcDbEntity
  8
0
  6
Continuous
 62
     7
370
    15
100
AcDbLine
 10
11424.6899110237
 20
5317.7121865022
 30
0.0
 11
10024.6037442335
 21
3951.1851660894
 31
0.0
  0
ARC
  5
2DD
330
1F
100
AcDbEntity
  8
0
  6
Continuous
 62
     7
370
    15
100
AcDbCircle
 10
11421.2062807825
 20
5316.2054653232
 30
0.0
 40
3.795508973630486
100
AcDbArc
 50
20.0588493063
 51
23.389190431
  0
LINE
  5
2DE
330
1F
100
AcDbEntity
  8
0
  6
Continuous
 62
     7
370
    15
100
AcDbLine
 10
11424.7715573375
 20
5317.5072684785
 30
0.0
 11
10024.6853905473
 21
3950.9802480656
 31
0.0
  0
LINE
  5
2DF
330
1F
100
AcDbEntity
  8
0
  6
Continuous
 62
     7
370
    15
100
AcDbLine
 10
11418.8019399573
 20
5323.6933770119
 30
0.0
 11
10018.7157731671
 21
3957.1663565991
 31
0.0
  0
ARC
  5
2E0
330
1F
100
AcDbEntity
  8
0
  6
Continuous
 62
     7
370
    15
100
AcDbCircle
 10
11420.5609503175
 20
5327.2841284041
 30
0.0
 40
3.998451326128155
100
AcDbArc
 50
243.9010371277
 51
245.1477956983
  0
ARC
  5
2E1
330
1F
100
AcDbEntity
  8
0
  6
Continuous
 62
     7
370
    15
100
AcDbCircle
 10
11420.5838423521
 20
5327.3308975562
 30
0.0
 40
4.05052241750475
100
AcDbArc
 50
242.664909656
 51
243.9012770459
  0
ARC
  5
2E2
330
1F
100
AcDbEntity
  8
0
  6
Continuous
 62
     7
370
    15
100
AcDbCircle
 10
11421.3627937242
 20
5316.2624702767
 30
0.0
 40
3.628938127700132
100
AcDbArc
 50
16.629481616
 51
20.0609733753
  0
LINE
  5
2E3
330
1F
100
AcDbEntity
  8
0
  6
Continuous
 62
     7
370
    15
100
AcDbLine
 10
11424.8399531343
 20
5317.301005
 30
0.0
 11
10024.7537863441
 21
3950.7739845872
 31
0.0
  0
ARC
  5
2E4
330
1F
100
AcDbEntity
  8
0
  6
Continuous
 62
     7
370
    15
100
AcDbCircle
 10
11421.5285222868
 20
5316.3118542549
 30
0.0
 40
3.456008312253294
100
AcDbArc
 50
13.086458944
 51
16.6313039792
  0
LINE
  5
2E5
330
1F
100
AcDbEntity
  8
0
  6
Continuous
 62
     7
370
    15
100
AcDbLine
 10
11424.8947763557
 20
5317.0943675122
 30
0.0
 11
10024.8086095655
 21
3950.5673470993
 31
0.0
  0
ARC
  5
2E6
330
1F
100
AcDbEntity
  8
0
  6
Continuous
 62
     7
370
    15
100
AcDbCircle
 10
11421.7015717892
 20
5316.3519688109
 30
0.0
 40
3.278370210159319
100
AcDbArc
 50
9.4162731854
 51
13.088369173
  0
LINE
  5
2E7
330
1F
100
AcDbEntity
  8
0
  6
Continuous
 62
     7
370
    15
100
AcDbLine
 10
11424.9357683667
 20
5316.8883303804
 30
0.0
 11
10024.8496015765
 21
3950.3613099676
 31
0.0
  0
ARC
  5
2E8
330
1F
100
AcDbEntity
  8
0
  6
Continuous
 62
     7
370
    15
100
AcDbCircle
 10
11446.3643222014
 20
5320.4373324006
 30
0.0
 40
21.72045889911717
100
AcDbArc
 50
189.4039763806
 51
191.1350807991
  0
LINE
  5
2E9
330
1F
100
AcDbEntity
  8
0
  6
Continuous
 62
     7
370
    15
100
AcDbLine
 10
11425.0527595513
 20
5316.2426176075
 30
0.0
 11
10024.9665927611
 21
3949.7155971946
 31
0.0
  0
LINE
  5
2EA
330
1F
100
AcDbEntity
  8
0
  6
Continuous
 62
     7
370
    15
100
AcDbLine
 10
11417.3727346665
 20
5324.4252207518
 30
0.0
 11
10017.2865678763
 21
3957.898200339
 31
0.0
  0
ARC
  5
2EB
330
1F
100
AcDbEntity
  8
0
  6
Continuous
 62
     7
370
    15
100
AcDbCircle
 10
11415.7132830868
 20
5320.7706065066
 30
0.0
 40
4.013724557930593
100
AcDbArc
 50
62.6583401105
 51
65.578614595
  0
LINE
  5
2EC
330
1F
100
AcDbEntity
  8
0
  6
Continuous
 62
     7
370
    15
100
AcDbLine
 10
11417.1865047274
 20
5324.5039964601
 30
0.0
 11
10017.1003379372
 21
3957.9769760473
 31
0.0
  0
ARC
  5
2ED
330
1F
100
AcDbEntity
  8
0
  6
Continuous
 62
     7
370
    15
100
AcDbCircle
 10
11415.7691909736
 20
5320.8938752477
 30
0.0
 40
3.87836994681986
100
AcDbArc
 50
65.5777432069
 51
68.5653008836
  0
LINE
  5
2EE
330
1F
100
AcDbEntity
  8
0
  6
Continuous
 62
     7
370
    15
100
AcDbLine
 10
11416.9988062595
 20
5324.5719495903
 30
0.0
 11
10016.9126394693
 21
3958.0449291775
 31
0.0
  0
ARC
  5
2EF
330
1F
100
AcDbEntity
  8
0
  6
Continuous
 62
     7
370
    15
100
AcDbCircle
 10
11415.8229224018
 20
5321.0307474543
 30
0.0
 40
3.731328907302982
100
AcDbArc
 50
68.5652458815
 51
71.6308497591
  0
ARC
  5
2F0
330
1F
100
AcDbEntity
  8
0
  6
Continuous
 62
     7
370
    15
100
AcDbCircle
 10
11446.9103776316
 20
5320.5447663992
 30
0.0
 40
22.27698256884413
100
AcDbArc
 50
191.1349670761
 51
192.8371094879
  0
LINE
  5
2F1
330
1F
100
AcDbEntity
  8
0
  6
Continuous
 62
     7
370
    15
100
AcDbLine
 10
11425.1901936141
 20
5315.595265554
 30
0.0
 11
10025.1040268239
 21
3949.0682451412
 31
0.0
  0
LINE
  5
2F2
330
1F
100
AcDbEntity
  8
0
  6
Continuous
 62
     7
370
    15
100
AcDbLine
 10
11416.6219379249
 20
5324.6743743283
 30
0.0
 11
10016.5357711347
 21
3958.1473539155
 31
0.0
  0
ARC
  5
2F3
330
1F
100
AcDbEntity
  8
0
  6
Continuous
 62
     7
370
    15
100
AcDbCircle
 10
11415.8948092566
 20
5321.2543796934
 30
0.0
 40
3.496438102337107
100
AcDbArc
 50
71.5939609354
 51
77.9970127469
  0
LINE
  5
2F4
330
1F
100
AcDbEntity
  8
0
  6
Continuous
 62
     7
370
    15
100
AcDbLine
 10
11416.434239457
 20
5324.7084452432
 30
0.0
 11
10016.3480726668
 21
3958.1814248304
 31
0.0
  0
ARC
  5
2F5
330
1F
100
AcDbEntity
  8
0
  6
Continuous
 62
     7
370
    15
100
AcDbCircle
 10
11415.9469057831
 20
5321.4896424755
 30
0.0
 40
3.255485427221766
100
AcDbArc
 50
78.032769258
 51
81.3906808814
  0
LINE
  5
2F6
330
1F
100
AcDbEntity
  8
0
  6
Continuous
 62
     7
370
    15
100
AcDbLine
 10
11416.2480095178
 20
5324.7308969473
 30
0.0
 11
10016.1618427277
 21
3958.2038765345
 31
0.0
  0
ARC
  5
2F7
330
1F
100
AcDbEntity
  8
0
  6
Continuous
 62
     7
370
    15
100
AcDbCircle
 10
11415.9708164467
 20
5321.6480804718
 30
0.0
 40
3.095253369364256
100
AcDbArc
 50
81.3892681225
 51
84.8620364789
  0
ARC
  5
2F8
330
1F
100
AcDbEntity
  8
0
  6
Continuous
 62
     7
370
    15
100
AcDbCircle
 10
11447.454487331
 20
5320.6687890123
 30
0.0
 40
22.83504795254191
100
AcDbArc
 50
192.8371908719
 51
194.5114297355
  0
LINE
  5
2F9
330
1F
100
AcDbEntity
  8
0
  6
Continuous
 62
     7
370
    15
100
AcDbLine
 10
11425.3479305297
 20
5314.9469395396
 30
0.0
 11
10025.2617637396
 21
3948.4199191267
 31
0.0
  0
LINE
  5
2FA
330
1F
100
AcDbEntity
  8
0
  6
Continuous
 62
     7
370
    15
100
AcDbLine
 10
11416.0639752741
 20
5324.7416411794
 30
0.0
 11
10015.9778084839
 21
3958.2146207666
 31
0.0
  0
ARC
  5
2FB
330
1F
100
AcDbEntity
  8
0
  6
Continuous
 62
     7
370
    15
100
AcDbCircle
 10
11415.9847841746
 20
5321.803702526
 30
0.0
 40
2.939005743709491
100
AcDbArc
 50
84.8615489033
 51
88.4559863486
  0
LINE
  5
2FC
330
1F
100
AcDbEntity
  8
0
  6
Continuous
 62
     7
370
    15
100
AcDbLine
 10
11414.8968761877
 20
5324.7727663575
 30
0.0
 11
10014.8107093976
 21
3958.2457459447
 31
0.0
  0
LINE
  5
2FD
330
1F
100
AcDbEntity
  8
0
  6
Continuous
 62
     7
370
    15
100
AcDbLine
 10
11416.0639752741
 20
5324.7416411794
 30
0.0
 11
11414.8968761877
 21
5324.7727663575
 31
0.0
  0
ARC
  5
2FE
330
1F
100
AcDbEntity
  8
0
  6
Continuous
 62
     7
370
    15
100
AcDbCircle
 10
11447.9875447806
 20
5320.8067927535
 30
0.0
 40
23.38567965910396
100
AcDbArc
 50
194.5115062413
 51
196.1594117777
  0
LINE
  5
2FF
330
1F
100
AcDbEntity
  8
0
  6
Continuous
 62
     7
370
    15
100
AcDbLine
 10
11425.5258080336
 20
5314.2983063376
 30
0.0
 11
10025.4396412434
 21
3947.7712859248
 31
0.0
  0
ARC
  5
300
330
1F
100
AcDbEntity
  8
0
  6
Continuous
 62
     7
370
    15
100
AcDbCircle
 10
11422.212183851
 20
5313.3377512956
 30
0.0
 40
3.450039305912584
100
AcDbArc
 50
13.3005732875
 51
16.1658432323
  0
LINE
  5
301
330
1F
100
AcDbEntity
  8
0
  6
Continuous
 62
     7
370
    15
100
AcDbLine
 10
11425.5696812722
 20
5314.1314655255
 30
0.0
 11
10025.483514482
 21
3947.6044451127
 31
0.0
  0
ARC
  5
302
330
1F
100
AcDbEntity
  8
0
  6
Continuous
 62
     7
370
    15
100
AcDbCircle
 10
11422.3509333506
 20
5313.3704947686
 30
0.0
 40
3.307478597989274
100
AcDbArc
 50
10.3545453946
 51
13.3015339608
  0
LINE
  5
303
330
1F
100
AcDbEntity
  8
0
  6
Continuous
 62
     7
370
    15
100
AcDbLine
 10
11425.6045475858
 20
5313.9649769674
 30
0.0
 11
10025.5183807956
 21
3947.4379565545
 31
0.0
  0
ARC
  5
304
330
1F
100
AcDbEntity
  8
0
  6
Continuous
 62
     7
370
    15
100
AcDbCircle
 10
11422.4913926874
 20
5313.3961413159
 30
0.0
 40
3.164697050159406
100
AcDbArc
 50
7.3199001591
 51
10.3548552358
  0
LINE
  5
305
330
1F
100
AcDbEntity
  8
0
  6
Continuous
 62
     7
370
    15
100
AcDbLine
 10
11425.6302982487
 20
5313.7993525473
 30
0.0
 11
10025.5441314585
 21
3947.2723321345
 31
0.0
  0
ARC
  5
306
330
1F
100
AcDbEntity
  8
0
  6
Continuous
 62
     7
370
    15
100
AcDbCircle
 10
11422.6308685397
 20
5313.4140462425
 30
0.0
 40
3.024076640509814
100
AcDbArc
 50
4.1919577003
 51
7.3201178201
  0
LINE
  5
307
330
1F
100
AcDbEntity
  8
0
  6
Continuous
 62
     7
370
    15
100
AcDbLine
 10
11425.6468550114
 20
5313.635100828
 30
0.0
 11
10025.5606882212
 21
3947.1080804152
 31
0.0
  0
LINE
  5
308
330
1F
100
AcDbEntity
  8
0
  6
Continuous
 62
     7
370
    15
100
AcDbLine
 10
11414.8188042271
 20
5324.7759079551
 30
0.0
 11
10014.7326374369
 21
3958.2488875423
 31
0.0
  0
ARC
  5
309
330
1F
100
AcDbEntity
  8
0
  6
Continuous
 62
     7
370
    15
100
AcDbCircle
 10
11414.9741831004
 20
5327.6655787444
 30
0.0
 40
2.893845169413888
100
AcDbArc
 50
266.9221446649
 51
268.4692039241
  0
LINE
  5
30A
330
1F
100
AcDbEntity
  8
0
  6
Continuous
 62
     7
370
    15
100
AcDbLine
 10
11414.7402590631
 20
5324.7811786973
 30
0.0
 11
10014.6540922729
 21
3958.2541582844
 31
0.0
  0
ARC
  5
30B
330
1F
100
AcDbEntity
  8
0
  6
Continuous
 62
     7
370
    15
100
AcDbCircle
 10
11414.9772824404
 20
5327.7254468782
 30
0.0
 40
2.953793358181175
100
AcDbArc
 50
265.3974249
 51
266.9244650378
  0
ARC
  5
30C
330
1F
100
AcDbEntity
  8
0
  6
Continuous
 62
     7
370
    15
100
AcDbCircle
 10
11422.7683070039
 20
5313.4241412132
 30
0.0
 40
2.886267934718488
100
AcDbArc
 50
0.9645235775
 51
4.1915317218
  0
LINE
  5
30D
330
1F
100
AcDbEntity
  8
0
  6
Continuous
 62
     7
370
    15
100
AcDbLine
 10
11425.6541659823
 20
5313.4727266765
 30
0.0
 11
10025.5679991922
 21
3946.9457062637
 31
0.0
  0
LINE
  5
30E
330
1F
100
AcDbEntity
  8
0
  6
Continuous
 62
     7
370
    15
100
AcDbLine
 10
11413.7548880749
 20
5324.8604311163
 30
0.0
 11
10013.6687212847
 21
3958.3334107035
 31
0.0
  0
LINE
  5
30F
330
1F
100
AcDbEntity
  8
0
  6
Continuous
 62
     7
370
    15
100
AcDbLine
 10
11414.7402590631
 20
5324.7811786973
 30
0.0
 11
11413.7548880749
 21
5324.8604311163
 31
0.0
  0
ARC
  5
310
330
1F
100
AcDbEntity
  8
0
  6
Continuous
 62
     7
370
    15
100
AcDbCircle
 10
11422.9013642232
 20
5313.4263588558
 30
0.0
 40
2.753192238140701
100
AcDbArc
 50
357.6346021457
 51
0.9649911106
  0
LINE
  5
311
330
1F
100
AcDbEntity
  8
0
  6
Continuous
 62
     7
370
    15
100
AcDbLine
 10
11425.6522105694
 20
5313.3127284051
 30
0.0
 11
10025.5660437793
 21
3946.7857079922
 31
0.0
  0
ARC
  5
312
330
1F
100
AcDbEntity
  8
0
  6
Continuous
 62
     7
370
    15
100
AcDbCircle
 10
11423.0268850417
 20
5313.4211871057
 30
0.0
 40
2.627564921399255
100
AcDbArc
 50
354.1987481666
 51
357.6343146652
  0
LINE
  5
313
330
1F
100
AcDbEntity
  8
0
  6
Continuous
 62
     7
370
    15
100
AcDbLine
 10
11425.6409928911
 20
5313.1555980095
 30
0.0
 11
10025.5548261009
 21
3946.6285775966
 31
0.0
  0
ARC
  5
314
330
1F
100
AcDbEntity
  8
0
  6
Continuous
 62
     7
370
    15
100
AcDbCircle
 10
11423.1437937967
 20
5313.4093429324
 30
0.0
 40
2.510057728971225
100
AcDbArc
 50
350.6562792249
 51
354.1979859063
  0
LINE
  5
315
330
1F
100
AcDbEntity
  8
0
  6
Continuous
 62
     7
370
    15
100
AcDbLine
 10
11425.6205483655
 20
5313.001817953
 30
0.0
 11
10025.5343815753
 21
3946.4747975401
 31
0.0
  0
LINE
  5
316
330
1F
100
AcDbEntity
  8
0
  6
Continuous
 62
     7
370
    15
100
AcDbLine
 10
11425.4121708682
 20
5311.7373207525
 30
0.0
 11
11425.6205483655
 21
5313.001817953
 31
0.0
  0
LINE
  5
317
330
1F
100
AcDbEntity
  8
0
  6
Continuous
 62
     7
370
    15
100
AcDbLine
 10
11425.4121708682
 20
5311.7373207525
 30
0.0
 11
10025.326004078
 21
3945.2103003397
 31
0.0
  0
LINE
  5
318
330
1F
100
AcDbEntity
  8
0
  6
Continuous
 62
     7
370
    15
100
AcDbLine
 10
11413.5659928406
 20
5324.8695219984
 30
0.0
 11
10013.4798260505
 21
3958.3425015856
 31
0.0
  0
ARC
  5
319
330
1F
100
AcDbEntity
  8
0
  6
Continuous
 62
     7
370
    15
100
AcDbCircle
 10
11413.5204565183
 20
5321.9563150379
 30
0.0
 40
2.913562827856323
100
AcDbArc
 50
85.3848688426
 51
89.1044829062
  0
LINE
  5
31A
330
1F
100
AcDbEntity
  8
0
  6
Continuous
 62
     7
370
    15
100
AcDbLine
 10
11413.3803153067
 20
5324.8661734172
 30
0.0
 11
10013.2941485165
 21
3958.3391530044
 31
0.0
  0
ARC
  5
31B
330
1F
100
AcDbEntity
  8
0
  6
Continuous
 62
     7
370
    15
100
AcDbCircle
 10
11413.5228788986
 20
5322.110625377
 30
0.0
 40
2.759233476871074
100
AcDbArc
 50
89.1046979287
 51
92.9616670232
  0
LINE
  5
31C
330
1F
100
AcDbEntity
  8
0
  6
Continuous
 62
     7
370
    15
100
AcDbLine
 10
11413.1986231415
 20
5324.850401059
 30
0.0
 11
10013.1124563513
 21
3958.3233806461
 31
0.0
  0
ARC
  5
31D
330
1F
100
AcDbEntity
  8
0
  6
Continuous
 62
     7
370
    15
100
AcDbCircle
 10
11413.5153431396
 20
5322.2562970943
 30
0.0
 40
2.613366973234065
100
AcDbArc
 50
92.9616855951
 51
96.9609195545
  0
LINE
  5
31E
330
1F
100
AcDbEntity
  8
0
  6
Continuous
 62
     7
370
    15
100
AcDbLine
 10
11413.0216665102
 20
5324.822268475
 30
0.0
 11
10012.93549972
 21
3958.2952480622
 31
0.0
  0
ARC
  5
31F
330
1F
100
AcDbEntity
  8
0
  6
Continuous
 62
     7
370
    15
100
AcDbCircle
 10
11413.499047804
 20
5322.3900980097
 30
0.0
 40
2.478577429123808
100
AcDbArc
 50
96.9618539087
 51
101.1047277804
  0
LINE
  5
320
330
1F
100
AcDbEntity
  8
0
  6
Continuous
 62
     7
370
    15
100
AcDbLine
 10
11412.8501770454
 20
5324.7818929499
 30
0.0
 11
10012.7640102552
 21
3958.2548725371
 31
0.0
  0
ARC
  5
321
330
1F
100
AcDbEntity
  8
0
  6
Continuous
 62
     7
370
    15
100
AcDbCircle
 10
11413.4753123966
 20
5322.5110935803
 30
0.0
 40
2.355275776712435
100
AcDbArc
 50
101.1050464152
 51
105.3918616645
  0
LINE
  5
322
330
1F
100
AcDbEntity
  8
0
  6
Continuous
 62
     7
370
    15
100
AcDbLine
 10
11412.6848631107
 20
5324.7294412002
 30
0.0
 11
10012.5986963205
 21
3958.2024207874
 31
0.0
  0
ARC
  5
323
330
1F
100
AcDbEntity
  8
0
  6
Continuous
 62
     7
370
    15
100
AcDbCircle
 10
11413.4467365578
 20
5322.6149577659
 30
0.0
 40
2.247552300508936
100
AcDbArc
 50
105.392285706
 51
109.814692715
  0
ARC
  5
324
330
1F
100
AcDbEntity
  8
0
  6
Continuous
 62
     7
370
    15
100
AcDbCircle
 10
11423.0375742595
 20
5312.1282085385
 30
0.0
 40
2.406554033237452
100
AcDbArc
 50
347.3578128175
 51
350.6522416356
  0
LINE
  5
325
330
1F
100
AcDbEntity
  8
0
  6
Continuous
 62
     7
370
    15
100
AcDbLine
 10
11425.3857835017
 20
5311.6015058997
 30
0.0
 11
10025.2996167116
 21
3945.0744854869
 31
0.0
  0
LINE
  5
326
330
1F
100
AcDbEntity
  8
0
  6
Continuous
 62
     7
370
    15
100
AcDbLine
 10
11412.5264083591
 20
5324.6651297665
 30
0.0
 11
10012.4402415689
 21
3958.1381093537
 31
0.0
  0
ARC
  5
327
330
1F
100
AcDbEntity
  8
0
  6
Continuous
 62
     7
370
    15
100
AcDbCircle
 10
11413.4150366744
 20
5322.7030300707
 30
0.0
 40
2.153948815325448
100
AcDbArc
 50
109.8155338722
 51
114.3656113716
  0
ARC
  5
328
330
1F
100
AcDbEntity
  8
0
  6
Continuous
 62
     7
370
    15
100
AcDbCircle
 10
11423.1259970612
 20
5312.1084754627
 30
0.0
 40
2.315956151297991
100
AcDbArc
 50
343.9755229743
 51
347.3553956397
  0
LINE
  5
329
330
1F
100
AcDbEntity
  8
0
  6
Continuous
 62
     7
370
    15
100
AcDbLine
 10
11425.3519640837
 20
5311.4691604311
 30
0.0
 11
10025.2657972935
 21
3944.9421400183
 31
0.0
  0
LINE
  5
32A
330
1F
100
AcDbEntity
  8
0
  6
Continuous
 62
     7
370
    15
100
AcDbLine
 10
11412.3754672034
 20
5324.5892246478
 30
0.0
 11
10012.2893004132
 21
3958.062204235
 31
0.0
  0
ARC
  5
32B
330
1F
100
AcDbEntity
  8
0
  6
Continuous
 62
     7
370
    15
100
AcDbCircle
 10
11413.3834577486
 20
5322.7728142336
 30
0.0
 40
2.077352096315217
100
AcDbArc
 50
114.3662667576
 51
119.0274474558
  0
ARC
  5
32C
330
1F
100
AcDbEntity
  8
0
  6
Continuous
 62
     7
370
    15
100
AcDbCircle
 10
11423.2055455077
 20
5312.0856809916
 30
0.0
 40
2.233206283519449
100
AcDbArc
 50
340.5107530402
 51
343.9742293157
  0
LINE
  5
32D
330
1F
100
AcDbEntity
  8
0
  6
Continuous
 62
     7
370
    15
100
AcDbLine
 10
11425.3107982765
 20
5311.3406165083
 30
0.0
 11
10025.2246314863
 21
3944.8135960955
 31
0.0
  0
ARC
  5
32E
330
1F
100
AcDbEntity
  8
0
  6
Continuous
 62
     7
370
    15
100
AcDbCircle
 10
11423.274022462
 20
5312.0614475162
 30
0.0
 40
2.160567763428966
100
AcDbArc
 50
336.9697684779
 51
340.5107274465
  0
LINE
  5
32F
330
1F
100
AcDbEntity
  8
0
  6
Continuous
 62
     7
370
    15
100
AcDbLine
 10
11425.2623898637
 20
5311.2161971768
 30
0.0
 11
10025.1762230735
 21
3944.689176764
 31
0.0
  0
LINE
  5
330
330
1F
100
AcDbEntity
  8
0
  6
Continuous
 62
     7
370
    15
100
AcDbLine
 10
11411.9777972528
 20
5324.3623356527
 30
0.0
 11
10011.8916304626
 21
3957.8353152398
 31
0.0
  0
ARC
  5
331
330
1F
100
AcDbEntity
  8
0
  6
Continuous
 62
     7
370
    15
100
AcDbCircle
 10
11421.9016894802
 20
5307.4306033478
 30
0.0
 40
19.62567695099031
100
AcDbArc
 50
119.0384111158
 51
120.3750811114
  0
ARC
  5
332
330
1F
100
AcDbEntity
  8
0
  6
Continuous
 62
     7
370
    15
100
AcDbCircle
 10
11423.3300924986
 20
5312.0376614646
 30
0.0
 40
2.099661087705525
100
AcDbArc
 50
333.3602051307
 51
336.9685331573
  0
LINE
  5
333
330
1F
100
AcDbEntity
  8
0
  6
Continuous
 62
     7
370
    15
100
AcDbLine
 10
11425.2068599261
 20
5311.0962153926
 30
0.0
 11
10025.1206931359
 21
3944.5691949798
 31
0.0
  0
ARC
  5
334
330
1F
100
AcDbEntity
  8
0
  6
Continuous
 62
     7
370
    15
100
AcDbCircle
 10
11423.376523391
 20
5312.0144883501
 30
0.0
 40
2.04776879950239
100
AcDbArc
 50
329.6883451882
 51
333.3572516773
  0
LINE
  5
335
330
1F
100
AcDbEntity
  8
0
  6
Continuous
 62
     7
370
    15
100
AcDbLine
 10
11425.1443476653
 20
5310.9809728005
 30
0.0
 11
10025.0581808751
 21
3944.4539523877
 31
0.0
  0
ARC
  5
336
330
1F
100
AcDbEntity
  8
0
  6
Continuous
 62
     7
370
    15
100
AcDbCircle
 10
11423.4131348695
 20
5311.993173562
 30
0.0
 40
2.005404728760586
100
AcDbArc
 50
325.9652975616
 51
329.6861444867
  0
LINE
  5
337
330
1F
100
AcDbEntity
  8
0
  6
Continuous
 62
     7
370
    15
100
AcDbLine
 10
11425.0750112276
 20
5310.8707587117
 30
0.0
 11
10024.9888444374
 21
3944.3437382988
 31
0.0
  0
LINE
  5
338
330
1F
100
AcDbEntity
  8
0
  6
Continuous
 62
     7
370
    15
100
AcDbLine
 10
11411.5865408753
 20
5324.1268130657
 30
0.0
 11
10011.5003740852
 21
3957.5997926529
 31
0.0
  0
ARC
  5
339
330
1F
100
AcDbEntity
  8
0
  6
Continuous
 62
     7
370
    15
100
AcDbCircle
 10
11421.8303906669
 20
5307.5522017279
 30
0.0
 40
19.48471707651871
100
AcDbArc
 50
120.3750087125
 51
121.7179162416
  0
ARC
  5
33A
330
1F
100
AcDbEntity
  8
0
  6
Continuous
 62
     7
370
    15
100
AcDbCircle
 10
11423.4388402777
 20
5311.9758885833
 30
0.0
 40
1.974428375658543
100
AcDbArc
 50
322.2037714828
 51
325.963465115
  0
LINE
  5
33B
330
1F
100
AcDbEntity
  8
0
  6
Continuous
 62
     7
370
    15
100
AcDbLine
 10
11424.9990244092
 20
5310.7658502011
 30
0.0
 11
10024.912857619
 21
3944.2388297883
 31
0.0
  0
LINE
  5
33C
330
1F
100
AcDbEntity
  8
0
  6
Continuous
 62
     7
370
    15
100
AcDbLine
 10
11423.3597265679
 20
5308.6525175681
 30
0.0
 11
11424.9990244092
 21
5310.7658502011
 31
0.0
  0
LINE
  5
33D
330
1F
100
AcDbEntity
  8
0
  6
Continuous
 62
     7
370
    15
100
AcDbLine
 10
11423.3597265679
 20
5308.6525175681
 30
0.0
 11
10023.2735597777
 21
3942.1254971553
 31
0.0
  0
LINE
  5
33E
330
1F
100
AcDbEntity
  8
0
  6
Continuous
 62
     7
370
    15
100
AcDbLine
 10
11411.2018282122
 20
5323.882735275
 30
0.0
 11
10011.115661422
 21
3957.3557148622
 31
0.0
  0
ARC
  5
33F
330
1F
100
AcDbEntity
  8
0
  6
Continuous
 62
     7
370
    15
100
AcDbCircle
 10
11421.7568727181
 20
5307.6712218482
 30
0.0
 40
19.34482184227196
100
AcDbArc
 50
121.7180215532
 51
123.0674764994
  0
LINE
  5
340
330
1F
100
AcDbEntity
  8
0
  6
Continuous
 62
     7
370
    15
100
AcDbLine
 10
11410.8237861099
 20
5323.6301827615
 30
0.0
 11
10010.7376193197
 21
3957.1031623487
 31
0.0
  0
ARC
  5
341
330
1F
100
AcDbEntity
  8
0
  6
Continuous
 62
     7
370
    15
100
AcDbCircle
 10
11421.6896545642
 20
5307.7744448919
 30
0.0
 40
19.22164198647216
100
AcDbArc
 50
123.0674481189
 51
124.4226719916
  0
LINE
  5
342
330
1F
100
AcDbEntity
  8
0
  6
Continuous
 62
     7
370
    15
100
AcDbLine
 10
11410.4525401794
 20
5323.3692395352
 30
0.0
 11
10010.3663733892
 21
3956.8422191223
 31
0.0
  0
ARC
  5
343
330
1F
100
AcDbEntity
  8
0
  6
Continuous
 62
     7
370
    15
100
AcDbCircle
 10
11421.629037953
 20
5307.8629092213
 30
0.0
 40
19.11440248312413
100
AcDbArc
 50
124.4226908092
 51
125.7829322456
  0
LINE
  5
344
330
1F
100
AcDbEntity
  8
0
  6
Continuous
 62
     7
370
    15
100
AcDbLine
 10
11410.088212737
 20
5323.0999912996
 30
0.0
 11
10010.0020459468
 21
3956.5729708867
 31
0.0
  0
ARC
  5
345
330
1F
100
AcDbEntity
  8
0
  6
Continuous
 62
     7
370
    15
100
AcDbCircle
 10
11421.57321819
 20
5307.9404189276
 30
0.0
 40
19.01888495035604
100
AcDbArc
 50
125.7830468855
 51
127.1478415514
  0
LINE
  5
346
330
1F
100
AcDbEntity
  8
0
  6
Continuous
 62
     7
370
    15
100
AcDbLine
 10
11409.7309248635
 20
5322.8225276865
 30
0.0
 11
10009.6447580733
 21
3956.2955072737
 31
0.0
  0
ARC
  5
347
330
1F
100
AcDbEntity
  8
0
  6
Continuous
 62
     7
370
    15
100
AcDbCircle
 10
11421.5231125146
 20
5308.0065838424
 30
0.0
 40
18.93588871933076
100
AcDbArc
 50
127.1478930652
 51
128.5167033323
  0
LINE
  5
348
330
1F
100
AcDbEntity
  8
0
  6
Continuous
 62
     7
370
    15
100
AcDbLine
 10
11409.381331795
 20
5322.5373894853
 30
0.0
 11
10009.2951650048
 21
3956.0103690724
 31
0.0
  0
ARC
  5
349
330
1F
100
AcDbEntity
  8
0
  6
Continuous
 62
     7
370
    15
100
AcDbCircle
 10
11421.4805428658
 20
5308.0600562044
 30
0.0
 40
18.8675405780081
100
AcDbArc
 50
128.5166787316
 51
129.8866778263
  0
ARC
  5
34A
330
1F
100
AcDbEntity
  8
0
  6
Continuous
 62
     7
370
    15
100
AcDbCircle
 10
11421.8169032614
 20
5309.8491155187
 30
0.0
 40
1.952472896182266
100
AcDbArc
 50
317.5964478603
 51
322.2032109155
  0
LINE
  5
34B
330
1F
100
AcDbEntity
  8
0
  6
Continuous
 62
     7
370
    15
100
AcDbLine
 10
11423.2586356743
 20
5308.5324689982
 30
0.0
 11
10023.1724688841
 21
3942.0054485854
 31
0.0
  0
ARC
  5
34C
330
1F
100
AcDbEntity
  8
0
  6
Continuous
 62
     7
370
    15
100
AcDbCircle
 10
11421.8229351244
 20
5309.8437102441
 30
0.0
 40
1.944373851391015
100
AcDbArc
 50
312.9747865734
 51
317.5942010308
  0
LINE
  5
34D
330
1F
100
AcDbEntity
  8
0
  6
Continuous
 62
     7
370
    15
100
AcDbLine
 10
11423.1483690015
 20
5308.4211018259
 30
0.0
 11
10023.0622022113
 21
3941.8940814131
 31
0.0
  0
LINE
  5
34E
330
1F
100
AcDbEntity
  8
0
  6
Continuous
 62
     7
370
    15
100
AcDbLine
 10
11409.2511263353
 20
5322.4181523595
 30
0.0
 11
10009.1649595451
 21
3955.8911319467
 31
0.0
  0
ARC
  5
34F
330
1F
100
AcDbEntity
  8
0
  6
Continuous
 62
     7
370
    15
100
AcDbCircle
 10
11410.6298226395
 20
5321.0433430613
 30
0.0
 40
1.947024423508756
100
AcDbArc
 50
129.8836130858
 51
135.0808819479
  0
LINE
  5
350
330
1F
100
AcDbEntity
  8
0
  6
Continuous
 62
     7
370
    15
100
AcDbLine
 10
11734.758507135
 20
9464.3732873276
 30
0.0
 11
8734.758507135
 21
9464.3732873276
 31
0.0
  0
LINE
  5
351
330
1F
100
AcDbEntity
  8
0
  6
Continuous
 62
     7
370
    15
100
AcDbLine
 10
8734.758507135
 20
9444.3732877746
 30
0.0
 11
11734.758507135
 21
9444.3732877746
 31
0.0
  0
LINE
  5
352
330
1F
100
AcDbEntity
  8
0
  6
Continuous
 62
     7
370
    15
100
AcDbLine
 10
11734.758507135
 20
9454.1622865702
 30
0.0
 11
8734.758507135
 21
9454.1622865702
 31
0.0
  0
LINE
  5
353
330
1F
100
AcDbEntity
  8
0
  6
Continuous
 62
     7
370
    15
100
AcDbLine
 10
11734.758507135
 20
9453.9750072484
 30
0.0
 11
8734.758507135
 21
9453.9750072484
 31
0.0
  0
LINE
  5
354
330
1F
100
AcDbEntity
  8
0
  6
Continuous
 62
     7
370
    15
100
AcDbLine
 10
8734.758507135
 20
9453.9750072484
 30
0.0
 11
8734.758507135
 21
9454.1622865702
 31
0.0
  0
LINE
  5
355
330
1F
100
AcDbEntity
  8
0
  6
Continuous
 62
     7
370
    15
100
AcDbLine
 10
11734.758507135
 20
9453.9750072484
 30
0.0
 11
11734.758507135
 21
9454.1622865702
 31
0.0
  0
LINE
  5
356
330
1F
100
AcDbEntity
  8
0
  6
Continuous
 62
     7
370
    15
100
AcDbLine
 10
11734.758507135
 20
9454.3493996182
 30
0.0
 11
8734.758507135
 21
9454.3493996182
 31
0.0
  0
LINE
  5
357
330
1F
100
AcDbEntity
  8
0
  6
Continuous
 62
     7
370
    15
100
AcDbLine
 10
8734.758507135
 20
9454.1622865702
 30
0.0
 11
8734.758507135
 21
9454.3493996182
 31
0.0
  0
LINE
  5
358
330
1F
100
AcDbEntity
  8
0
  6
Continuous
 62
     7
370
    15
100
AcDbLine
 10
11734.758507135
 20
9454.1622865702
 30
0.0
 11
11734.758507135
 21
9454.3493996182
 31
0.0
  0
LINE
  5
359
330
1F
100
AcDbEntity
  8
0
  6
Continuous
 62
     7
370
    15
100
AcDbLine
 10
11734.758507135
 20
9453.7881369372
 30
0.0
 11
8734.758507135
 21
9453.7881369372
 31
0.0
  0
LINE
  5
35A
330
1F
100
AcDbEntity
  8
0
  6
Continuous
 62
     7
370
    15
100
AcDbLine
 10
8734.758507135
 20
9453.7881369372
 30
0.0
 11
8734.758507135
 21
9453.9750072484
 31
0.0
  0
LINE
  5
35B
330
1F
100
AcDbEntity
  8
0
  6
Continuous
 62
     7
370
    15
100
AcDbLine
 10
11734.758507135
 20
9453.7881369372
 30
0.0
 11
11734.758507135
 21
9453.9750072484
 31
0.0
  0
LINE
  5
35C
330
1F
100
AcDbEntity
  8
0
  6
Continuous
 62
     7
370
    15
100
AcDbLine
 10
11734.758507135
 20
9454.5357715736
 30
0.0
 11
8734.758507135
 21
9454.5357715736
 31
0.0
  0
LINE
  5
35D
330
1F
100
AcDbEntity
  8
0
  6
Continuous
 62
     7
370
    15
100
AcDbLine
 10
8734.758507135
 20
9454.3493996182
 30
0.0
 11
8734.758507135
 21
9454.5357715736
 31
0.0
  0
LINE
  5
35E
330
1F
100
AcDbEntity
  8
0
  6
Continuous
 62
     7
370
    15
100
AcDbLine
 10
11734.758507135
 20
9454.3493996182
 30
0.0
 11
11734.758507135
 21
9454.5357715736
 31
0.0
  0
LINE
  5
35F
330
1F
100
AcDbEntity
  8
0
  6
Continuous
 62
     7
370
    15
100
AcDbLine
 10
11734.758507135
 20
9453.6022497243
 30
0.0
 11
8734.758507135
 21
9453.6022497243
 31
0.0
  0
LINE
  5
360
330
1F
100
AcDbEntity
  8
0
  6
Continuous
 62
     7
370
    15
100
AcDbLine
 10
8734.758507135
 20
9453.6022497243
 30
0.0
 11
8734.758507135
 21
9453.7881369372
 31
0.0
  0
LINE
  5
361
330
1F
100
AcDbEntity
  8
0
  6
Continuous
 62
     7
370
    15
100
AcDbLine
 10
11734.758507135
 20
9453.6022497243
 30
0.0
 11
11734.758507135
 21
9453.7881369372
 31
0.0
  0
LINE
  5
362
330
1F
100
AcDbEntity
  8
0
  6
Continuous
 62
     7
370
    15
100
AcDbLine
 10
11734.758507135
 20
9454.7208298948
 30
0.0
 11
8734.758507135
 21
9454.7208298948
 31
0.0
  0
LINE
  5
363
330
1F
100
AcDbEntity
  8
0
  6
Continuous
 62
     7
370
    15
100
AcDbLine
 10
8734.758507135
 20
9454.5357715736
 30
0.0
 11
8734.758507135
 21
9454.7208298948
 31
0.0
  0
LINE
  5
364
330
1F
100
AcDbEntity
  8
0
  6
Continuous
 62
     7
370
    15
100
AcDbLine
 10
11734.758507135
 20
9454.5357715736
 30
0.0
 11
11734.758507135
 21
9454.7208298948
 31
0.0
  0
LINE
  5
365
330
1F
100
AcDbEntity
  8
0
  6
Continuous
 62
     7
370
    15
100
AcDbLine
 10
11734.758507135
 20
9452.0609756485
 30
0.0
 11
8734.758507135
 21
9452.0609756485
 31
0.0
  0
LINE
  5
366
330
1F
100
AcDbEntity
  8
0
  6
Continuous
 62
     7
370
    15
100
AcDbLine
 10
8734.758507135
 20
9452.0609756485
 30
0.0
 11
8734.758507135
 21
9453.6022497243
 31
0.0
  0
LINE
  5
367
330
1F
100
AcDbEntity
  8
0
  6
Continuous
 62
     7
370
    15
100
AcDbLine
 10
11734.758507135
 20
9452.0609756485
 30
0.0
 11
11734.758507135
 21
9453.6022497243
 31
0.0
  0
LINE
  5
368
330
1F
100
AcDbEntity
  8
0
  6
Continuous
 62
     7
370
    15
100
AcDbLine
 10
11734.758507135
 20
9454.9040060858
 30
0.0
 11
8734.758507135
 21
9454.9040060858
 31
0.0
  0
LINE
  5
369
330
1F
100
AcDbEntity
  8
0
  6
Continuous
 62
     7
370
    15
100
AcDbLine
 10
8734.758507135
 20
9454.7208298948
 30
0.0
 11
8734.758507135
 21
9454.9040060858
 31
0.0
  0
LINE
  5
36A
330
1F
100
AcDbEntity
  8
0
  6
Continuous
 62
     7
370
    15
100
AcDbLine
 10
11734.758507135
 20
9454.7208298948
 30
0.0
 11
11734.758507135
 21
9454.9040060858
 31
0.0
  0
LINE
  5
36B
330
1F
100
AcDbEntity
  8
0
  6
Continuous
 62
     7
370
    15
100
AcDbLine
 10
11734.758507135
 20
9455.0847374387
 30
0.0
 11
8734.758507135
 21
9455.0847374387
 31
0.0
  0
LINE
  5
36C
330
1F
100
AcDbEntity
  8
0
  6
Continuous
 62
     7
370
    15
100
AcDbLine
 10
8734.758507135
 20
9454.9040060858
 30
0.0
 11
8734.758507135
 21
9455.0847374387
 31
0.0
  0
LINE
  5
36D
330
1F
100
AcDbEntity
  8
0
  6
Continuous
 62
     7
370
    15
100
AcDbLine
 10
11734.758507135
 20
9454.9040060858
 30
0.0
 11
11734.758507135
 21
9455.0847374387
 31
0.0
  0
LINE
  5
36E
330
1F
100
AcDbEntity
  8
0
  6
Continuous
 62
     7
370
    15
100
AcDbLine
 10
11734.758507135
 20
9455.7850556932
 30
0.0
 11
8734.758507135
 21
9455.7850556932
 31
0.0
  0
LINE
  5
36F
330
1F
100
AcDbEntity
  8
0
  6
Continuous
 62
     7
370
    15
100
AcDbLine
 10
8734.758507135
 20
9455.0847374387
 30
0.0
 11
8734.758507135
 21
9455.7850556932
 31
0.0
  0
LINE
  5
370
330
1F
100
AcDbEntity
  8
0
  6
Continuous
 62
     7
370
    15
100
AcDbLine
 10
11734.758507135
 20
9455.0847374387
 30
0.0
 11
11734.758507135
 21
9455.7850556932
 31
0.0
  0
LINE
  5
371
330
1F
100
AcDbEntity
  8
0
  6
Continuous
 62
     7
370
    15
100
AcDbLine
 10
11734.758507135
 20
9451.8941629697
 30
0.0
 11
8734.758507135
 21
9451.8941629697
 31
0.0
  0
LINE
  5
372
330
1F
100
AcDbEntity
  8
0
  6
Continuous
 62
     7
370
    15
100
AcDbLine
 10
8734.758507135
 20
9451.8941629697
 30
0.0
 11
8734.758507135
 21
9452.0609756485
 31
0.0
  0
LINE
  5
373
330
1F
100
AcDbEntity
  8
0
  6
Continuous
 62
     7
370
    15
100
AcDbLine
 10
11734.758507135
 20
9451.8941629697
 30
0.0
 11
11734.758507135
 21
9452.0609756485
 31
0.0
  0
LINE
  5
374
330
1F
100
AcDbEntity
  8
0
  6
Continuous
 62
     7
370
    15
100
AcDbLine
 10
11734.758507135
 20
9451.7290413398
 30
0.0
 11
8734.758507135
 21
9451.7290413398
 31
0.0
  0
LINE
  5
375
330
1F
100
AcDbEntity
  8
0
  6
Continuous
 62
     7
370
    15
100
AcDbLine
 10
8734.758507135
 20
9451.7290413398
 30
0.0
 11
8734.758507135
 21
9451.8941629697
 31
0.0
  0
LINE
  5
376
330
1F
100
AcDbEntity
  8
0
  6
Continuous
 62
     7
370
    15
100
AcDbLine
 10
11734.758507135
 20
9451.7290413398
 30
0.0
 11
11734.758507135
 21
9451.8941629697
 31
0.0
  0
LINE
  5
377
330
1F
100
AcDbEntity
  8
0
  6
Continuous
 62
     7
370
    15
100
AcDbLine
 10
11734.758507135
 20
9451.5660254303
 30
0.0
 11
8734.758507135
 21
9451.5660254303
 31
0.0
  0
LINE
  5
378
330
1F
100
AcDbEntity
  8
0
  6
Continuous
 62
     7
370
    15
100
AcDbLine
 10
8734.758507135
 20
9451.5660254303
 30
0.0
 11
8734.758507135
 21
9451.7290413398
 31
0.0
  0
LINE
  5
379
330
1F
100
AcDbEntity
  8
0
  6
Continuous
 62
     7
370
    15
100
AcDbLine
 10
11734.758507135
 20
9451.5660254303
 30
0.0
 11
11734.758507135
 21
9451.7290413398
 31
0.0
  0
LINE
  5
37A
330
1F
100
AcDbEntity
  8
0
  6
Continuous
 62
     7
370
    15
100
AcDbLine
 10
11734.758507135
 20
9456.4914014675
 30
0.0
 11
8734.758507135
 21
9456.4914014675
 31
0.0
  0
LINE
  5
37B
330
1F
100
AcDbEntity
  8
0
  6
Continuous
 62
     7
370
    15
100
AcDbLine
 10
8734.758507135
 20
9455.7850556932
 30
0.0
 11
8734.758507135
 21
9456.4914014675
 31
0.0
  0
LINE
  5
37C
330
1F
100
AcDbEntity
  8
0
  6
Continuous
 62
     7
370
    15
100
AcDbLine
 10
11734.758507135
 20
9455.7850556932
 30
0.0
 11
11734.758507135
 21
9456.4914014675
 31
0.0
  0
LINE
  5
37D
330
1F
100
AcDbEntity
  8
0
  6
Continuous
 62
     7
370
    15
100
AcDbLine
 10
11734.758507135
 20
9451.4055250231
 30
0.0
 11
8734.758507135
 21
9451.4055250231
 31
0.0
  0
LINE
  5
37E
330
1F
100
AcDbEntity
  8
0
  6
Continuous
 62
     7
370
    15
100
AcDbLine
 10
8734.758507135
 20
9451.4055250231
 30
0.0
 11
8734.758507135
 21
9451.5660254303
 31
0.0
  0
LINE
  5
37F
330
1F
100
AcDbEntity
  8
0
  6
Continuous
 62
     7
370
    15
100
AcDbLine
 10
11734.758507135
 20
9451.4055250231
 30
0.0
 11
11734.758507135
 21
9451.5660254303
 31
0.0
  0
LINE
  5
380
330
1F
100
AcDbEntity
  8
0
  6
Continuous
 62
     7
370
    15
100
AcDbLine
 10
11734.758507135
 20
9451.2479436137
 30
0.0
 11
8734.758507135
 21
9451.2479436137
 31
0.0
  0
LINE
  5
381
330
1F
100
AcDbEntity
  8
0
  6
Continuous
 62
     7
370
    15
100
AcDbLine
 10
8734.758507135
 20
9451.2479436137
 30
0.0
 11
8734.758507135
 21
9451.4055250231
 31
0.0
  0
LINE
  5
382
330
1F
100
AcDbEntity
  8
0
  6
Continuous
 62
     7
370
    15
100
AcDbLine
 10
11734.758507135
 20
9451.2479436137
 30
0.0
 11
11734.758507135
 21
9451.4055250231
 31
0.0
  0
LINE
  5
383
330
1F
100
AcDbEntity
  8
0
  6
Continuous
 62
     7
370
    15
100
AcDbLine
 10
11734.758507135
 20
9451.093677247
 30
0.0
 11
8734.758507135
 21
9451.093677247
 31
0.0
  0
LINE
  5
384
330
1F
100
AcDbEntity
  8
0
  6
Continuous
 62
     7
370
    15
100
AcDbLine
 10
8734.758507135
 20
9451.093677247
 30
0.0
 11
8734.758507135
 21
9451.2479436137
 31
0.0
  0
LINE
  5
385
330
1F
100
AcDbEntity
  8
0
  6
Continuous
 62
     7
370
    15
100
AcDbLine
 10
11734.758507135
 20
9451.093677247
 30
0.0
 11
11734.758507135
 21
9451.2479436137
 31
0.0
  0
LINE
  5
386
330
1F
100
AcDbEntity
  8
0
  6
Continuous
 62
     7
370
    15
100
AcDbLine
 10
11734.758507135
 20
9457.2030483298
 30
0.0
 11
8734.758507135
 21
9457.2030483298
 31
0.0
  0
LINE
  5
387
330
1F
100
AcDbEntity
  8
0
  6
Continuous
 62
     7
370
    15
100
AcDbLine
 10
8734.758507135
 20
9456.4914014675
 30
0.0
 11
8734.758507135
 21
9457.2030483298
 31
0.0
  0
LINE
  5
388
330
1F
100
AcDbEntity
  8
0
  6
Continuous
 62
     7
370
    15
100
AcDbLine
 10
11734.758507135
 20
9456.4914014675
 30
0.0
 11
11734.758507135
 21
9457.2030483298
 31
0.0
  0
LINE
  5
389
330
1F
100
AcDbEntity
  8
0
  6
Continuous
 62
     7
370
    15
100
AcDbLine
 10
11734.758507135
 20
9450.9431135859
 30
0.0
 11
8734.758507135
 21
9450.9431135859
 31
0.0
  0
LINE
  5
38A
330
1F
100
AcDbEntity
  8
0
  6
Continuous
 62
     7
370
    15
100
AcDbLine
 10
8734.758507135
 20
9450.9431135859
 30
0.0
 11
8734.758507135
 21
9451.093677247
 31
0.0
  0
LINE
  5
38B
330
1F
100
AcDbEntity
  8
0
  6
Continuous
 62
     7
370
    15
100
AcDbLine
 10
11734.758507135
 20
9450.9431135859
 30
0.0
 11
11734.758507135
 21
9451.093677247
 31
0.0
  0
LINE
  5
38C
330
1F
100
AcDbEntity
  8
0
  6
Continuous
 62
     7
370
    15
100
AcDbLine
 10
11734.758507135
 20
9450.7966309805
 30
0.0
 11
8734.758507135
 21
9450.7966309805
 31
0.0
  0
LINE
  5
38D
330
1F
100
AcDbEntity
  8
0
  6
Continuous
 62
     7
370
    15
100
AcDbLine
 10
8734.758507135
 20
9450.7966309805
 30
0.0
 11
8734.758507135
 21
9450.9431135859
 31
0.0
  0
LINE
  5
38E
330
1F
100
AcDbEntity
  8
0
  6
Continuous
 62
     7
370
    15
100
AcDbLine
 10
11734.758507135
 20
9450.7966309805
 30
0.0
 11
11734.758507135
 21
9450.9431135859
 31
0.0
  0
LINE
  5
38F
330
1F
100
AcDbEntity
  8
0
  6
Continuous
 62
     7
370
    15
100
AcDbLine
 10
11734.758507135
 20
9457.9192644935
 30
0.0
 11
8734.758507135
 21
9457.9192644935
 31
0.0
  0
LINE
  5
390
330
1F
100
AcDbEntity
  8
0
  6
Continuous
 62
     7
370
    15
100
AcDbLine
 10
8734.758507135
 20
9457.2030483298
 30
0.0
 11
8734.758507135
 21
9457.9192644935
 31
0.0
  0
LINE
  5
391
330
1F
100
AcDbEntity
  8
0
  6
Continuous
 62
     7
370
    15
100
AcDbLine
 10
11734.758507135
 20
9457.2030483298
 30
0.0
 11
11734.758507135
 21
9457.9192644935
 31
0.0
  0
LINE
  5
392
330
1F
100
AcDbEntity
  8
0
  6
Continuous
 62
     7
370
    15
100
AcDbLine
 10
11734.758507135
 20
9447.8113810085
 30
0.0
 11
8734.758507135
 21
9447.8113810085
 31
0.0
  0
LINE
  5
393
330
1F
100
AcDbEntity
  8
0
  6
Continuous
 62
     7
370
    15
100
AcDbLine
 10
8734.758507135
 20
9447.8113810085
 30
0.0
 11
8734.758507135
 21
9450.7966309805
 31
0.0
  0
LINE
  5
394
330
1F
100
AcDbEntity
  8
0
  6
Continuous
 62
     7
370
    15
100
AcDbLine
 10
11734.758507135
 20
9447.8113810085
 30
0.0
 11
11734.758507135
 21
9450.7966309805
 31
0.0
  0
LINE
  5
395
330
1F
100
AcDbEntity
  8
0
  6
Continuous
 62
     7
370
    15
100
AcDbLine
 10
11734.758507135
 20
9458.1466371212
 30
0.0
 11
8734.758507135
 21
9458.1466371212
 31
0.0
  0
LINE
  5
396
330
1F
100
AcDbEntity
  8
0
  6
Continuous
 62
     7
370
    15
100
AcDbLine
 10
8734.758507135
 20
9457.9192644935
 30
0.0
 11
8734.758507135
 21
9458.1466371212
 31
0.0
  0
LINE
  5
397
330
1F
100
AcDbEntity
  8
0
  6
Continuous
 62
     7
370
    15
100
AcDbLine
 10
11734.758507135
 20
9457.9192644935
 30
0.0
 11
11734.758507135
 21
9458.1466371212
 31
0.0
  0
LINE
  5
398
330
1F
100
AcDbEntity
  8
0
  6
Continuous
 62
     7
370
    15
100
AcDbLine
 10
11734.758507135
 20
9458.3703247383
 30
0.0
 11
8734.758507135
 21
9458.3703247383
 31
0.0
  0
LINE
  5
399
330
1F
100
AcDbEntity
  8
0
  6
Continuous
 62
     7
370
    15
100
AcDbLine
 10
8734.758507135
 20
9458.1466371212
 30
0.0
 11
8734.758507135
 21
9458.3703247383
 31
0.0
  0
LINE
  5
39A
330
1F
100
AcDbEntity
  8
0
  6
Continuous
 62
     7
370
    15
100
AcDbLine
 10
11734.758507135
 20
9458.1466371212
 30
0.0
 11
11734.758507135
 21
9458.3703247383
 31
0.0
  0
LINE
  5
39B
330
1F
100
AcDbEntity
  8
0
  6
Continuous
 62
     7
370
    15
100
AcDbLine
 10
11734.758507135
 20
9458.589272622
 30
0.0
 11
8734.758507135
 21
9458.589272622
 31
0.0
  0
LINE
  5
39C
330
1F
100
AcDbEntity
  8
0
  6
Continuous
 62
     7
370
    15
100
AcDbLine
 10
8734.758507135
 20
9458.3703247383
 30
0.0
 11
8734.758507135
 21
9458.589272622
 31
0.0
  0
LINE
  5
39D
330
1F
100
AcDbEntity
  8
0
  6
Continuous
 62
     7
370
    15
100
AcDbLine
 10
11734.758507135
 20
9458.3703247383
 30
0.0
 11
11734.758507135
 21
9458.589272622
 31
0.0
  0
LINE
  5
39E
330
1F
100
AcDbEntity
  8
0
  6
Continuous
 62
     7
370
    15
100
AcDbLine
 10
11734.758507135
 20
9458.8024495654
 30
0.0
 11
8734.758507135
 21
9458.8024495654
 31
0.0
  0
LINE
  5
39F
330
1F
100
AcDbEntity
  8
0
  6
Continuous
 62
     7
370
    15
100
AcDbLine
 10
8734.758507135
 20
9458.589272622
 30
0.0
 11
8734.758507135
 21
9458.8024495654
 31
0.0
  0
LINE
  5
3A0
330
1F
100
AcDbEntity
  8
0
  6
Continuous
 62
     7
370
    15
100
AcDbLine
 10
11734.758507135
 20
9458.589272622
 30
0.0
 11
11734.758507135
 21
9458.8024495654
 31
0.0
  0
LINE
  5
3A1
330
1F
100
AcDbEntity
  8
0
  6
Continuous
 62
     7
370
    15
100
AcDbLine
 10
11734.758507135
 20
9459.008851137
 30
0.0
 11
8734.758507135
 21
9459.008851137
 31
0.0
  0
LINE
  5
3A2
330
1F
100
AcDbEntity
  8
0
  6
Continuous
 62
     7
370
    15
100
AcDbLine
 10
8734.758507135
 20
9458.8024495654
 30
0.0
 11
8734.758507135
 21
9459.008851137
 31
0.0
  0
LINE
  5
3A3
330
1F
100
AcDbEntity
  8
0
  6
Continuous
 62
     7
370
    15
100
AcDbLine
 10
11734.758507135
 20
9458.8024495654
 30
0.0
 11
11734.758507135
 21
9459.008851137
 31
0.0
  0
LINE
  5
3A4
330
1F
100
AcDbEntity
  8
0
  6
Continuous
 62
     7
370
    15
100
AcDbLine
 10
11734.758507135
 20
9459.2075045705
 30
0.0
 11
8734.758507135
 21
9459.2075045705
 31
0.0
  0
LINE
  5
3A5
330
1F
100
AcDbEntity
  8
0
  6
Continuous
 62
     7
370
    15
100
AcDbLine
 10
8734.758507135
 20
9459.008851137
 30
0.0
 11
8734.758507135
 21
9459.2075045705
 31
0.0
  0
LINE
  5
3A6
330
1F
100
AcDbEntity
  8
0
  6
Continuous
 62
     7
370
    15
100
AcDbLine
 10
11734.758507135
 20
9459.008851137
 30
0.0
 11
11734.758507135
 21
9459.2075045705
 31
0.0
  0
LINE
  5
3A7
330
1F
100
AcDbEntity
  8
0
  6
Continuous
 62
     7
370
    15
100
AcDbLine
 10
11734.758507135
 20
9459.397473421
 30
0.0
 11
8734.758507135
 21
9459.397473421
 31
0.0
  0
LINE
  5
3A8
330
1F
100
AcDbEntity
  8
0
  6
Continuous
 62
     7
370
    15
100
AcDbLine
 10
8734.758507135
 20
9459.2075045705
 30
0.0
 11
8734.758507135
 21
9459.397473421
 31
0.0
  0
LINE
  5
3A9
330
1F
100
AcDbEntity
  8
0
  6
Continuous
 62
     7
370
    15
100
AcDbLine
 10
11734.758507135
 20
9459.2075045705
 30
0.0
 11
11734.758507135
 21
9459.397473421
 31
0.0
  0
LINE
  5
3AA
330
1F
100
AcDbEntity
  8
0
  6
Continuous
 62
     7
370
    15
100
AcDbLine
 10
11734.758507135
 20
9459.5778636187
 30
0.0
 11
8734.758507135
 21
9459.5778636187
 31
0.0
  0
LINE
  5
3AB
330
1F
100
AcDbEntity
  8
0
  6
Continuous
 62
     7
370
    15
100
AcDbLine
 10
8734.758507135
 20
9459.397473421
 30
0.0
 11
8734.758507135
 21
9459.5778636187
 31
0.0
  0
LINE
  5
3AC
330
1F
100
AcDbEntity
  8
0
  6
Continuous
 62
     7
370
    15
100
AcDbLine
 10
11734.758507135
 20
9459.397473421
 30
0.0
 11
11734.758507135
 21
9459.5778636187
 31
0.0
  0
LINE
  5
3AD
330
1F
100
AcDbEntity
  8
0
  6
Continuous
 62
     7
370
    15
100
AcDbLine
 10
11734.758507135
 20
9460.0213598944
 30
0.0
 11
8734.758507135
 21
9460.0213598944
 31
0.0
  0
LINE
  5
3AE
330
1F
100
AcDbEntity
  8
0
  6
Continuous
 62
     7
370
    15
100
AcDbLine
 10
8734.758507135
 20
9459.5778636187
 30
0.0
 11
8734.758507135
 21
9460.0213598944
 31
0.0
  0
LINE
  5
3AF
330
1F
100
AcDbEntity
  8
0
  6
Continuous
 62
     7
370
    15
100
AcDbLine
 10
11734.758507135
 20
9459.5778636187
 30
0.0
 11
11734.758507135
 21
9460.0213598944
 31
0.0
  0
LINE
  5
3B0
330
1F
100
AcDbEntity
  8
0
  6
Continuous
 62
     7
370
    15
100
AcDbLine
 10
11734.758507135
 20
9460.4583415687
 30
0.0
 11
8734.758507135
 21
9460.4583415687
 31
0.0
  0
LINE
  5
3B1
330
1F
100
AcDbEntity
  8
0
  6
Continuous
 62
     7
370
    15
100
AcDbLine
 10
8734.758507135
 20
9460.0213598944
 30
0.0
 11
8734.758507135
 21
9460.4583415687
 31
0.0
  0
LINE
  5
3B2
330
1F
100
AcDbEntity
  8
0
  6
Continuous
 62
     7
370
    15
100
AcDbLine
 10
11734.758507135
 20
9460.0213598944
 30
0.0
 11
11734.758507135
 21
9460.4583415687
 31
0.0
  0
LINE
  5
3B3
330
1F
100
AcDbEntity
  8
0
  6
Continuous
 62
     7
370
    15
100
AcDbLine
 10
11734.758507135
 20
9460.8879713826
 30
0.0
 11
8734.758507135
 21
9460.8879713826
 31
0.0
  0
LINE
  5
3B4
330
1F
100
AcDbEntity
  8
0
  6
Continuous
 62
     7
370
    15
100
AcDbLine
 10
8734.758507135
 20
9460.4583415687
 30
0.0
 11
8734.758507135
 21
9460.8879713826
 31
0.0
  0
LINE
  5
3B5
330
1F
100
AcDbEntity
  8
0
  6
Continuous
 62
     7
370
    15
100
AcDbLine
 10
11734.758507135
 20
9460.4583415687
 30
0.0
 11
11734.758507135
 21
9460.8879713826
 31
0.0
  0
LINE
  5
3B6
330
1F
100
AcDbEntity
  8
0
  6
Continuous
 62
     7
370
    15
100
AcDbLine
 10
11734.758507135
 20
9447.6392758563
 30
0.0
 11
8734.758507135
 21
9447.6392758563
 31
0.0
  0
LINE
  5
3B7
330
1F
100
AcDbEntity
  8
0
  6
Continuous
 62
     7
370
    15
100
AcDbLine
 10
8734.758507135
 20
9447.6392758563
 30
0.0
 11
8734.758507135
 21
9447.8113810085
 31
0.0
  0
LINE
  5
3B8
330
1F
100
AcDbEntity
  8
0
  6
Continuous
 62
     7
370
    15
100
AcDbLine
 10
11734.758507135
 20
9447.6392758563
 30
0.0
 11
11734.758507135
 21
9447.8113810085
 31
0.0
  0
LINE
  5
3B9
330
1F
100
AcDbEntity
  8
0
  6
Continuous
 62
     7
370
    15
100
AcDbLine
 10
11734.758507135
 20
9447.4743893854
 30
0.0
 11
8734.758507135
 21
9447.4743893854
 31
0.0
  0
LINE
  5
3BA
330
1F
100
AcDbEntity
  8
0
  6
Continuous
 62
     7
370
    15
100
AcDbLine
 10
8734.758507135
 20
9447.4743893854
 30
0.0
 11
8734.758507135
 21
9447.6392758563
 31
0.0
  0
LINE
  5
3BB
330
1F
100
AcDbEntity
  8
0
  6
Continuous
 62
     7
370
    15
100
AcDbLine
 10
11734.758507135
 20
9447.4743893854
 30
0.0
 11
11734.758507135
 21
9447.6392758563
 31
0.0
  0
LINE
  5
3BC
330
1F
100
AcDbEntity
  8
0
  6
Continuous
 62
     7
370
    15
100
AcDbLine
 10
11734.758507135
 20
9461.3101063781
 30
0.0
 11
8734.758507135
 21
9461.3101063781
 31
0.0
  0
LINE
  5
3BD
330
1F
100
AcDbEntity
  8
0
  6
Continuous
 62
     7
370
    15
100
AcDbLine
 10
8734.758507135
 20
9460.8879713826
 30
0.0
 11
8734.758507135
 21
9461.3101063781
 31
0.0
  0
LINE
  5
3BE
330
1F
100
AcDbEntity
  8
0
  6
Continuous
 62
     7
370
    15
100
AcDbLine
 10
11734.758507135
 20
9460.8879713826
 30
0.0
 11
11734.758507135
 21
9461.3101063781
 31
0.0
  0
LINE
  5
3BF
330
1F
100
AcDbEntity
  8
0
  6
Continuous
 62
     7
370
    15
100
AcDbLine
 10
11734.758507135
 20
9447.3173348718
 30
0.0
 11
8734.758507135
 21
9447.3173348718
 31
0.0
  0
LINE
  5
3C0
330
1F
100
AcDbEntity
  8
0
  6
Continuous
 62
     7
370
    15
100
AcDbLine
 10
8734.758507135
 20
9447.3173348718
 30
0.0
 11
8734.758507135
 21
9447.4743893854
 31
0.0
  0
LINE
  5
3C1
330
1F
100
AcDbEntity
  8
0
  6
Continuous
 62
     7
370
    15
100
AcDbLine
 10
11734.758507135
 20
9447.3173348718
 30
0.0
 11
11734.758507135
 21
9447.4743893854
 31
0.0
  0
LINE
  5
3C2
330
1F
100
AcDbEntity
  8
0
  6
Continuous
 62
     7
370
    15
100
AcDbLine
 10
11734.758507135
 20
9447.1686957888
 30
0.0
 11
8734.758507135
 21
9447.1686957888
 31
0.0
  0
LINE
  5
3C3
330
1F
100
AcDbEntity
  8
0
  6
Continuous
 62
     7
370
    15
100
AcDbLine
 10
8734.758507135
 20
9447.1686957888
 30
0.0
 11
8734.758507135
 21
9447.3173348718
 31
0.0
  0
LINE
  5
3C4
330
1F
100
AcDbEntity
  8
0
  6
Continuous
 62
     7
370
    15
100
AcDbLine
 10
11734.758507135
 20
9447.1686957888
 30
0.0
 11
11734.758507135
 21
9447.3173348718
 31
0.0
  0
LINE
  5
3C5
330
1F
100
AcDbEntity
  8
0
  6
Continuous
 62
     7
370
    15
100
AcDbLine
 10
11734.758507135
 20
9447.029024411
 30
0.0
 11
8734.758507135
 21
9447.029024411
 31
0.0
  0
LINE
  5
3C6
330
1F
100
AcDbEntity
  8
0
  6
Continuous
 62
     7
370
    15
100
AcDbLine
 10
8734.758507135
 20
9447.029024411
 30
0.0
 11
8734.758507135
 21
9447.1686957888
 31
0.0
  0
LINE
  5
3C7
330
1F
100
AcDbEntity
  8
0
  6
Continuous
 62
     7
370
    15
100
AcDbLine
 10
11734.758507135
 20
9447.029024411
 30
0.0
 11
11734.758507135
 21
9447.1686957888
 31
0.0
  0
LINE
  5
3C8
330
1F
100
AcDbEntity
  8
0
  6
Continuous
 62
     7
370
    15
100
AcDbLine
 10
11734.758507135
 20
9461.7246063911
 30
0.0
 11
8734.758507135
 21
9461.7246063911
 31
0.0
  0
LINE
  5
3C9
330
1F
100
AcDbEntity
  8
0
  6
Continuous
 62
     7
370
    15
100
AcDbLine
 10
8734.758507135
 20
9461.3101063781
 30
0.0
 11
8734.758507135
 21
9461.7246063911
 31
0.0
  0
LINE
  5
3CA
330
1F
100
AcDbEntity
  8
0
  6
Continuous
 62
     7
370
    15
100
AcDbLine
 10
11734.758507135
 20
9461.3101063781
 30
0.0
 11
11734.758507135
 21
9461.7246063911
 31
0.0
  0
LINE
  5
3CB
330
1F
100
AcDbEntity
  8
0
  6
Continuous
 62
     7
370
    15
100
AcDbLine
 10
11734.758507135
 20
9446.8988399506
 30
0.0
 11
8734.758507135
 21
9446.8988399506
 31
0.0
  0
LINE
  5
3CC
330
1F
100
AcDbEntity
  8
0
  6
Continuous
 62
     7
370
    15
100
AcDbLine
 10
8734.758507135
 20
9446.8988399506
 30
0.0
 11
8734.758507135
 21
9447.029024411
 31
0.0
  0
LINE
  5
3CD
330
1F
100
AcDbEntity
  8
0
  6
Continuous
 62
     7
370
    15
100
AcDbLine
 10
11734.758507135
 20
9446.8988399506
 30
0.0
 11
11734.758507135
 21
9447.029024411
 31
0.0
  0
LINE
  5
3CE
330
1F
100
AcDbEntity
  8
0
  6
Continuous
 62
     7
370
    15
100
AcDbLine
 10
11734.758507135
 20
9446.7786266953
 30
0.0
 11
8734.758507135
 21
9446.7786266953
 31
0.0
  0
LINE
  5
3CF
330
1F
100
AcDbEntity
  8
0
  6
Continuous
 62
     7
370
    15
100
AcDbLine
 10
8734.758507135
 20
9446.7786266953
 30
0.0
 11
8734.758507135
 21
9446.8988399506
 31
0.0
  0
LINE
  5
3D0
330
1F
100
AcDbEntity
  8
0
  6
Continuous
 62
     7
370
    15
100
AcDbLine
 10
11734.758507135
 20
9446.7786266953
 30
0.0
 11
11734.758507135
 21
9446.8988399506
 31
0.0
  0
LINE
  5
3D1
330
1F
100
AcDbEntity
  8
0
  6
Continuous
 62
     7
370
    15
100
AcDbLine
 10
11734.758507135
 20
9446.6688307487
 30
0.0
 11
8734.758507135
 21
9446.6688307487
 31
0.0
  0
LINE
  5
3D2
330
1F
100
AcDbEntity
  8
0
  6
Continuous
 62
     7
370
    15
100
AcDbLine
 10
8734.758507135
 20
9446.6688307487
 30
0.0
 11
8734.758507135
 21
9446.7786266953
 31
0.0
  0
LINE
  5
3D3
330
1F
100
AcDbEntity
  8
0
  6
Continuous
 62
     7
370
    15
100
AcDbLine
 10
11734.758507135
 20
9446.6688307487
 30
0.0
 11
11734.758507135
 21
9446.7786266953
 31
0.0
  0
LINE
  5
3D4
330
1F
100
AcDbEntity
  8
0
  6
Continuous
 62
     7
370
    15
100
AcDbLine
 10
11734.758507135
 20
9462.1313349828
 30
0.0
 11
8734.758507135
 21
9462.1313349828
 31
0.0
  0
LINE
  5
3D5
330
1F
100
AcDbEntity
  8
0
  6
Continuous
 62
     7
370
    15
100
AcDbLine
 10
8734.758507135
 20
9461.7246063911
 30
0.0
 11
8734.758507135
 21
9462.1313349828
 31
0.0
  0
LINE
  5
3D6
330
1F
100
AcDbEntity
  8
0
  6
Continuous
 62
     7
370
    15
100
AcDbLine
 10
11734.758507135
 20
9461.7246063911
 30
0.0
 11
11734.758507135
 21
9462.1313349828
 31
0.0
  0
LINE
  5
3D7
330
1F
100
AcDbEntity
  8
0
  6
Continuous
 62
     7
370
    15
100
AcDbLine
 10
11734.758507135
 20
9445.366752848
 30
0.0
 11
8734.758507135
 21
9445.366752848
 31
0.0
  0
LINE
  5
3D8
330
1F
100
AcDbEntity
  8
0
  6
Continuous
 62
     7
370
    15
100
AcDbLine
 10
8734.758507135
 20
9445.366752848
 30
0.0
 11
8734.758507135
 21
9446.6688307487
 31
0.0
  0
LINE
  5
3D9
330
1F
100
AcDbEntity
  8
0
  6
Continuous
 62
     7
370
    15
100
AcDbLine
 10
11734.758507135
 20
9445.366752848
 30
0.0
 11
11734.758507135
 21
9446.6688307487
 31
0.0
  0
LINE
  5
3DA
330
1F
100
AcDbEntity
  8
0
  6
Continuous
 62
     7
370
    15
100
AcDbLine
 10
11734.758507135
 20
9462.5301571116
 30
0.0
 11
8734.758507135
 21
9462.5301571116
 31
0.0
  0
LINE
  5
3DB
330
1F
100
AcDbEntity
  8
0
  6
Continuous
 62
     7
370
    15
100
AcDbLine
 10
8734.758507135
 20
9462.1313349828
 30
0.0
 11
8734.758507135
 21
9462.5301571116
 31
0.0
  0
LINE
  5
3DC
330
1F
100
AcDbEntity
  8
0
  6
Continuous
 62
     7
370
    15
100
AcDbLine
 10
11734.758507135
 20
9462.1313349828
 30
0.0
 11
11734.758507135
 21
9462.5301571116
 31
0.0
  0
LINE
  5
3DD
330
1F
100
AcDbEntity
  8
0
  6
Continuous
 62
     7
370
    15
100
AcDbLine
 10
11734.758507135
 20
9462.9209419265
 30
0.0
 11
8734.758507135
 21
9462.9209419265
 31
0.0
  0
LINE
  5
3DE
330
1F
100
AcDbEntity
  8
0
  6
Continuous
 62
     7
370
    15
100
AcDbLine
 10
8734.758507135
 20
9462.5301571116
 30
0.0
 11
8734.758507135
 21
9462.9209419265
 31
0.0
  0
LINE
  5
3DF
330
1F
100
AcDbEntity
  8
0
  6
Continuous
 62
     7
370
    15
100
AcDbLine
 10
11734.758507135
 20
9462.5301571116
 30
0.0
 11
11734.758507135
 21
9462.9209419265
 31
0.0
  0
LINE
  5
3E0
330
1F
100
AcDbEntity
  8
0
  6
Continuous
 62
     7
370
    15
100
AcDbLine
 10
11734.758507135
 20
9463.0573536754
 30
0.0
 11
8734.758507135
 21
9463.0573536754
 31
0.0
  0
LINE
  5
3E1
330
1F
100
AcDbEntity
  8
0
  6
Continuous
 62
     7
370
    15
100
AcDbLine
 10
8734.758507135
 20
9462.9209419265
 30
0.0
 11
8734.758507135
 21
9463.0573536754
 31
0.0
  0
LINE
  5
3E2
330
1F
100
AcDbEntity
  8
0
  6
Continuous
 62
     7
370
    15
100
AcDbLine
 10
11734.758507135
 20
9462.9209419265
 30
0.0
 11
11734.758507135
 21
9463.0573536754
 31
0.0
  0
LINE
  5
3E3
330
1F
100
AcDbEntity
  8
0
  6
Continuous
 62
     7
370
    15
100
AcDbLine
 10
11734.758507135
 20
9463.1826221496
 30
0.0
 11
8734.758507135
 21
9463.1826221496
 31
0.0
  0
LINE
  5
3E4
330
1F
100
AcDbEntity
  8
0
  6
Continuous
 62
     7
370
    15
100
AcDbLine
 10
8734.758507135
 20
9463.0573536754
 30
0.0
 11
8734.758507135
 21
9463.1826221496
 31
0.0
  0
LINE
  5
3E5
330
1F
100
AcDbEntity
  8
0
  6
Continuous
 62
     7
370
    15
100
AcDbLine
 10
11734.758507135
 20
9463.0573536754
 30
0.0
 11
11734.758507135
 21
9463.1826221496
 31
0.0
  0
LINE
  5
3E6
330
1F
100
AcDbEntity
  8
0
  6
Continuous
 62
     7
370
    15
100
AcDbLine
 10
11734.758507135
 20
9463.2962286025
 30
0.0
 11
8734.758507135
 21
9463.2962286025
 31
0.0
  0
LINE
  5
3E7
330
1F
100
AcDbEntity
  8
0
  6
Continuous
 62
     7
370
    15
100
AcDbLine
 10
8734.758507135
 20
9463.1826221496
 30
0.0
 11
8734.758507135
 21
9463.2962286025
 31
0.0
  0
LINE
  5
3E8
330
1F
100
AcDbEntity
  8
0
  6
Continuous
 62
     7
370
    15
100
AcDbLine
 10
11734.758507135
 20
9463.1826221496
 30
0.0
 11
11734.758507135
 21
9463.2962286025
 31
0.0
  0
LINE
  5
3E9
330
1F
100
AcDbEntity
  8
0
  6
Continuous
 62
     7
370
    15
100
AcDbLine
 10
11734.758507135
 20
9463.3977055103
 30
0.0
 11
8734.758507135
 21
9463.3977055103
 31
0.0
  0
LINE
  5
3EA
330
1F
100
AcDbEntity
  8
0
  6
Continuous
 62
     7
370
    15
100
AcDbLine
 10
8734.758507135
 20
9463.2962286025
 30
0.0
 11
8734.758507135
 21
9463.3977055103
 31
0.0
  0
LINE
  5
3EB
330
1F
100
AcDbEntity
  8
0
  6
Continuous
 62
     7
370
    15
100
AcDbLine
 10
11734.758507135
 20
9463.2962286025
 30
0.0
 11
11734.758507135
 21
9463.3977055103
 31
0.0
  0
LINE
  5
3EC
330
1F
100
AcDbEntity
  8
0
  6
Continuous
 62
     7
370
    15
100
AcDbLine
 10
11734.758507135
 20
9463.4866328463
 30
0.0
 11
8734.758507135
 21
9463.4866328463
 31
0.0
  0
LINE
  5
3ED
330
1F
100
AcDbEntity
  8
0
  6
Continuous
 62
     7
370
    15
100
AcDbLine
 10
8734.758507135
 20
9463.3977055103
 30
0.0
 11
8734.758507135
 21
9463.4866328463
 31
0.0
  0
LINE
  5
3EE
330
1F
100
AcDbEntity
  8
0
  6
Continuous
 62
     7
370
    15
100
AcDbLine
 10
11734.758507135
 20
9463.3977055103
 30
0.0
 11
11734.758507135
 21
9463.4866328463
 31
0.0
  0
LINE
  5
3EF
330
1F
100
AcDbEntity
  8
0
  6
Continuous
 62
     7
370
    15
100
AcDbLine
 10
11734.758507135
 20
9463.5626418069
 30
0.0
 11
8734.758507135
 21
9463.5626418069
 31
0.0
  0
LINE
  5
3F0
330
1F
100
AcDbEntity
  8
0
  6
Continuous
 62
     7
370
    15
100
AcDbLine
 10
8734.758507135
 20
9463.4866328463
 30
0.0
 11
8734.758507135
 21
9463.5626418069
 31
0.0
  0
LINE
  5
3F1
330
1F
100
AcDbEntity
  8
0
  6
Continuous
 62
     7
370
    15
100
AcDbLine
 10
11734.758507135
 20
9463.4866328463
 30
0.0
 11
11734.758507135
 21
9463.5626418069
 31
0.0
  0
LINE
  5
3F2
330
1F
100
AcDbEntity
  8
0
  6
Continuous
 62
     7
370
    15
100
AcDbLine
 10
11734.758507135
 20
9445.2462927923
 30
0.0
 11
8734.758507135
 21
9445.2462927923
 31
0.0
  0
LINE
  5
3F3
330
1F
100
AcDbEntity
  8
0
  6
Continuous
 62
     7
370
    15
100
AcDbLine
 10
8734.758507135
 20
9445.2462927923
 30
0.0
 11
8734.758507135
 21
9445.366752848
 31
0.0
  0
LINE
  5
3F4
330
1F
100
AcDbEntity
  8
0
  6
Continuous
 62
     7
370
    15
100
AcDbLine
 10
11734.758507135
 20
9445.2462927923
 30
0.0
 11
11734.758507135
 21
9445.366752848
 31
0.0
  0
LINE
  5
3F5
330
1F
100
AcDbEntity
  8
0
  6
Continuous
 62
     7
370
    15
100
AcDbLine
 10
11734.758507135
 20
9463.625420399
 30
0.0
 11
8734.758507135
 21
9463.625420399
 31
0.0
  0
LINE
  5
3F6
330
1F
100
AcDbEntity
  8
0
  6
Continuous
 62
     7
370
    15
100
AcDbLine
 10
8734.758507135
 20
9463.5626418069
 30
0.0
 11
8734.758507135
 21
9463.625420399
 31
0.0
  0
LINE
  5
3F7
330
1F
100
AcDbEntity
  8
0
  6
Continuous
 62
     7
370
    15
100
AcDbLine
 10
11734.758507135
 20
9463.5626418069
 30
0.0
 11
11734.758507135
 21
9463.625420399
 31
0.0
  0
LINE
  5
3F8
330
1F
100
AcDbEntity
  8
0
  6
Continuous
 62
     7
370
    15
100
AcDbLine
 10
11734.758507135
 20
9445.1429765225
 30
0.0
 11
8734.758507135
 21
9445.1429765225
 31
0.0
  0
LINE
  5
3F9
330
1F
100
AcDbEntity
  8
0
  6
Continuous
 62
     7
370
    15
100
AcDbLine
 10
8734.758507135
 20
9445.1429765225
 30
0.0
 11
8734.758507135
 21
9445.2462927923
 31
0.0
  0
LINE
  5
3FA
330
1F
100
AcDbEntity
  8
0
  6
Continuous
 62
     7
370
    15
100
AcDbLine
 10
11734.758507135
 20
9445.1429765225
 30
0.0
 11
11734.758507135
 21
9445.2462927923
 31
0.0
  0
LINE
  5
3FB
330
1F
100
AcDbEntity
  8
0
  6
Continuous
 62
     7
370
    15
100
AcDbLine
 10
11734.758507135
 20
9463.6747078523
 30
0.0
 11
8734.758507135
 21
9463.6747078523
 31
0.0
  0
LINE
  5
3FC
330
1F
100
AcDbEntity
  8
0
  6
Continuous
 62
     7
370
    15
100
AcDbLine
 10
8734.758507135
 20
9463.625420399
 30
0.0
 11
8734.758507135
 21
9463.6747078523
 31
0.0
  0
LINE
  5
3FD
330
1F
100
AcDbEntity
  8
0
  6
Continuous
 62
     7
370
    15
100
AcDbLine
 10
11734.758507135
 20
9463.625420399
 30
0.0
 11
11734.758507135
 21
9463.6747078523
 31
0.0
  0
LINE
  5
3FE
330
1F
100
AcDbEntity
  8
0
  6
Continuous
 62
     7
370
    15
100
AcDbLine
 10
11734.758507135
 20
9445.0573879778
 30
0.0
 11
8734.758507135
 21
9445.0573879778
 31
0.0
  0
LINE
  5
3FF
330
1F
100
AcDbEntity
  8
0
  6
Continuous
 62
     7
370
    15
100
AcDbLine
 10
8734.758507135
 20
9445.0573879778
 30
0.0
 11
8734.758507135
 21
9445.1429765225
 31
0.0
  0
LINE
  5
400
330
1F
100
AcDbEntity
  8
0
  6
Continuous
 62
     7
370
    15
100
AcDbLine
 10
11734.758507135
 20
9445.0573879778
 30
0.0
 11
11734.758507135
 21
9445.1429765225
 31
0.0
  0
LINE
  5
401
330
1F
100
AcDbEntity
  8
0
  6
Continuous
 62
     7
370
    15
100
AcDbLine
 10
11734.758507135
 20
9463.8946759999
 30
0.0
 11
8734.758507135
 21
9463.8946759999
 31
0.0
  0
LINE
  5
402
330
1F
100
AcDbEntity
  8
0
  6
Continuous
 62
     7
370
    15
100
AcDbLine
 10
8734.758507135
 20
9463.6747078523
 30
0.0
 11
8734.758507135
 21
9463.8946759999
 31
0.0
  0
LINE
  5
403
330
1F
100
AcDbEntity
  8
0
  6
Continuous
 62
     7
370
    15
100
AcDbLine
 10
11734.758507135
 20
9463.6747078523
 30
0.0
 11
11734.758507135
 21
9463.8946759999
 31
0.0
  0
LINE
  5
404
330
1F
100
AcDbEntity
  8
0
  6
Continuous
 62
     7
370
    15
100
AcDbLine
 10
11734.758507135
 20
9444.9900105149
 30
0.0
 11
8734.758507135
 21
9444.9900105149
 31
0.0
  0
LINE
  5
405
330
1F
100
AcDbEntity
  8
0
  6
Continuous
 62
     7
370
    15
100
AcDbLine
 10
8734.758507135
 20
9444.9900105149
 30
0.0
 11
8734.758507135
 21
9445.0573879778
 31
0.0
  0
LINE
  5
406
330
1F
100
AcDbEntity
  8
0
  6
Continuous
 62
     7
370
    15
100
AcDbLine
 10
11734.758507135
 20
9444.9900105149
 30
0.0
 11
11734.758507135
 21
9445.0573879778
 31
0.0
  0
LINE
  5
407
330
1F
100
AcDbEntity
  8
0
  6
Continuous
 62
     7
370
    15
100
AcDbLine
 10
11734.758507135
 20
9444.4629173279
 30
0.0
 11
8734.758507135
 21
9444.4629173279
 31
0.0
  0
LINE
  5
408
330
1F
100
AcDbEntity
  8
0
  6
Continuous
 62
     7
370
    15
100
AcDbLine
 10
8734.758507135
 20
9444.4629173279
 30
0.0
 11
8734.758507135
 21
9444.9900105149
 31
0.0
  0
LINE
  5
409
330
1F
100
AcDbEntity
  8
0
  6
Continuous
 62
     7
370
    15
100
AcDbLine
 10
11734.758507135
 20
9444.4629173279
 30
0.0
 11
11734.758507135
 21
9444.9900105149
 31
0.0
  0
LINE
  5
40A
330
1F
100
AcDbEntity
  8
0
  6
Continuous
 62
     7
370
    15
100
AcDbLine
 10
11734.758507135
 20
9463.9134309739
 30
0.0
 11
8734.758507135
 21
9463.9134309739
 31
0.0
  0
LINE
  5
40B
330
1F
100
AcDbEntity
  8
0
  6
Continuous
 62
     7
370
    15
100
AcDbLine
 10
8734.758507135
 20
9463.8946759999
 30
0.0
 11
8734.758507135
 21
9463.9134309739
 31
0.0
  0
LINE
  5
40C
330
1F
100
AcDbEntity
  8
0
  6
Continuous
 62
     7
370
    15
100
AcDbLine
 10
11734.758507135
 20
9463.8946759999
 30
0.0
 11
11734.758507135
 21
9463.9134309739
 31
0.0
  0
LINE
  5
40D
330
1F
100
AcDbEntity
  8
0
  6
Continuous
 62
     7
370
    15
100
AcDbLine
 10
11734.758507135
 20
9463.9345198423
 30
0.0
 11
8734.758507135
 21
9463.9345198423
 31
0.0
  0
LINE
  5
40E
330
1F
100
AcDbEntity
  8
0
  6
Continuous
 62
     7
370
    15
100
AcDbLine
 10
8734.758507135
 20
9463.9134309739
 30
0.0
 11
8734.758507135
 21
9463.9345198423
 31
0.0
  0
LINE
  5
40F
330
1F
100
AcDbEntity
  8
0
  6
Continuous
 62
     7
370
    15
100
AcDbLine
 10
11734.758507135
 20
9463.9134309739
 30
0.0
 11
11734.758507135
 21
9463.9345198423
 31
0.0
  0
LINE
  5
410
330
1F
100
AcDbEntity
  8
0
  6
Continuous
 62
     7
370
    15
100
AcDbLine
 10
11734.758507135
 20
9464.2682555616
 30
0.0
 11
8734.758507135
 21
9464.2682555616
 31
0.0
  0
LINE
  5
411
330
1F
100
AcDbEntity
  8
0
  6
Continuous
 62
     7
370
    15
100
AcDbLine
 10
8734.758507135
 20
9463.9345198423
 30
0.0
 11
8734.758507135
 21
9464.2682555616
 31
0.0
  0
LINE
  5
412
330
1F
100
AcDbEntity
  8
0
  6
Continuous
 62
     7
370
    15
100
AcDbLine
 10
11734.758507135
 20
9463.9345198423
 30
0.0
 11
11734.758507135
 21
9464.2682555616
 31
0.0
  0
LINE
  5
413
330
1F
100
AcDbEntity
  8
0
  6
Continuous
 62
     7
370
    15
100
AcDbLine
 10
11734.758507135
 20
9464.3140719757
 30
0.0
 11
8734.758507135
 21
9464.3140719757
 31
0.0
  0
LINE
  5
414
330
1F
100
AcDbEntity
  8
0
  6
Continuous
 62
     7
370
    15
100
AcDbLine
 10
8734.758507135
 20
9464.2682555616
 30
0.0
 11
8734.758507135
 21
9464.3140719757
 31
0.0
  0
LINE
  5
415
330
1F
100
AcDbEntity
  8
0
  6
Continuous
 62
     7
370
    15
100
AcDbLine
 10
11734.758507135
 20
9464.2682555616
 30
0.0
 11
11734.758507135
 21
9464.3140719757
 31
0.0
  0
LINE
  5
416
330
1F
100
AcDbEntity
  8
0
  6
Continuous
 62
     7
370
    15
100
AcDbLine
 10
11734.758507135
 20
9444.4238027111
 30
0.0
 11
8734.758507135
 21
9444.4238027111
 31
0.0
  0
LINE
  5
417
330
1F
100
AcDbEntity
  8
0
  6
Continuous
 62
     7
370
    15
100
AcDbLine
 10
8734.758507135
 20
9444.4238027111
 30
0.0
 11
8734.758507135
 21
9444.4629173279
 31
0.0
  0
LINE
  5
418
330
1F
100
AcDbEntity
  8
0
  6
Continuous
 62
     7
370
    15
100
AcDbLine
 10
11734.758507135
 20
9444.4238027111
 30
0.0
 11
11734.758507135
 21
9444.4629173279
 31
0.0
  0
LINE
  5
419
330
1F
100
AcDbEntity
  8
0
  6
Continuous
 62
     7
370
    15
100
AcDbLine
 10
11734.758507135
 20
9464.3469271734
 30
0.0
 11
8734.758507135
 21
9464.3469271734
 31
0.0
  0
LINE
  5
41A
330
1F
100
AcDbEntity
  8
0
  6
Continuous
 62
     7
370
    15
100
AcDbLine
 10
8734.758507135
 20
9464.3140719757
 30
0.0
 11
8734.758507135
 21
9464.3469271734
 31
0.0
  0
LINE
  5
41B
330
1F
100
AcDbEntity
  8
0
  6
Continuous
 62
     7
370
    15
100
AcDbLine
 10
11734.758507135
 20
9464.3140719757
 30
0.0
 11
11734.758507135
 21
9464.3469271734
 31
0.0
  0
LINE
  5
41C
330
1F
100
AcDbEntity
  8
0
  6
Continuous
 62
     7
370
    15
100
AcDbLine
 10
11734.758507135
 20
9444.3957699016
 30
0.0
 11
8734.758507135
 21
9444.3957699016
 31
0.0
  0
LINE
  5
41D
330
1F
100
AcDbEntity
  8
0
  6
Continuous
 62
     7
370
    15
100
AcDbLine
 10
8734.758507135
 20
9444.3957699016
 30
0.0
 11
8734.758507135
 21
9444.4238027111
 31
0.0
  0
LINE
  5
41E
330
1F
100
AcDbEntity
  8
0
  6
Continuous
 62
     7
370
    15
100
AcDbLine
 10
11734.758507135
 20
9444.3957699016
 30
0.0
 11
11734.758507135
 21
9444.4238027111
 31
0.0
  0
LINE
  5
41F
330
1F
100
AcDbEntity
  8
0
  6
Continuous
 62
     7
370
    15
100
AcDbLine
 10
11734.758507135
 20
9464.3666907698
 30
0.0
 11
8734.758507135
 21
9464.3666907698
 31
0.0
  0
LINE
  5
420
330
1F
100
AcDbEntity
  8
0
  6
Continuous
 62
     7
370
    15
100
AcDbLine
 10
8734.758507135
 20
9464.3469271734
 30
0.0
 11
8734.758507135
 21
9464.3666907698
 31
0.0
  0
LINE
  5
421
330
1F
100
AcDbEntity
  8
0
  6
Continuous
 62
     7
370
    15
100
AcDbLine
 10
11734.758507135
 20
9464.3469271734
 30
0.0
 11
11734.758507135
 21
9464.3666907698
 31
0.0
  0
LINE
  5
422
330
1F
100
AcDbEntity
  8
0
  6
Continuous
 62
     7
370
    15
100
AcDbLine
 10
11734.758507135
 20
9444.378912963
 30
0.0
 11
8734.758507135
 21
9444.378912963
 31
0.0
  0
LINE
  5
423
330
1F
100
AcDbEntity
  8
0
  6
Continuous
 62
     7
370
    15
100
AcDbLine
 10
8734.758507135
 20
9444.378912963
 30
0.0
 11
8734.758507135
 21
9444.3957699016
 31
0.0
  0
LINE
  5
424
330
1F
100
AcDbEntity
  8
0
  6
Continuous
 62
     7
370
    15
100
AcDbLine
 10
11734.758507135
 20
9444.378912963
 30
0.0
 11
11734.758507135
 21
9444.3957699016
 31
0.0
  0
LINE
  5
425
330
1F
100
AcDbEntity
  8
0
  6
Continuous
 62
     7
370
    15
100
AcDbLine
 10
8734.758507135
 20
9464.3666907698
 30
0.0
 11
8734.758507135
 21
9464.3732873276
 31
0.0
  0
LINE
  5
426
330
1F
100
AcDbEntity
  8
0
  6
Continuous
 62
     7
370
    15
100
AcDbLine
 10
11734.758507135
 20
9464.3666907698
 30
0.0
 11
11734.758507135
 21
9464.3732873276
 31
0.0
  0
LINE
  5
427
330
1F
100
AcDbEntity
  8
0
  6
Continuous
 62
     7
370
    15
100
AcDbLine
 10
8734.758507135
 20
9444.3732877746
 30
0.0
 11
8734.758507135
 21
9444.378912963
 31
0.0
  0
LINE
  5
428
330
1F
100
AcDbEntity
  8
0
  6
Continuous
 62
     7
370
    15
100
AcDbLine
 10
11734.758507135
 20
9444.3732877746
 30
0.0
 11
11734.758507135
 21
9444.378912963
 31
0.0
  0
ENDSEC
  0
SECTION
  2
OBJECTS
  0
DICTIONARY
  5
C
330
0
100
AcDbDictionary
281
     1
  3
ACAD_GROUP
350
D
  3
ACAD_LAYOUT
350
1A
  3
ACAD_MLINESTYLE
350
17
  3
ACAD_PLOTSETTINGS
350
19
  3
ACAD_PLOTSTYLENAME
350
E
  3
ACAD_SCALELIST
350
47
  0
DICTIONARY
  5
D
102
{ACAD_REACTORS
330
C
102
}
330
C
100
AcDbDictionary
281
     1
  0
DICTIONARY
  5
1A
102
{ACAD_REACTORS
330
C
102
}
330
C
100
AcDbDictionary
281
     1
  3
Layout1
350
1E
  3
Layout2
350
26
  3
Model
350
22
  0
DICTIONARY
  5
17
102
{ACAD_REACTORS
330
C
102
}
330
C
100
AcDbDictionary
281
     1
  3
Standard
350
18
  0
DICTIONARY
  5
19
102
{ACAD_REACTORS
330
C
102
}
330
C
100
AcDbDictionary
281
     1
  0
ACDBDICTIONARYWDFLT
  5
E
102
{ACAD_REACTORS
330
C
102
}
330
C
100
AcDbDictionary
281
     1
  3
Normal
350
F
100
AcDbDictionaryWithDefault
340
F
  0
DICTIONARY
  5
47
102
{ACAD_REACTORS
330
C
102
}
330
C
100
AcDbDictionary
281
     1
  3
A0
350
48
  3
A1
350
49
  3
A2
350
4A
  3
A3
350
4B
  3
A4
350
4C
  3
A5
350
4D
  3
A6
350
4E
  3
A7
350
4F
  3
A8
350
50
  3
A9
350
51
  3
B0
350
52
  3
B1
350
53
  3
B2
350
54
  3
B3
350
55
  3
B4
350
56
  3
B5
350
57
  3
B6
350
58
  3
B7
350
59
  3
B8
350
5A
  3
B9
350
5B
  3
C0
350
5C
  3
C1
350
5D
  3
C2
350
5E
  3
C3
350
5F
  3
C4
350
60
  3
C5
350
61
  3
C6
350
62
  3
C7
350
63
  3
C8
350
64
  3
C9
350
65
  3
D0
350
66
  3
D1
350
67
  3
D2
350
68
  0
LAYOUT
  5
1E
102
{ACAD_REACTORS
330
1A
102
}
330
1A
100
AcDbPlotSettings
  1

  2
none_device
  4

  6

 40
0.0
 41
0.0
 42
0.0
 43
0.0
 44
0.0
 45
0.0
 46
0.0
 47
0.0
 48
0.0
 49
0.0
140
0.0
141
0.0
142
1.0
143
1.0
 70
   688
 72
     1
 73
     0
 74
     5
  7

 75
    16
147
1.0
148
0.0
149
0.0
100
AcDbLayout
  1
Layout1
 70
     1
 71
     1
 10
0.0
 20
0.0
 11
420.0
 21
297.0
 12
0.0
 22
0.0
 32
0.0
 14
1.0000000000E+20
 24
1.0000000000E+20
 34
1.0000000000E+20
 15
-1.0000000000E+20
 25
-1.0000000000E+20
 35
-1.0000000000E+20
146
0.0
 13
0.0
 23
0.0
 33
0.0
 16
1.0
 26
0.0
 36
0.0
 17
0.0
 27
1.0
 37
0.0
 76
     0
330
1B
  0
LAYOUT
  5
26
102
{ACAD_REACTORS
330
1A
102
}
330
1A
100
AcDbPlotSettings
  1

  2
none_device
  4

  6

 40
0.0
 41
0.0
 42
0.0
 43
0.0
 44
0.0
 45
0.0
 46
0.0
 47
0.0
 48
0.0
 49
0.0
140
0.0
141
0.0
142
1.0
143
1.0
 70
   688
 72
     1
 73
     0
 74
     5
  7

 75
    16
147
1.0
148
0.0
149
0.0
100
AcDbLayout
  1
Layout2
 70
     1
 71
     2
 10
0.0
 20
0.0
 11
0.0
 21
0.0
 12
0.0
 22
0.0
 32
0.0
 14
0.0
 24
0.0
 34
0.0
 15
0.0
 25
0.0
 35
0.0
146
0.0
 13
0.0
 23
0.0
 33
0.0
 16
1.0
 26
0.0
 36
0.0
 17
0.0
 27
1.0
 37
0.0
 76
     0
330
23
  0
LAYOUT
  5
22
102
{ACAD_REACTORS
330
1A
102
}
330
1A
100
AcDbPlotSettings
  1

  2
none_device
  4
Letter_(8.50_x_11.00_Inches)
  6

 40
6.35
 41
6.35
 42
6.35000508
 43
6.35000508
 44
215.9
 45
279.4
 46
0.0
 47
0.0
 48
0.0
 49
0.0
140
0.0
141
0.0
142
1.0
143
1.0
 70
  1712
 72
     1
 73
     0
 74
     0
  7

 75
     0
147
1.0
148
0.0
149
0.0
100
AcDbLayout
  1
Model
 70
     1
 71
     0
 10
0.0
 20
0.0
 11
14850.0
 21
10500.0
 12
0.0
 22
0.0
 32
0.0
 14
0.0
 24
0.0
 34
0.0
 15
14850.0
 25
10500.0
 35
0.0
146
0.0
 13
0.0
 23
0.0
 33
0.0
 16
1.0
 26
0.0
 36
0.0
 17
0.0
 27
1.0
 37
0.0
 76
     0
330
1F
331
29
  0
MLINESTYLE
  5
18
102
{ACAD_REACTORS
330
17
102
}
330
17
100
AcDbMlineStyle
  2
Standard
 70
     0
  3

 62
   256
 51
90.0
 52
90.0
 71
     2
 49
0.5
 62
   256
  6
BYLAYER
 49
-0.5
 62
   256
  6
BYLAYER
  0
ACDBPLACEHOLDER
  5
F
102
{ACAD_REACTORS
330
E
102
}
330
E
  0
SCALE
  5
48
102
{ACAD_REACTORS
330
47
102
}
330
47
100
AcDbScale
 70
     0
300
1:1
140
1.0
141
1.0
290
     1
  0
SCALE
  5
49
102
{ACAD_REACTORS
330
47
102
}
330
47
100
AcDbScale
 70
     0
300
1:2
140
1.0
141
2.0
290
     0
  0
SCALE
  5
4A
102
{ACAD_REACTORS
330
47
102
}
330
47
100
AcDbScale
 70
     0
300
1:4
140
1.0
141
4.0
290
     0
  0
SCALE
  5
4B
102
{ACAD_REACTORS
330
47
102
}
330
47
100
AcDbScale
 70
     0
300
1:5
140
1.0
141
5.0
290
     0
  0
SCALE
  5
4C
102
{ACAD_REACTORS
330
47
102
}
330
47
100
AcDbScale
 70
     0
300
1:8
140
1.0
141
8.0
290
     0
  0
SCALE
  5
4D
102
{ACAD_REACTORS
330
47
102
}
330
47
100
AcDbScale
 70
     0
300
1:10
140
1.0
141
10.0
290
     0
  0
SCALE
  5
4E
102
{ACAD_REACTORS
330
47
102
}
330
47
100
AcDbScale
 70
     0
300
1:16
140
1.0
141
16.0
290
     0
  0
SCALE
  5
4F
102
{ACAD_REACTORS
330
47
102
}
330
47
100
AcDbScale
 70
     0
300
1:20
140
1.0
141
20.0
290
     0
  0
SCALE
  5
50
102
{ACAD_REACTORS
330
47
102
}
330
47
100
AcDbScale
 70
     0
300
1:30
140
1.0
141
30.0
290
     0
  0
SCALE
  5
51
102
{ACAD_REACTORS
330
47
102
}
330
47
100
AcDbScale
 70
     0
300
1:40
140
1.0
141
40.0
290
     0
  0
SCALE
  5
52
102
{ACAD_REACTORS
330
47
102
}
330
47
100
AcDbScale
 70
     0
300
1:50
140
1.0
141
50.0
290
     0
  0
SCALE
  5
53
102
{ACAD_REACTORS
330
47
102
}
330
47
100
AcDbScale
 70
     0
300
1:100
140
1.0
141
100.0
290
     0
  0
SCALE
  5
54
102
{ACAD_REACTORS
330
47
102
}
330
47
100
AcDbScale
 70
     0
300
2:1
140
2.0
141
1.0
290
     0
  0
SCALE
  5
55
102
{ACAD_REACTORS
330
47
102
}
330
47
100
AcDbScale
 70
     0
300
4:1
140
4.0
141
1.0
290
     0
  0
SCALE
  5
56
102
{ACAD_REACTORS
330
47
102
}
330
47
100
AcDbScale
 70
     0
300
8:1
140
8.0
141
1.0
290
     0
  0
SCALE
  5
57
102
{ACAD_REACTORS
330
47
102
}
330
47
100
AcDbScale
 70
     0
300
10:1
140
10.0
141
1.0
290
     0
  0
SCALE
  5
58
102
{ACAD_REACTORS
330
47
102
}
330
47
100
AcDbScale
 70
     0
300
100:1
140
100.0
141
1.0
290
     0
  0
SCALE
  5
59
102
{ACAD_REACTORS
330
47
102
}
330
47
100
AcDbScale
 70
     0
300
1/128" = 1'-0"
140
0.0078125
141
12.0
290
     0
  0
SCALE
  5
5A
102
{ACAD_REACTORS
330
47
102
}
330
47
100
AcDbScale
 70
     0
300
1/64" = 1'-0"
140
0.015625
141
12.0
290
     0
  0
SCALE
  5
5B
102
{ACAD_REACTORS
330
47
102
}
330
47
100
AcDbScale
 70
     0
300
1/32" = 1'-0"
140
0.03125
141
12.0
290
     0
  0
SCALE
  5
5C
102
{ACAD_REACTORS
330
47
102
}
330
47
100
AcDbScale
 70
     0
300
1/16" = 1'-0"
140
0.0625
141
12.0
290
     0
  0
SCALE
  5
5D
102
{ACAD_REACTORS
330
47
102
}
330
47
100
AcDbScale
 70
     0
300
3/32" = 1'-0"
140
0.09375
141
12.0
290
     0
  0
SCALE
  5
5E
102
{ACAD_REACTORS
330
47
102
}
330
47
100
AcDbScale
 70
     0
300
1/8" = 1'-0"
140
0.125
141
12.0
290
     0
  0
SCALE
  5
5F
102
{ACAD_REACTORS
330
47
102
}
330
47
100
AcDbScale
 70
     0
300
3/16" = 1'-0"
140
0.1875
141
12.0
290
     0
  0
SCALE
  5
60
102
{ACAD_REACTORS
330
47
102
}
330
47
100
AcDbScale
 70
     0
300
1/4" = 1'-0"
140
0.25
141
12.0
290
     0
  0
SCALE
  5
61
102
{ACAD_REACTORS
330
47
102
}
330
47
100
AcDbScale
 70
     0
300
3/8" = 1'-0"
140
0.375
141
12.0
290
     0
  0
SCALE
  5
62
102
{ACAD_REACTORS
330
47
102
}
330
47
100
AcDbScale
 70
     0
300
1/2" = 1'-0"
140
0.5
141
12.0
290
     0
  0
SCALE
  5
63
102
{ACAD_REACTORS
330
47
102
}
330
47
100
AcDbScale
 70
     0
300
3/4" = 1'-0"
140
0.75
141
12.0
290
     0
  0
SCALE
  5
64
102
{ACAD_REACTORS
330
47
102
}
330
47
100
AcDbScale
 70
     0
300
1" = 1'-0"
140
1.0
141
12.0
290
     0
  0
SCALE
  5
65
102
{ACAD_REACTORS
330
47
102
}
330
47
100
AcDbScale
 70
     0
300
1-1/2" = 1'-0"
140
1.5
141
12.0
290
     0
  0
SCALE
  5
66
102
{ACAD_REACTORS
330
47
102
}
330
47
100
AcDbScale
 70
     0
300
3" = 1'-0"
140
3.0
141
12.0
290
     0
  0
SCALE
  5
67
102
{ACAD_REACTORS
330
47
102
}
330
47
100
AcDbScale
 70
     0
300
6" = 1'-0"
140
6.0
141
12.0
290
     0
  0
SCALE
  5
68
102
{ACAD_REACTORS
330
47
102
}
330
47
100
AcDbScale
 70
     0
300
1'-0" = 1'-0"
140
12.0
141
12.0
290
     0
  0
ENDSEC
  0
EOF
