  0
SECTION
  2
HEADER
  9
$ACADVER
  1
AC1015
  9
$ACADMAINTVER
 70
     6
  9
$DWGCODEPAGE
  3
ANSI_1252
  9
$INSBASE
 10
0.0
 20
0.0
 30
0.0
  9
$EXTMIN
 10
0.0
 20
0.0
 30
0.0
  9
$EXTMAX
 10
297.0
 20
210.0
 30
0.0
  9
$LIMMIN
 10
0.0
 20
0.0
  9
$LIMMAX
 10
297.0
 20
210.0
  9
$ORTHOMODE
 70
     0
  9
$REGENMODE
 70
     1
  9
$FILLMODE
 70
     1
  9
$QTEXTMODE
 70
     0
  9
$MIRRTEXT
 70
     1
  9
$LTSCALE
 40
1.0
  9
$ATTMODE
 70
     1
  9
$TEXTSIZE
 40
3.5
  9
$TRACEWID
 40
1.0
  9
$TEXTSTYLE
  7
Standard
  9
$CLAYER
  8
0
  9
$CELTYPE
  6
ByLayer
  9
$CECOLOR
 62
   256
  9
$CELTSCALE
 40
1.0
  9
$DISPSILH
 70
     0
  9
$DIMSCALE
 40
1.0
  9
$DIMASZ
 40
3.302
  9
$DIMEXO
 40
1.0
  9
$DIMDLI
 40
3.75
  9
$DIMRND
 40
0.0
  9
$DIMDLE
 40
0.0
  9
$DIMEXE
 40
1.0
  9
$DIMTP
 40
0.0
  9
$DIMTM
 40
0.0
  9
$DIMTXT
 40
3.5
  9
$DIMCEN
 40
2.5
  9
$DIMTSZ
 40
0.0
  9
$DIMTOL
 70
     0
  9
$DIMLIM
 70
     0
  9
$DIMTIH
 70
     1
  9
$DIMTOH
 70
     1
  9
$DIMSE1
 70
     0
  9
$DIMSE2
 70
     0
  9
$DIMTAD
 70
     1
  9
$DIMZIN
 70
     0
  9
$DIMBLK
  1

  9
$DIMASO
 70
     1
  9
$DIMSHO
 70
     1
  9
$DIMPOST
  1

  9
$DIMAPOST
  1

  9
$DIMALT
 70
     0
  9
$DIMALTD
 70
     3
  9
$DIMALTF
 40
0.0393700787
  9
$DIMLFAC
 40
1.0
  9
$DIMTOFL
 70
     1
  9
$DIMTVP
 40
0.0
  9
$DIMTIX
 70
     0
  9
$DIMSOXD
 70
     0
  9
$DIMSAH
 70
     0
  9
$DIMBLK1
  1

  9
$DIMBLK2
  1

  9
$DIMSTYLE
  2
ISO-25
  9
$DIMCLRD
 70
     0
  9
$DIMCLRE
 70
     0
  9
$DIMCLRT
 70
     0
  9
$DIMTFAC
 40
1.0
  9
$DIMGAP
 40
1.524
  9
$DIMJUST
 70
     0
  9
$DIMSD1
 70
     0
  9
$DIMSD2
 70
     0
  9
$DIMTOLJ
 70
     0
  9
$DIMTZIN
 70
     0
  9
$DIMALTZ
 70
     0
  9
$DIMALTTZ
 70
     0
  9
$DIMUPT
 70
     0
  9
$DIMDEC
 70
     2
  9
$DIMTDEC
 70
     2
  9
$DIMALTU
 70
     2
  9
$DIMALTTD
 70
     3
  9
$DIMTXSTY
  7
Standard
  9
$DIMAUNIT
 70
     0
  9
$DIMADEC
 70
     2
  9
$DIMALTRND
 40
0.0
  9
$DIMAZIN
 70
     0
  9
$DIMDSEP
 70
    44
  9
$DIMATFIT
 70
     3
  9
$DIMFRAC
 70
     0
  9
$DIMLDRBLK
  1

  9
$DIMLUNIT
 70
     2
  9
$DIMLWD
 70
    -2
  9
$DIMLWE
 70
    -2
  9
$DIMTMOVE
 70
     0
  9
$LUNITS
 70
     2
  9
$LUPREC
 70
     2
  9
$SKETCHINC
 40
1.0
  9
$FILLETRAD
 40
10.0
  9
$AUNITS
 70
     0
  9
$AUPREC
 70
     2
  9
$MENU
  1
.
  9
$ELEVATION
 40
0.0
  9
$PELEVATION
 40
0.0
  9
$THICKNESS
 40
0.0
  9
$LIMCHECK
 70
     0
  9
$CHAMFERA
 40
0.0
  9
$CHAMFERB
 40
0.0
  9
$CHAMFERC
 40
0.0
  9
$CHAMFERD
 40
0.0
  9
$SKPOLY
 70
     0
  9
$TDCREATE
 40
2456891.59516706
  9
$TDUCREATE
 40
2456891.511833727
  9
$TDUPDATE
 40
2456891.595168079
  9
$TDUUPDATE
 40
2456891.511834745
  9
$TDINDWG
 40
0.0000000116
  9
$TDUSRTIMER
 40
0.0000000116
  9
$USRTIMER
 70
     1
  9
$ANGBASE
 50
0.0
  9
$ANGDIR
 70
     0
  9
$PDMODE
 70
     0
  9
$PDSIZE
 40
-1.0
  9
$PLINEWID
 40
0.0
  9
$SPLFRAME
 70
     0
  9
$SPLINETYPE
 70
     6
  9
$SPLINESEGS
 70
     8
  9
$HANDSEED
  5
150
  9
$SURFTAB1
 70
     6
  9
$SURFTAB2
 70
     6
  9
$SURFTYPE
 70
     6
  9
$SURFU
 70
     6
  9
$SURFV
 70
     6
  9
$UCSBASE
  2

  9
$UCSNAME
  2

  9
$UCSORG
 10
0.0
 20
0.0
 30
0.0
  9
$UCSXDIR
 10
1.0
 20
0.0
 30
0.0
  9
$UCSYDIR
 10
0.0
 20
1.0
 30
0.0
  9
$UCSORTHOREF
  2

  9
$UCSORTHOVIEW
 70
     0
  9
$UCSORGTOP
 10
0.0
 20
0.0
 30
0.0
  9
$UCSORGBOTTOM
 10
0.0
 20
0.0
 30
0.0
  9
$UCSORGLEFT
 10
0.0
 20
0.0
 30
0.0
  9
$UCSORGRIGHT
 10
0.0
 20
0.0
 30
0.0
  9
$UCSORGFRONT
 10
0.0
 20
0.0
 30
0.0
  9
$UCSORGBACK
 10
0.0
 20
0.0
 30
0.0
  9
$PUCSBASE
  2

  9
$PUCSNAME
  2

  9
$PUCSORG
 10
0.0
 20
0.0
 30
0.0
  9
$PUCSXDIR
 10
1.0
 20
0.0
 30
0.0
  9
$PUCSYDIR
 10
0.0
 20
1.0
 30
0.0
  9
$PUCSORTHOREF
  2

  9
$PUCSORTHOVIEW
 70
     0
  9
$PUCSORGTOP
 10
0.0
 20
0.0
 30
0.0
  9
$PUCSORGBOTTOM
 10
0.0
 20
0.0
 30
0.0
  9
$PUCSORGLEFT
 10
0.0
 20
0.0
 30
0.0
  9
$PUCSORGRIGHT
 10
0.0
 20
0.0
 30
0.0
  9
$PUCSORGFRONT
 10
0.0
 20
0.0
 30
0.0
  9
$PUCSORGBACK
 10
0.0
 20
0.0
 30
0.0
  9
$USERI1
 70
     0
  9
$USERI2
 70
     0
  9
$USERI3
 70
     0
  9
$USERI4
 70
     0
  9
$USERI5
 70
     0
  9
$USERR1
 40
0.0
  9
$USERR2
 40
0.0
  9
$USERR3
 40
0.0
  9
$USERR4
 40
0.0
  9
$USERR5
 40
0.0
  9
$WORLDVIEW
 70
     1
  9
$SHADEDGE
 70
     3
  9
$SHADEDIF
 70
    70
  9
$TILEMODE
 70
     1
  9
$MAXACTVP
 70
    64
  9
$PINSBASE
 10
0.0
 20
0.0
 30
0.0
  9
$PLIMCHECK
 70
     0
  9
$PEXTMIN
 10
1.0000000000E+20
 20
1.0000000000E+20
 30
1.0000000000E+20
  9
$PEXTMAX
 10
-1.0000000000E+20
 20
-1.0000000000E+20
 30
-1.0000000000E+20
  9
$PLIMMIN
 10
0.0
 20
0.0
  9
$PLIMMAX
 10
420.0
 20
297.0
  9
$UNITMODE
 70
     0
  9
$VISRETAIN
 70
     1
  9
$PLINEGEN
 70
     0
  9
$PSLTSCALE
 70
     1
  9
$TREEDEPTH
 70
  3020
  9
$CMLSTYLE
  2
Standard
  9
$CMLJUST
 70
     0
  9
$CMLSCALE
 40
20.0
  9
$PROXYGRAPHICS
 70
     1
  9
$MEASUREMENT
 70
     1
  9
$CELWEIGHT
370
    -1
  9
$ENDCAPS
280
     0
  9
$JOINSTYLE
280
     0
  9
$LWDISPLAY
290
     1
  9
$INSUNITS
 70
     4
  9
$HYPERLINKBASE
  1

  9
$STYLESHEET
  1

  9
$XEDIT
290
     1
  9
$CEPSNTYPE
380
     0
  9
$PSTYLEMODE
290
     1
  9
$FINGERPRINTGUID
  2
{B260CAD6-7C26-452B-8347-7480F977A7C9}
  9
$VERSIONGUID
  2
{FAEB1C32-E019-11D5-929B-00C0DF256EC4}
  9
$EXTNAMES
290
     1
  9
$PSVPSCALE
 40
0.0
  9
$OLESTARTUP
290
     0
  0
ENDSEC
  0
SECTION
  2
CLASSES
  0
CLASS
  1
ACDBDICTIONARYWDFLT
  2
AcDbDictionaryWithDefault
  3
ObjectDBX Classes
 90
        0
280
     0
281
     0
  0
CLASS
  1
VISUALSTYLE
  2
AcDbVisualStyle
  3
ObjectDBX Classes
 90
     4095
280
     0
281
     0
  0
CLASS
  1
MATERIAL
  2
AcDbMaterial
  3
ObjectDBX Classes
 90
     1153
280
     0
281
     0
  0
CLASS
  1
SCALE
  2
AcDbScale
  3
ObjectDBX Classes
 90
     1153
280
     0
281
     0
  0
CLASS
  1
SUN
  2
AcDbSun
  3
SCENEOE
 90
     1153
280
     0
281
     0
  0
CLASS
  1
ACDBPLACEHOLDER
  2
AcDbPlaceHolder
  3
ObjectDBX Classes
 90
        0
280
     0
281
     0
  0
CLASS
  1
LAYOUT
  2
AcDbLayout
  3
ObjectDBX Classes
 90
        0
280
     0
281
     0
  0
ENDSEC
  0
SECTION
  2
TABLES
  0
TABLE
  2
VPORT
  5
8
330
0
100
AcDbSymbolTable
 70
     1
  0
VPORT
  5
29
330
8
100
AcDbSymbolTableRecord
100
AcDbViewportTableRecord
  2
*Active
 70
     0
 10
0.0
 20
0.0
 11
1.0
 21
1.0
 12
148.5
 22
105.0
 13
0.0
 23
0.0
 14
10.0
 24
10.0
 15
10.0
 25
10.0
 16
0.0
 26
0.0
 36
1.0
 17
0.0
 27
0.0
 37
0.0
 40
210.0
 41
1.4142857143
 42
50.0
 43
0.0
 44
0.0
 50
0.0
 51
0.0
 71
     0
 72
  2000
 73
     1
 74
     3
 75
     0
 76
     0
 77
     0
 78
     0
281
     0
 65
     1
110
0.0
120
0.0
130
0.0
111
1.0
121
0.0
131
0.0
112
0.0
122
1.0
132
0.0
 79
     0
146
0.0
  0
ENDTAB
  0
TABLE
  2
LTYPE
  5
5
330
0
100
AcDbSymbolTable
 70
     6
  0
LTYPE
  5
14
330
5
100
AcDbSymbolTableRecord
100
AcDbLinetypeTableRecord
  2
ByBlock
 70
     0
  3

 72
    65
 73
     0
 40
0.0
  0
LTYPE
  5
15
330
5
100
AcDbSymbolTableRecord
100
AcDbLinetypeTableRecord
  2
ByLayer
 70
     0
  3

 72
    65
 73
     0
 40
0.0
  0
LTYPE
  5
16
330
5
100
AcDbSymbolTableRecord
100
AcDbLinetypeTableRecord
  2
Continuous
 70
     0
  3
Solid line
 72
    65
 73
     0
 40
0.0
  0
LTYPE
  5
6A
330
5
100
AcDbSymbolTableRecord
100
AcDbLinetypeTableRecord
  2
HIDDEN
 70
     0
  3
Hidden __ __ __ __ __ __ __ __ __ __ __ __ __ __
 72
    65
 73
     2
 40
1.905
 49
1.27
 74
     0
 49
-0.635
 74
     0
  0
LTYPE
  5
6B
330
5
100
AcDbSymbolTableRecord
100
AcDbLinetypeTableRecord
  2
PHANTOM
 70
     0
  3
Phantom ______  __  __  ______  __  __  ______
 72
    65
 73
     6
 40
12.7
 49
6.35
 74
     0
 49
-1.27
 74
     0
 49
1.27
 74
     0
 49
-1.27
 74
     0
 49
1.27
 74
     0
 49
-1.27
 74
     0
  0
LTYPE
  5
6C
330
5
100
AcDbSymbolTableRecord
100
AcDbLinetypeTableRecord
  2
CENTER
 70
     0
  3
Center ____ _ ____ _ ____ _ ____ _ ____ _ ____
 72
    65
 73
     4
 40
10.16
 49
6.35
 74
     0
 49
-1.27
 74
     0
 49
1.27
 74
     0
 49
-1.27
 74
     0
  0
LTYPE
  5
6D
330
5
100
AcDbSymbolTableRecord
100
AcDbLinetypeTableRecord
  2
CENTERX2
 70
     0
  3
Center (2x) ________  __  ________  __  _____
 72
    65
 73
     4
 40
20.32
 49
12.7
 74
     0
 49
-2.54
 74
     0
 49
2.54
 74
     0
 49
-2.54
 74
     0
  0
LTYPE
  5
6E
330
5
100
AcDbSymbolTableRecord
100
AcDbLinetypeTableRecord
  2
DOT2
 70
     0
  3
Dot (.5x) ........................................
 72
    65
 73
     2
 40
0.635
 49
0.0
 74
     0
 49
-0.635
 74
     0
  0
ENDTAB
  0
TABLE
  2
LAYER
  5
2
330
0
100
AcDbSymbolTable
 70
     2
  0
LAYER
  5
10
330
2
100
AcDbSymbolTableRecord
100
AcDbLayerTableRecord
  2
0
 70
     0
 62
     7
  6
Continuous
370
    -3
390
F
  0
LAYER
  5
6F
330
2
100
AcDbSymbolTableRecord
100
AcDbLayerTableRecord
  2
FORMAT
 70
     0
 62
     7
  6
Continuous
370
    -3
390
F
  0
ENDTAB
  0
TABLE
  2
STYLE
  5
3
330
0
100
AcDbSymbolTable
 70
     3
  0
STYLE
  5
11
330
3
100
AcDbSymbolTableRecord
100
AcDbTextStyleTableRecord
  2
Standard
 70
     0
 40
0.0
 41
1.0
 50
0.0
 71
     0
 42
3.5
  3
txt
  4

  0
STYLE
  5
8C
330
3
100
AcDbSymbolTableRecord
100
AcDbTextStyleTableRecord
  2
SLDTEXTSTYLE0
 70
     0
 40
0.0
 41
0.75
 50
0.0
 71
     0
 42
3.5
  3
TXT
  4

  0
STYLE
  5
94
330
3
100
AcDbSymbolTableRecord
100
AcDbTextStyleTableRecord
  2
SLDTEXTSTYLE1
 70
     0
 40
0.0
 41
0.6923076923
 50
0.0
 71
     0
 42
3.5
  3
TXT
  4

  0
ENDTAB
  0
TABLE
  2
VIEW
  5
6
330
0
100
AcDbSymbolTable
 70
     0
  0
ENDTAB
  0
TABLE
  2
UCS
  5
7
330
0
100
AcDbSymbolTable
 70
     0
  0
ENDTAB
  0
TABLE
  2
APPID
  5
9
330
0
100
AcDbSymbolTable
 70
     1
  0
APPID
  5
12
330
9
100
AcDbSymbolTableRecord
100
AcDbRegAppTableRecord
  2
ACAD
 70
     0
  0
ENDTAB
  0
TABLE
  2
DIMSTYLE
  5
A
330
0
100
AcDbSymbolTable
 70
     1
100
AcDbDimStyleTable
  0
DIMSTYLE
105
27
330
A
100
AcDbSymbolTableRecord
100
AcDbDimStyleTableRecord
  2
ISO-25
 70
     0
 41
2.5
 42
0.625
 43
3.75
 44
1.25
 73
     0
 74
     0
 77
     1
 78
     8
140
2.5
141
2.5
143
0.0393700787
147
0.625
171
     3
172
     1
178
     0
271
     2
272
     2
274
     3
278
    44
283
     0
284
     8
340
11
  0
ENDTAB
  0
TABLE
  2
BLOCK_RECORD
  5
1
330
0
100
AcDbSymbolTable
 70
     1
  0
BLOCK_RECORD
  5
1F
330
1
100
AcDbSymbolTableRecord
100
AcDbBlockTableRecord
  2
*Model_Space
340
22
  0
BLOCK_RECORD
  5
1B
330
1
100
AcDbSymbolTableRecord
100
AcDbBlockTableRecord
  2
*Paper_Space
340
1E
  0
BLOCK_RECORD
  5
23
330
1
100
AcDbSymbolTableRecord
100
AcDbBlockTableRecord
  2
*Paper_Space0
340
26
  0
ENDTAB
  0
ENDSEC
  0
SECTION
  2
BLOCKS
  0
BLOCK
  5
20
330
1F
100
AcDbEntity
  8
0
100
AcDbBlockBegin
  2
*Model_Space
 70
     0
 10
0.0
 20
0.0
 30
0.0
  3
*Model_Space
  1
*Model_Space
  0
ENDBLK
  5
21
330
1F
100
AcDbEntity
  8
0
100
AcDbBlockEnd
  0
BLOCK
  5
1C
330
1B
100
AcDbEntity
 67
     1
  8
0
100
AcDbBlockBegin
  2
*Paper_Space
 70
     0
 10
0.0
 20
0.0
 30
0.0
  3
*Paper_Space
  1
*Paper_Space
  0
ENDBLK
  5
1D
330
1B
100
AcDbEntity
 67
     1
  8
0
100
AcDbBlockEnd
  0
BLOCK
  5
24
330
23
100
AcDbEntity
  8
0
100
AcDbBlockBegin
  2
*Paper_Space0
 70
     0
 10
0.0
 20
0.0
 30
0.0
  3
*Paper_Space0
  1
*Paper_Space0
  0
ENDBLK
  5
25
330
23
100
AcDbEntity
  8
0
100
AcDbBlockEnd
  0
ENDSEC
  0
SECTION
  2
ENTITIES
  0
LINE
  5
70
330
1F
100
AcDbEntity
  8
0
  6
Continuous
 62
     7
370
     0
100
AcDbLine
 10
292.0
 20
205.0
 30
0.0
 11
292.0
 21
5.0
 31
0.0
  0
LINE
  5
71
330
1F
100
AcDbEntity
  8
0
  6
Continuous
 62
     7
370
     0
100
AcDbLine
 10
159.4
 20
34.75
 30
0.0
 11
174.13
 21
34.75
 31
0.0
  0
LINE
  5
72
330
1F
100
AcDbEntity
  8
0
  6
Continuous
 62
     7
370
     0
100
AcDbLine
 10
203.6
 20
34.75
 30
0.0
 11
292.0
 21
34.75
 31
0.0
  0
LINE
  5
73
330
1F
100
AcDbEntity
  8
0
  6
Continuous
 62
     7
370
     0
100
AcDbLine
 10
159.4
 20
9.25
 30
0.0
 11
292.0
 21
9.25
 31
0.0
  0
LINE
  5
74
330
1F
100
AcDbEntity
  8
0
  6
Continuous
 62
     7
370
     0
100
AcDbLine
 10
159.4
 20
34.75
 30
0.0
 11
159.4
 21
28.375
 31
0.0
  0
LINE
  5
75
330
1F
100
AcDbEntity
  8
0
  6
Continuous
 62
     7
370
     0
100
AcDbLine
 10
292.0
 20
22.0
 30
0.0
 11
279.0
 21
22.0
 31
0.0
  0
LINE
  5
76
330
1F
100
AcDbEntity
  8
0
  6
Continuous
 62
     7
370
     0
100
AcDbLine
 10
188.86
 20
22.0
 30
0.0
 11
203.6
 21
22.0
 31
0.0
  0
LINE
  5
77
330
1F
100
AcDbEntity
  8
0
  6
Continuous
 62
     7
370
     0
100
AcDbLine
 10
203.6
 20
34.75
 30
0.0
 11
203.6
 21
5.0
 31
0.0
  0
LINE
  5
78
330
1F
100
AcDbEntity
  8
0
  6
Continuous
 62
     7
370
     0
100
AcDbLine
 10
247.8
 20
5.0
 30
0.0
 11
247.8
 21
9.25
 31
0.0
  0
LINE
  5
79
330
1F
100
AcDbEntity
  8
0
  6
Continuous
 62
     7
370
     0
100
AcDbLine
 10
174.13
 20
34.75
 30
0.0
 11
188.86
 21
34.75
 31
0.0
  0
LINE
  5
7A
330
1F
100
AcDbEntity
  8
0
  6
Continuous
 62
     7
370
     0
100
AcDbLine
 10
279.0
 20
9.25
 30
0.0
 11
279.0
 21
15.4949693602
 31
0.0
  0
LINE
  5
7B
330
1F
100
AcDbEntity
  8
0
  6
Continuous
 62
     7
370
     0
100
AcDbLine
 10
188.86
 20
34.75
 30
0.0
 11
203.6
 21
34.75
 31
0.0
  0
LINE
  5
7C
330
1F
100
AcDbEntity
  8
0
  6
Continuous
 62
     7
370
     0
100
AcDbLine
 10
292.0
 20
15.4949693602
 30
0.0
 11
279.0
 21
15.4949693602
 31
0.0
  0
LINE
  5
7D
330
1F
100
AcDbEntity
  8
0
  6
Continuous
 62
     7
370
     0
100
AcDbLine
 10
203.6
 20
22.0
 30
0.0
 11
279.0
 21
22.0
 31
0.0
  0
LINE
  5
7E
330
1F
100
AcDbEntity
  8
0
  6
Continuous
 62
     7
370
     0
100
AcDbLine
 10
188.86
 20
34.75
 30
0.0
 11
188.86
 21
22.0
 31
0.0
  0
LINE
  5
7F
330
1F
100
AcDbEntity
  8
0
  6
Continuous
 62
     7
370
     0
100
AcDbLine
 10
188.86
 20
22.0
 30
0.0
 11
174.13
 21
22.0
 31
0.0
  0
LINE
  5
80
330
1F
100
AcDbEntity
  8
0
  6
Continuous
 62
     7
370
     0
100
AcDbLine
 10
292.0
 20
205.0
 30
0.0
 11
5.0
 21
205.0
 31
0.0
  0
LINE
  5
81
330
1F
100
AcDbEntity
  8
0
  6
Continuous
 62
     7
370
     0
100
AcDbLine
 10
5.0
 20
205.0
 30
0.0
 11
5.0
 21
5.0
 31
0.0
  0
LINE
  5
82
330
1F
100
AcDbEntity
  8
0
  6
Continuous
 62
     7
370
     0
100
AcDbLine
 10
5.0
 20
5.0
 30
0.0
 11
292.0
 21
5.0
 31
0.0
  0
LINE
  5
83
330
1F
100
AcDbEntity
  8
0
  6
Continuous
 62
     7
370
     0
100
AcDbLine
 10
174.13
 20
22.0
 30
0.0
 11
174.13
 21
34.75
 31
0.0
  0
LINE
  5
84
330
1F
100
AcDbEntity
  8
0
  6
Continuous
 62
     7
370
     0
100
AcDbLine
 10
174.13
 20
22.0
 30
0.0
 11
159.4
 21
22.0
 31
0.0
  0
LINE
  5
85
330
1F
100
AcDbEntity
  8
0
  6
Continuous
 62
     7
370
     0
100
AcDbLine
 10
279.0
 20
15.4949693602
 30
0.0
 11
279.0
 21
22.0
 31
0.0
  0
LINE
  5
86
330
1F
100
AcDbEntity
  8
0
  6
Continuous
 62
     7
370
     0
100
AcDbLine
 10
159.4
 20
28.375
 30
0.0
 11
174.13
 21
28.375
 31
0.0
  0
LINE
  5
87
330
1F
100
AcDbEntity
  8
0
  6
Continuous
 62
     7
370
     0
100
AcDbLine
 10
174.13
 20
28.375
 30
0.0
 11
188.86
 21
28.375
 31
0.0
  0
LINE
  5
88
330
1F
100
AcDbEntity
  8
0
  6
Continuous
 62
     7
370
     0
100
AcDbLine
 10
188.86
 20
28.375
 30
0.0
 11
203.6
 21
28.375
 31
0.0
  0
LINE
  5
89
330
1F
100
AcDbEntity
  8
0
  6
Continuous
 62
     7
370
     0
100
AcDbLine
 10
159.4
 20
22.0
 30
0.0
 11
159.4
 21
28.375
 31
0.0
  0
LINE
  5
8A
330
1F
100
AcDbEntity
  8
0
  6
Continuous
 62
     7
370
     0
100
AcDbLine
 10
159.4
 20
22.0
 30
0.0
 11
159.4
 21
9.25
 31
0.0
  0
LINE
  5
8B
330
1F
100
AcDbEntity
  8
0
  6
Continuous
 62
     7
370
     0
100
AcDbLine
 10
159.4
 20
5.0
 30
0.0
 11
159.4
 21
9.25
 31
0.0
  0
MTEXT
  5
8D
330
1F
100
AcDbEntity
  8
0
  6
Continuous
 62
     7
370
     0
100
AcDbMText
 10
280.2769372799
 20
19.4324449477
 30
0.0
 40
1.5
 41
0.0
 71
     1
 72
     1
  1
Blattformat
  7
SLDTEXTSTYLE0
 73
     1
 44
1.0
  0
MTEXT
  5
8E
330
1F
100
AcDbEntity
  8
0
  6
Continuous
 62
     7
370
     0
100
AcDbMText
 10
162.3642408927
 20
25.8749304694
 30
0.0
 40
1.5
 41
0.0
 71
     1
 72
     1
  1
Ch. Höfig
  7
SLDTEXTSTYLE0
 73
     1
 44
1.0
  0
MTEXT
  5
8F
330
1F
100
AcDbEntity
  8
0
  6
Continuous
 62
     7
370
     0
100
AcDbMText
 10
166.7761978259
 20
32.2346934075
 30
0.0
 40
1.5
 41
0.0
 71
     2
 72
     1
  1
Name
  7
SLDTEXTSTYLE0
 73
     1
 44
1.0
  0
MTEXT
  5
90
330
1F
100
AcDbEntity
  8
0
  6
Continuous
 62
     7
370
     0
100
AcDbMText
 10
160.4458623088
 20
20.9860562892
 30
0.0
 40
1.5
 41
0.0
 71
     1
 72
     1
  1
Werkstoff:
  7
SLDTEXTSTYLE0
 73
     1
 44
1.0
  0
MTEXT
  5
91
330
1F
100
AcDbEntity
  8
0
  6
Continuous
 62
     7
370
     0
100
AcDbMText
 10
204.8649859034
 20
32.246101463
 30
0.0
 40
1.5
 41
0.0
 71
     1
 72
     1
  1
Artikelnummer
  7
SLDTEXTSTYLE0
 73
     1
 44
1.0
  0
MTEXT
  5
92
330
1F
100
AcDbEntity
  8
0
  6
Continuous
 62
     7
370
     0
100
AcDbMText
 10
204.8739661175
 20
19.868637827
 30
0.0
 40
1.5
 41
0.0
 71
     1
 72
     1
  1
Hersteller
  7
SLDTEXTSTYLE0
 73
     1
 44
1.0
  0
MTEXT
  5
93
330
1F
100
AcDbEntity
  8
0
  6
Continuous
 62
     7
370
     0
100
AcDbMText
 10
204.8739661175
 20
7.9000872745
 30
0.0
 40
1.5
 41
0.0
 71
     1
 72
     1
  1
Massstab: 1:1
  7
SLDTEXTSTYLE0
 73
     1
 44
1.0
  0
MTEXT
  5
95
330
1F
100
AcDbEntity
  8
0
  6
Continuous
 62
     7
370
     0
100
AcDbMText
 10
249.2782944278
 20
7.9000872745
 30
0.0
 40
1.5
 41
0.0
 71
     1
 72
     1
  1
Blatt 1 von 1
  7
SLDTEXTSTYLE1
 73
     1
 44
1.0
  0
MTEXT
  5
96
330
1F
100
AcDbEntity
  8
0
  6
Continuous
 62
     7
370
     0
100
AcDbMText
 10
283.018201252
 20
14.214493588
 30
0.0
 40
2.9104166667
 41
0.0
 71
     1
 72
     1
  1
A4
  7
SLDTEXTSTYLE0
 73
     1
 44
1.0
  0
MTEXT
  5
97
330
1F
100
AcDbEntity
  8
0
  6
Continuous
 62
     7
370
     0
100
AcDbMText
 10
244.7857210818
 20
18.2877193736
 30
0.0
 40
5.2916666667
 41
0.0
 71
     2
 72
     1
  1
Feldmann GmbH
  7
SLDTEXTSTYLE0
 73
     1
 44
1.0
  0
MTEXT
  5
98
330
1F
100
AcDbEntity
  8
0
  6
Continuous
 62
     7
370
     0
100
AcDbMText
 10
196.2543489966
 20
32.2346934075
 30
0.0
 40
1.5
 41
0.0
 71
     2
 72
     1
  1
Datum
  7
SLDTEXTSTYLE0
 73
     1
 44
1.0
  0
MTEXT
  5
99
330
1F
100
AcDbEntity
  8
0
  6
Continuous
 62
     7
370
     0
100
AcDbMText
 10
180.0267509503
 20
25.8749304694
 30
0.0
 40
1.5
 41
0.0
 71
     1
 72
     1
  1
CH
  7
SLDTEXTSTYLE0
 73
     1
 44
1.0
  0
MTEXT
  5
9A
330
1F
100
AcDbEntity
  8
0
  6
Continuous
 62
     7
370
     0
100
AcDbMText
 10
191.3972993064
 20
25.8769670829
 30
0.0
 40
1.5
 41
0.0
 71
     1
 72
     1
  1
21.08.2014
  7
SLDTEXTSTYLE0
 73
     1
 44
1.0
  0
MTEXT
  5
9B
330
1F
100
AcDbEntity
  8
0
  6
Continuous
 62
     7
370
     0
100
AcDbMText
 10
181.5796608604
 20
7.888679219
 30
0.0
 40
1.5
 41
0.0
 71
     2
 72
     1
  1
Gewicht 0.286 kg
  7
SLDTEXTSTYLE0
 73
     1
 44
1.0
  0
MTEXT
  5
9C
330
1F
100
AcDbEntity
  8
0
  6
Continuous
 62
     7
370
     0
100
AcDbMText
 10
181.5188260542
 20
15.570599823
 30
0.0
 40
2.38125
 41
0.0
 71
     2
 72
     1
  1
1.0037 (S235JR)
  7
SLDTEXTSTYLE0
 73
     1
 44
1.0
  0
MTEXT
  5
9D
330
1F
100
AcDbEntity
  8
0
  6
Continuous
 62
     7
370
     0
100
AcDbMText
 10
230.512536959
 20
29.3802268497
 30
0.0
 40
4.2333333333
 41
0.0
 71
     2
 72
     1
  1
5640
  7
SLDTEXTSTYLE0
 73
     1
 44
1.0
  0
MTEXT
  5
9E
330
1F
100
AcDbEntity
  8
0
  6
Continuous
 62
     7
370
     0
100
AcDbMText
 10
181.7530017825
 20
32.1004709078
 30
0.0
 40
1.5
 41
0.0
 71
     2
 72
     1
  1
Signatur
  7
SLDTEXTSTYLE0
 73
     1
 44
1.0
  0
SPLINE
  5
9F
330
1F
100
AcDbEntity
  8
0
  6
Continuous
 62
     7
370
    15
100
AcDbSpline
210
0.0
220
0.0
230
1.0
 70
     8
 71
     3
 72
    34
 73
    30
 74
     0
 42
0.000000001
 43
0.00000001
 40
0.0
 40
0.0
 40
0.0
 40
0.0
 40
0.0620243815081411
 40
0.119172347143543
 40
0.1715052848879818
 40
0.2177693698720065
 40
0.2700606778034127
 40
0.3125123664020584
 40
0.3437669053122245
 40
0.3843397078620177
 40
0.4249457867322495
 40
0.4515348926200118
 40
0.4797236230148145
 40
0.5121252329025477
 40
0.5702860822357597
 40
0.6340014398439205
 40
0.6784302569535292
 40
0.7234140298614077
 40
0.7616982608188585
 40
0.7834578418185657
 40
0.8020619000701144
 40
0.8395353069864976
 40
0.8614032005426631
 40
0.885863216197927
 40
0.9126205397146028
 40
0.9378526028732647
 40
0.9610606075160858
 40
0.9831421395716479
 40
1.0
 40
1.0
 40
1.0
 40
1.0
 10
112.1655976730539
 20
135.9844255005322
 30
0.0
 10
111.6866813307686
 20
135.902993692018
 30
0.0
 10
110.7665015045811
 20
135.7465323212343
 30
0.0
 10
109.4333738578479
 20
135.6802289719645
 30
0.0
 10
108.2338554803229
 20
135.7937178960794
 30
0.0
 10
107.0951055461578
 20
136.0056413494991
 30
0.0
 10
106.058408704413
 20
136.3045502779012
 30
0.0
 10
105.1645772032682
 20
136.670513034274
 30
0.0
 10
104.3731941332229
 20
137.0650218538424
 30
0.0
 10
103.6157576544255
 20
137.5028903159957
 30
0.0
 10
102.9272173516894
 20
137.9711925037955
 30
0.0
 10
102.3679533169543
 20
138.4412253776704
 30
0.0
 10
101.9039069071756
 20
138.9216800779845
 30
0.0
 10
101.3313720904574
 20
139.6377223357789
 30
0.0
 10
100.6631515733098
 20
140.6368853369978
 30
0.0
 10
100.0454002605429
 20
141.7764280762093
 30
0.0
 10
99.61022277557188
 20
142.8859146190861
 30
0.0
 10
99.34186472114429
 20
143.8462013321579
 30
0.0
 10
99.15049305690111
 20
144.6398109446693
 30
0.0
 10
99.01513520794103
 20
145.2225387319296
 30
0.0
 10
98.93371509281098
 20
145.7992646417847
 30
0.0
 10
98.97720694558815
 20
146.3939296783904
 30
0.0
 10
99.14553072564632
 20
147.0071524258959
 30
0.0
 10
99.37212201757723
 20
147.5156541102714
 30
0.0
 10
99.68816713237122
 20
148.0058458725285
 30
0.0
 10
100.0681853726042
 20
148.4368257709635
 30
0.0
 10
100.4869742495859
 20
148.7743640761916
 30
0.0
 10
100.8840487499932
 20
149.0432905343196
 30
0.0
 10
101.167647867764
 20
149.1382362629726
 30
0.0
 10
101.2904251901622
 20
149.1793407009157
 30
0.0
  0
SPLINE
  5
A0
330
1F
100
AcDbEntity
  8
0
  6
Continuous
 62
     7
370
    15
100
AcDbSpline
210
0.0
220
0.0
230
1.0
 70
     8
 71
     3
 72
    17
 73
    13
 74
     0
 42
0.000000001
 43
0.00000001
 40
0.0
 40
0.0
 40
0.0
 40
0.0
 40
0.2176766661512319
 40
0.2848727134319821
 40
0.3341538364236135
 40
0.405846301608328
 40
0.4500225452908113
 40
0.5046703875702444
 40
0.6123595897638926
 40
0.8107972095057263
 40
0.9983637376376554
 40
1.0
 40
1.0
 40
1.0
 40
1.0
 10
103.8127390439636
 20
147.7107175078713
 30
0.0
 10
103.7858852106653
 20
147.8044635450509
 30
0.0
 10
103.7507416902642
 20
147.927148665404
 30
0.0
 10
103.7314712214394
 20
148.0742195397297
 30
0.0
 10
103.7111952677813
 20
148.1520021475991
 30
0.0
 10
103.6848445401801
 20
148.2022362378113
 30
0.0
 10
103.6939158165565
 20
148.2726410241794
 30
0.0
 10
103.7147619247646
 20
148.3588082224827
 30
0.0
 10
103.7702954831671
 20
148.5046902923676
 30
0.0
 10
103.9018423941776
 20
148.6710610589914
 30
0.0
 10
104.0298814245502
 20
148.7898813451144
 30
0.0
 10
104.1092091138622
 20
148.8135483859781
 30
0.0
 10
104.1098951550775
 20
148.8137530631295
 30
0.0
  0
SPLINE
  5
A1
330
1F
100
AcDbEntity
  8
0
  6
Continuous
 62
     7
370
    15
100
AcDbSpline
210
0.0
220
0.0
230
1.0
 70
     8
 71
     3
 72
    31
 73
    27
 74
     0
 42
0.000000001
 43
0.00000001
 40
0.0
 40
0.0
 40
0.0
 40
0.0
 40
0.0420466009720342
 40
0.0925767255462176
 40
0.1457474823598598
 40
0.1739059912538473
 40
0.20779280030792
 40
0.2449508808864035
 40
0.2515143067796592
 40
0.2561048426841667
 40
0.2629663534601955
 40
0.2717749230182283
 40
0.2817429988580993
 40
0.3007727194329067
 40
0.3108065242844795
 40
0.3219859723961579
 40
0.3397009249918655
 40
0.3450102264306693
 40
0.3490144413490758
 40
0.3524600405685034
 40
0.3648334895040189
 40
0.4069824675406121
 40
0.474194392793056
 40
0.603321151734509
 40
0.7783540815234433
 40
1.0
 40
1.0
 40
1.0
 40
1.0
 10
104.4526536002881
 20
148.8955316487047
 30
0.0
 10
104.5350111577927
 20
148.899051614059
 30
0.0
 10
104.7163431280709
 20
148.9068017498368
 30
0.0
 10
104.9903835784509
 20
148.8080090920193
 30
0.0
 10
105.1895064884719
 20
148.6354582057044
 30
0.0
 10
105.339282821657
 20
148.463276788855
 30
0.0
 10
105.4316670624303
 20
148.2861409258509
 30
0.0
 10
105.4776568511086
 20
148.1353781680727
 30
0.0
 10
105.5112875633736
 20
148.0477351296317
 30
0.0
 10
105.5273729965072
 20
148.0193166723156
 30
0.0
 10
105.5473696045646
 20
148.0029743863662
 30
0.0
 10
105.5551179805001
 20
147.9559867527951
 30
0.0
 10
105.5539734836363
 20
147.8902532550426
 30
0.0
 10
105.5389548735172
 20
147.8249655856193
 30
0.0
 10
105.5010270061387
 20
147.7672307915086
 30
0.0
 10
105.4457437132636
 20
147.7224443078426
 30
0.0
 10
105.3865891713066
 20
147.6970118109383
 30
0.0
 10
105.338950380301
 20
147.6849516378003
 30
0.0
 10
105.3155355521493
 20
147.680661837238
 30
0.0
 10
105.2847824749482
 20
147.6770026627981
 30
0.0
 10
105.2244780572747
 20
147.6776436927003
 30
0.0
 10
105.1552087259735
 20
147.699589448139
 30
0.0
 10
105.0609253534181
 20
147.7557760325898
 30
0.0
 10
104.9907279094841
 20
147.8340353004267
 30
0.0
 10
104.9432071954544
 20
147.9162607419
 30
0.0
 10
104.9321634567892
 20
147.9674580899834
 30
0.0
 10
104.925992722931
 20
147.9960648162789
 30
0.0
  0
SPLINE
  5
A2
330
1F
100
AcDbEntity
  8
0
  6
Continuous
 62
     7
370
    15
100
AcDbSpline
210
0.0
220
0.0
230
1.0
 70
     8
 71
     3
 72
    31
 73
    27
 74
     0
 42
0.000000001
 43
0.00000001
 40
0.0
 40
0.0
 40
0.0
 40
0.0
 40
0.2216510249208052
 40
0.3966879872550071
 40
0.5258177211266251
 40
0.5930311948695784
 40
0.6351811439803694
 40
0.6475548779922232
 40
0.65203358550638
 40
0.6549969676563558
 40
0.6603063914148155
 40
0.6780217521382013
 40
0.6892014578074913
 40
0.6992354938233003
 40
0.7182656528211836
 40
0.7282339583171888
 40
0.7370427308200991
 40
0.743904399684797
 40
0.7484950413524345
 40
0.7678046213942313
 40
0.7922024123822821
 40
0.8260900021521728
 40
0.8542491597869091
 40
0.9074211415936654
 40
0.957952430323175
 40
1.0
 40
1.0
 40
1.0
 40
1.0
 10
61.38401553156709
 20
147.9960648162026
 30
0.0
 10
61.3778363091162
 20
147.967459834596
 30
0.0
 10
61.36677737844928
 20
147.9162656089744
 30
0.0
 10
61.31934464602421
 20
147.8340220844877
 30
0.0
 10
61.24894394509366
 20
147.7558045924786
 30
0.0
 10
61.15501543472747
 20
147.6995450725022
 30
0.0
 10
61.08518105846628
 20
147.677715451885
 30
0.0
 10
61.02441060543779
 20
147.6769379108986
 30
0.0
 10
60.99246934325573
 20
147.6809596014245
 30
0.0
 10
60.96924436723373
 20
147.68542133202
 30
0.0
 10
60.9233933947349
 20
147.6970054445965
 30
0.0
 10
60.86427059684778
 20
147.7224457158393
 30
0.0
 10
60.80897998767517
 20
147.7672306767234
 30
0.0
 10
60.77105463888903
 20
147.8249649867921
 30
0.0
 10
60.75603064173159
 20
147.890257715019
 30
0.0
 10
60.75489721358207
 20
147.9559790552944
 30
0.0
 10
60.76261782967688
 20
148.0029975442597
 30
0.0
 10
60.78268631883861
 20
148.0192598684095
 30
0.0
 10
60.80981876978933
 20
148.0681547045477
 30
0.0
 10
60.83877898116427
 20
148.1619351715404
 30
0.0
 10
60.89054048706728
 20
148.3082683314662
 30
0.0
 10
60.97064905223706
 20
148.4634360654501
 30
0.0
 10
61.12054011432661
 20
148.635378237957
 30
0.0
 10
61.31961252525468
 20
148.8080344301056
 30
0.0
 10
61.59366752377157
 20
148.9067967506772
 30
0.0
 10
61.77499784547119
 20
148.8990500526826
 30
0.0
 10
61.85735465422251
 20
148.8955316487045
 30
0.0
  0
SPLINE
  5
A3
330
1F
100
AcDbEntity
  8
0
  6
Continuous
 62
     7
370
    15
100
AcDbSpline
210
0.0
220
0.0
230
1.0
 70
     8
 71
     3
 72
    17
 73
    13
 74
     0
 42
0.000000001
 43
0.00000001
 40
0.0
 40
0.0
 40
0.0
 40
0.0
 40
0.0016362623732001
 40
0.1892027917551942
 40
0.3876404128298476
 40
0.4953296157506172
 40
0.5499774584001563
 40
0.5941537023855328
 40
0.6658461680678458
 40
0.7151272913935198
 40
0.7823233391253769
 40
0.9999999999999999
 40
0.9999999999999999
 40
0.9999999999999999
 40
0.9999999999999999
 10
62.20011309943314
 20
148.8137530631293
 30
0.0
 10
62.20079914064836
 20
148.8135483859779
 30
0.0
 10
62.28012682996295
 20
148.7898813451135
 30
0.0
 10
62.40816586033721
 20
148.6710610589861
 30
0.0
 10
62.53971277134532
 20
148.504690292364
 30
0.0
 10
62.59524632974599
 20
148.3588082224821
 30
0.0
 10
62.61609243795495
 20
148.2726410241765
 30
0.0
 10
62.62516371432965
 20
148.2022362378076
 30
0.0
 10
62.59881298673326
 20
148.1520021476055
 30
0.0
 10
62.57853703306673
 20
148.0742195397324
 30
0.0
 10
62.55926656468547
 20
147.927148668362
 30
0.0
 10
62.52412304514496
 20
147.8044635509015
 30
0.0
 10
62.49726921270037
 20
147.7107175166169
 30
0.0
  0
SPLINE
  5
A4
330
1F
100
AcDbEntity
  8
0
  6
Continuous
 62
     7
370
    15
100
AcDbSpline
210
0.0
220
0.0
230
1.0
 70
     8
 71
     3
 72
    35
 73
    31
 74
     0
 42
0.000000001
 43
0.00000001
 40
0.0
 40
0.0
 40
0.0
 40
0.0
 40
0.0173678468002903
 40
0.0394363105068434
 40
0.0626305801287212
 40
0.0878477103828467
 40
0.1145891983114278
 40
0.1390347379772817
 40
0.1608896896204477
 40
0.1802781318774127
 40
0.1984127782669247
 40
0.217005826216909
 40
0.2387525294054398
 40
0.2770141028908487
 40
0.3219712533865162
 40
0.3663737765192693
 40
0.4300514259405599
 40
0.4881778543702859
 40
0.5205602882538971
 40
0.54873233592176
 40
0.5753057057764744
 40
0.6158877530526488
 40
0.6564365437020617
 40
0.6876725854706055
 40
0.7300991502016924
 40
0.7823595109567114
 40
0.8285962158109408
 40
0.8808981817415297
 40
0.9380123259208878
 40
1.0
 40
1.0
 40
1.0
 40
1.0
 10
65.00841684917894
 20
149.1835718872206
 30
0.0
 10
65.13501968766919
 20
149.1412755948896
 30
0.0
 10
65.42249048973001
 20
149.045235496377
 30
0.0
 10
65.82307860027962
 20
148.7744594420236
 30
0.0
 10
66.2418108936839
 20
148.4367958523512
 30
0.0
 10
66.62183889057304
 20
148.0058603807176
 30
0.0
 10
66.93790909126282
 20
147.5156288380397
 30
0.0
 10
67.16440093439947
 20
147.0072275047796
 30
0.0
 10
67.29674056219156
 20
146.5259489160817
 30
0.0
 10
67.35512848107156
 20
146.0792942066822
 30
0.0
 10
67.35625067310579
 20
145.6562908185626
 30
0.0
 10
67.29481750766433
 20
145.2224641835412
 30
0.0
 10
67.15954465295971
 20
144.6398504817989
 30
0.0
 10
66.96813202775343
 20
143.846185888481
 30
0.0
 10
66.6997886855974
 20
142.8859189232982
 30
0.0
 10
66.26460671354809
 20
141.776426357536
 30
0.0
 10
65.64685704459636
 20
140.6368858247738
 30
0.0
 10
64.97863611497905
 20
139.6377222699078
 30
0.0
 10
64.40610135574313
 20
138.9216800892703
 30
0.0
 10
63.94205493559975
 20
138.4412253750439
 30
0.0
 10
63.38279090364072
 20
137.9711925048953
 30
0.0
 10
62.69425059982628
 20
137.502890315648
 30
0.0
 10
61.93681412133908
 20
137.065021853911
 30
0.0
 10
61.14543105122539
 20
136.6705130342509
 30
0.0
 10
60.25159955010423
 20
136.3045502779098
 30
0.0
 10
59.21490270835125
 20
136.0056413494967
 30
0.0
 10
58.07615277418834
 20
135.7937178960799
 30
0.0
 10
56.87663439666268
 20
135.6802289719642
 30
0.0
 10
55.54350674992961
 20
135.7465323212341
 30
0.0
 10
54.62332692374216
 20
135.9029936920179
 30
0.0
 10
54.1444105814568
 20
135.984425500532
 30
0.0
  0
ARC
  5
A5
330
1F
100
AcDbEntity
  8
0
  6
Continuous
 62
     7
370
    15
100
AcDbCircle
 10
112.3297564435
 20
139.2125068907
 30
0.0
 40
3.23188629508375
100
AcDbArc
 50
267.0888251226
 51
284.9729447937
  0
ARC
  5
A6
330
1F
100
AcDbEntity
  8
0
  6
Continuous
 62
     7
370
    15
100
AcDbCircle
 10
112.3297564435
 20
139.2125068907
 30
0.0
 40
15.23188629508383
100
AcDbArc
 50
267.0888251226
 51
284.9729447937
  0
ARC
  5
A7
330
1F
100
AcDbEntity
  8
0
  6
Continuous
 62
     7
370
    15
100
AcDbCircle
 10
53.980251811
 20
139.2125068907
 30
0.0
 40
3.231886295083761
100
AcDbArc
 50
255.0270552063
 51
272.9053085598
  0
ARC
  5
A8
330
1F
100
AcDbEntity
  8
0
  6
Continuous
 62
     7
370
    15
100
AcDbCircle
 10
53.980251811
 20
139.2125068907
 30
0.0
 40
15.23188629508376
100
AcDbArc
 50
255.0270552063
 51
272.9111748774
  0
SPLINE
  5
A9
330
1F
100
AcDbEntity
  8
0
  6
Continuous
 62
     7
370
    15
100
AcDbSpline
210
0.0
220
0.0
230
1.0
 70
     8
 71
     3
 72
    28
 73
    24
 74
     0
 42
0.000000001
 43
0.00000001
 40
0.0
 40
0.0
 40
0.0
 40
0.0
 40
0.0646300355809145
 40
0.1158027059036455
 40
0.1570723172211919
 40
0.1921893666793218
 40
0.2259867040430013
 40
0.2593599517602072
 40
0.2928962030765032
 40
0.3523877904442786
 40
0.4079775287233123
 40
0.4694956549469093
 40
0.5372482288561113
 40
0.6116811017620709
 40
0.6809799564229636
 40
0.7421107418276753
 40
0.7667820514926591
 40
0.7910457776642468
 40
0.8192003394005817
 40
0.852082218770581
 40
0.8910960186983323
 40
0.9389265934405018
 40
0.9999999999999999
 40
0.9999999999999999
 40
0.9999999999999999
 40
0.9999999999999999
 10
118.0236677504827
 20
166.8748863165947
 30
0.0
 10
118.2663926221351
 20
166.6628981403037
 30
0.0
 10
118.7013018199224
 20
166.2830622913301
 30
0.0
 10
119.2722909286037
 20
165.7468208172137
 30
0.0
 10
119.7235882821806
 20
165.2985697562605
 30
0.0
 10
120.1028144459309
 20
164.9009878650621
 30
0.0
 10
120.446000765473
 20
164.5236658541892
 30
0.0
 10
120.7759818362202
 20
164.1451636230181
 30
0.0
 10
121.1822724687529
 20
163.6633928213033
 30
0.0
 10
121.6492627501284
 20
163.0879611255321
 30
0.0
 10
122.1864141354027
 20
162.3901257306622
 30
0.0
 10
122.7277122412687
 20
161.6439237478976
 30
0.0
 10
123.2955148227717
 20
160.8014529226033
 30
0.0
 10
123.8441054197039
 20
159.9004547298323
 30
0.0
 10
124.3389844497032
 20
159.0066709084728
 30
0.0
 10
124.6945347186455
 20
158.319841680249
 30
0.0
 10
124.9396756761802
 20
157.8288540471646
 30
0.0
 10
125.1090245904584
 20
157.4838082320298
 30
0.0
 10
125.2931787958782
 20
157.100426222061
 30
0.0
 10
125.5010395413144
 20
156.6468859736467
 30
0.0
 10
125.7336065825102
 20
156.0969975617789
 30
0.0
 10
125.9959312694915
 20
155.4073955172355
 30
0.0
 10
126.1625170302106
 20
154.8904970432708
 30
0.0
 10
126.2559384071871
 20
154.6006201235006
 30
0.0
  0
SPLINE
  5
AA
330
1F
100
AcDbEntity
  8
0
  6
Continuous
 62
     7
370
    15
100
AcDbSpline
210
0.0
220
0.0
230
1.0
 70
     8
 71
     3
 72
    31
 73
    27
 74
     0
 42
0.000000001
 43
0.00000001
 40
0.0
 40
0.0
 40
0.0
 40
0.0
 40
0.057705340325296
 40
0.1047797742103883
 40
0.142895703846971
 40
0.1746532106115862
 40
0.2040907096573039
 40
0.231528212194611
 40
0.2574234483048131
 40
0.2856178976318889
 40
0.3552463334042175
 40
0.4384765098300177
 40
0.5189935261858608
 40
0.5734288692131899
 40
0.6218051938483194
 40
0.6662018150154572
 40
0.707962889786151
 40
0.7558535145649393
 40
0.7830873662896206
 40
0.811318129441025
 40
0.8378653895820037
 40
0.8627326718314752
 40
0.8861029909595155
 40
0.9146443539888499
 40
0.9523044972805788
 40
1.0
 40
1.0
 40
1.0
 40
1.0
 10
138.0540698473236
 20
157.0748097815757
 30
0.0
 10
137.921060754653
 20
157.4941608666705
 30
0.0
 10
137.6795464923787
 20
158.25560706495
 30
0.0
 10
137.3221226995192
 20
159.2848149660616
 30
0.0
 10
137.0120643714801
 20
160.120784895822
 30
0.0
 10
136.7343811127456
 20
160.8251794388043
 30
0.0
 10
136.4750551179697
 20
161.4491707285636
 30
0.0
 10
136.2227935956681
 20
162.0275902415909
 30
0.0
 10
135.9652457095658
 20
162.5932749205309
 30
0.0
 10
135.5608205076998
 20
163.445381029444
 30
0.0
 10
134.933765573397
 20
164.6754323260627
 30
0.0
 10
134.0569214527785
 20
166.2243213093642
 30
0.0
 10
133.1677878440918
 20
167.6308297473385
 30
0.0
 10
132.3760762153342
 20
168.7828255626436
 30
0.0
 10
131.7142118727143
 20
169.689299811341
 30
0.0
 10
131.0884902304223
 20
170.5020742367241
 30
0.0
 10
130.4461864014317
 20
171.2970227480374
 30
0.0
 10
129.8694660294476
 20
171.9764585107055
 30
0.0
 10
129.3465842601311
 20
172.5659345181099
 30
0.0
 10
128.9238910950966
 20
173.0266663567315
 30
0.0
 10
128.5059118411567
 20
173.4671171664969
 30
0.0
 10
128.1069094018836
 20
173.8743874354481
 30
0.0
 10
127.6911688234738
 20
174.286451754109
 30
0.0
 10
127.1985595650323
 20
174.7593784291939
 30
0.0
 10
126.5615419595795
 20
175.3495776533936
 30
0.0
 10
126.0713695467831
 20
175.7776021038858
 30
0.0
 10
125.7974682790865
 20
176.0167759874711
 30
0.0
  0
SPLINE
  5
AB
330
1F
100
AcDbEntity
  8
0
  6
Continuous
 62
     7
370
    15
100
AcDbSpline
210
0.0
220
0.0
230
1.0
 70
     8
 71
     3
 72
    50
 73
    46
 74
     0
 42
0.000000001
 43
0.00000001
 40
0.0
 40
0.0
 40
0.0
 40
0.0
 40
0.0368594752358559
 40
0.0672881819192587
 40
0.0926155170515102
 40
0.1136665715981826
 40
0.1308811709801472
 40
0.1493553651155448
 40
0.1763986707995334
 40
0.2058775044710226
 40
0.232150308500523
 40
0.2554161008182568
 40
0.2975193270536849
 40
0.3431383070223137
 40
0.3886964926109071
 40
0.413356701609858
 40
0.4351339573004905
 40
0.4568012539270614
 40
0.4833288357855212
 40
0.5057239180723031
 40
0.530378828096749
 40
0.5526605583981041
 40
0.5710800003906601
 40
0.5856618657525603
 40
0.5975768360311644
 40
0.6129253286286607
 40
0.6308003248932547
 40
0.6523314581374154
 40
0.6740664234844751
 40
0.6926653175752545
 40
0.7081165771845045
 40
0.7207297066203637
 40
0.7403881433906178
 40
0.7648553102932378
 40
0.7906472553952053
 40
0.8147787456400659
 40
0.8372339970131112
 40
0.8520806224027453
 40
0.8662231316090342
 40
0.8802495625873639
 40
0.8989065519210998
 40
0.9176722871267451
 40
0.9403446100377169
 40
0.9674759490339999
 40
1.0
 40
1.0
 40
1.0
 40
1.0
 10
28.25593840718703
 20
157.0748097815753
 30
0.0
 10
28.20178069252594
 20
156.551825123994
 30
0.0
 10
28.10291400673812
 20
155.5970994651197
 30
0.0
 10
28.02652833219503
 20
154.2778968097727
 30
0.0
 10
28.00347205803155
 20
153.1824255733758
 30
0.0
 10
28.01701250273991
 20
152.2753275132455
 30
0.0
 10
28.05330424971879
 20
151.4667852902498
 30
0.0
 10
28.11796946047344
 20
150.5742793573107
 30
0.0
 10
28.23091583738397
 20
149.5103115683816
 30
0.0
 10
28.40223328996637
 20
148.3415696084539
 30
0.0
 10
28.60857500746539
 20
147.2333392661249
 30
0.0
 10
28.89191795120795
 20
145.9571468987465
 30
0.0
 10
29.30715068526623
 20
144.4284615809247
 30
0.0
 10
29.92422062563269
 20
142.6289178530948
 30
0.0
 10
30.56516176384363
 20
141.1046682248511
 30
0.0
 10
31.13525078070398
 20
139.9225966631475
 30
0.0
 10
31.58619318040069
 20
139.062056537939
 30
0.0
 10
32.07642747846222
 20
138.1925866072023
 30
0.0
 10
32.60036665388274
 20
137.3325455543946
 30
0.0
 10
33.17666346610219
 20
136.4553216035683
 30
0.0
 10
33.74656817242051
 20
135.6469394191457
 30
0.0
 10
34.30859648054773
 20
134.9030654636049
 30
0.0
 10
34.8019698013871
 20
134.2878787472614
 30
0.0
 10
35.21457880520351
 20
133.7977457624191
 30
0.0
 10
35.60771286907821
 20
133.3486461854802
 30
0.0
 10
36.04142234539271
 20
132.8727722741847
 30
0.0
 10
36.58159266611204
 20
132.3086290128774
 30
0.0
 10
37.20307315127131
 20
131.6966615083819
 30
0.0
 10
37.85168498329104
 20
131.0981869824628
 30
0.0
 10
38.45260528306473
 20
130.5765270231394
 30
0.0
 10
38.96621098770929
 20
130.1531472351191
 30
0.0
 10
39.50042128789222
 20
129.7312940215299
 30
0.0
 10
40.14731598446649
 20
129.2448789557609
 30
0.0
 10
40.96274818821877
 20
128.6705003859203
 30
0.0
 10
41.85072897011755
 20
128.0893577430563
 30
0.0
 10
42.73297338853839
 20
127.5529681602766
 30
0.0
 10
43.49549227940113
 20
127.1210482882607
 30
0.0
 10
44.14282308947356
 20
126.7754995825872
 30
0.0
 10
44.68968314441709
 20
126.497288504081
 30
0.0
 10
45.29091533902515
 20
126.206386113899
 30
0.0
 10
45.95933562529468
 20
125.9033075664842
 30
0.0
 10
46.7503030668469
 20
125.5727221464908
 30
0.0
 10
47.66519293519555
 20
125.2266106216118
 30
0.0
 10
48.77839250436168
 20
124.8514422179068
 30
0.0
 10
49.59803129759271
 20
124.6225606061163
 30
0.0
 10
50.0448974382987
 20
124.4977746108901
 30
0.0
  0
SPLINE
  5
AC
330
1F
100
AcDbEntity
  8
0
  6
Continuous
 62
     7
370
    15
100
AcDbSpline
210
0.0
220
0.0
230
1.0
 70
     8
 71
     3
 72
    35
 73
    31
 74
     0
 42
0.000000001
 43
0.00000001
 40
0.0
 40
0.0
 40
0.0
 40
0.0
 40
0.0361249765360169
 40
0.0631096372591172
 40
0.0839052624956381
 40
0.1002726136824399
 40
0.1362015978232611
 40
0.1766658287668378
 40
0.2201899024418426
 40
0.261850775074951
 40
0.3070391269476039
 40
0.3543875179795137
 40
0.3989176223846905
 40
0.4388788475191457
 40
0.4821631752560359
 40
0.5316418413249396
 40
0.5797832511948506
 40
0.6223818250229137
 40
0.6644464980267569
 40
0.7100525600565416
 40
0.7658987216392203
 40
0.8150038610085171
 40
0.8298066256087336
 40
0.8496177297848106
 40
0.8747650742509839
 40
0.8920941421445718
 40
0.9116574722442403
 40
0.9346412857134512
 40
0.9630641787910141
 40
0.9999999999999999
 40
0.9999999999999999
 40
0.9999999999999999
 40
0.9999999999999999
 10
53.14525228320345
 20
136.0903498138239
 30
0.0
 10
52.85965630751396
 20
136.1690362578826
 30
0.0
 10
52.36072564632838
 20
136.3064999580128
 30
0.0
 10
51.70648120671069
 20
136.5201215280035
 30
0.0
 10
51.21343868015427
 20
136.7037259836256
 30
0.0
 10
50.6600764687174
 20
136.9343619225816
 30
0.0
 10
49.97514878039112
 20
137.265911753602
 30
0.0
 10
49.10966251392023
 20
137.7329461418386
 30
0.0
 10
48.223969900626
 20
138.2600997634057
 30
0.0
 10
47.33221638251731
 20
138.8504769113101
 30
0.0
 10
46.45209801001045
 20
139.5123772054225
 30
0.0
 10
45.60517557066255
 20
140.2528584361212
 30
0.0
 10
44.84207533105194
 20
141.0197318716767
 30
0.0
 10
44.14924487590503
 20
141.8063641288126
 30
0.0
 10
43.47607611753111
 20
142.6622565388473
 30
0.0
 10
42.81805052975866
 20
143.6129857345331
 30
0.0
 10
42.22500369439812
 20
144.5988923464529
 30
0.0
 10
41.71985191175946
 20
145.5642923755144
 30
0.0
 10
41.28336333596535
 20
146.5399975491528
 30
0.0
 10
40.87607101306886
 20
147.6452630132656
 30
0.0
 10
40.54875532667177
 20
148.837117125857
 30
0.0
 10
40.35183201801404
 20
149.7995948851956
 30
0.0
 10
40.23321604889963
 20
150.4757142841304
 30
0.0
 10
40.15567883069501
 20
150.9595849847803
 30
0.0
 10
40.0823024256546
 20
151.465057946342
 30
0.0
 10
40.01871563666882
 20
151.9698230444751
 30
0.0
 10
39.97446870239778
 20
152.4589753132179
 30
0.0
 10
39.9531930151584
 20
153.0408289566495
 30
0.0
 10
39.97120967316841
 20
153.7656590433246
 30
0.0
 10
40.02415125428124
 20
154.2991380059616
 30
0.0
 10
40.0540698473235
 20
154.6006201235003
 30
0.0
  0
SPLINE
  5
AD
330
1F
100
AcDbEntity
  8
0
  6
Continuous
 62
     7
370
    15
100
AcDbSpline
210
0.0
220
0.0
230
1.0
 70
     8
 71
     3
 72
    12
 73
     8
 74
     0
 42
0.000000001
 43
0.00000001
 40
0.0
 40
0.0
 40
0.0
 40
0.0
 40
0.1997612818603724
 40
0.3996213936601645
 40
0.5996064001872347
 40
0.7996740642670876
 40
1.0
 40
1.0
 40
1.0
 40
1.0
 10
83.15500412725521
 20
176.992534616139
 30
0.0
 10
84.60420719504214
 20
176.9603375640041
 30
0.0
 10
87.50333030965248
 20
176.8959275305579
 30
0.0
 10
91.84623384547177
 20
176.5921622661155
 30
0.0
 10
96.16142461779947
 20
175.9936193460331
 30
0.0
 10
100.4324462003878
 20
175.127401902069
 30
0.0
 10
103.2612094355241
 20
174.4650993205933
 30
0.0
 10
104.6765033920473
 20
174.1337344225667
 30
0.0
  0
SPLINE
  5
AE
330
1F
100
AcDbEntity
  8
0
  6
Continuous
 62
     7
370
    15
100
AcDbSpline
210
0.0
220
0.0
230
1.0
 70
     8
 71
     3
 72
    13
 73
     9
 74
     0
 42
0.000000001
 43
0.00000001
 40
0.0
 40
0.0
 40
0.0
 40
0.0
 40
0.1665660008146117
 40
0.333044956395168
 40
0.4995689536586452
 40
0.6663124128285657
 40
0.8331130360139494
 40
1.0
 40
1.0
 40
1.0
 40
1.0
 10
108.0039494128248
 20
185.6647122143021
 30
0.0
 10
106.6455809226619
 20
185.9856781722797
 30
0.0
 10
103.9295538081105
 20
186.6274423555835
 30
0.0
 10
99.83564207304389
 20
187.5052267302817
 30
0.0
 10
95.70436084543591
 20
188.2019123858124
 30
0.0
 10
91.5371446189834
 20
188.664644303377
 30
0.0
 10
87.34867015216003
 20
188.8975803987115
 30
0.0
 10
84.55313391481529
 20
188.9608777509877
 30
0.0
 10
83.15500412725517
 20
188.992534616139
 30
0.0
  0
SPLINE
  5
AF
330
1F
100
AcDbEntity
  8
0
  6
Continuous
 62
     7
370
    15
100
AcDbSpline
210
0.0
220
0.0
230
1.0
 70
     8
 71
     3
 72
    13
 73
     9
 74
     0
 42
0.000000001
 43
0.00000001
 40
0.0
 40
0.0
 40
0.0
 40
0.0
 40
0.1668869639860506
 40
0.3336875871714345
 40
0.5004310463413547
 40
0.666955043604831
 40
0.8334339991853876
 40
0.9999999999999999
 40
0.9999999999999999
 40
0.9999999999999999
 40
0.9999999999999999
 10
83.15500412725515
 20
188.992534616139
 30
0.0
 10
81.75687433969503
 20
188.9608777509877
 30
0.0
 10
78.96133810235031
 20
188.8975803987115
 30
0.0
 10
74.77286363552692
 20
188.6646443033769
 30
0.0
 10
70.60564740907442
 20
188.2019123858122
 30
0.0
 10
66.47436618146646
 20
187.5052267302815
 30
0.0
 10
62.38045444639985
 20
186.6274423555834
 30
0.0
 10
59.66442733184847
 20
185.9856781722795
 30
0.0
 10
58.30605884168557
 20
185.6647122143019
 30
0.0
  0
SPLINE
  5
B0
330
1F
100
AcDbEntity
  8
0
  6
Continuous
 62
     7
370
    15
100
AcDbSpline
210
0.0
220
0.0
230
1.0
 70
     8
 71
     3
 72
    12
 73
     8
 74
     0
 42
0.000000001
 43
0.00000001
 40
0.0
 40
0.0
 40
0.0
 40
0.0
 40
0.2003259357329125
 40
0.4003935998127651
 40
0.6003786063398365
 40
0.8002387181396287
 40
1.0
 40
1.0
 40
1.0
 40
1.0
 10
61.63350486246317
 20
174.1337344225666
 30
0.0
 10
63.0487988189863
 20
174.4650993205931
 30
0.0
 10
65.87756205412262
 20
175.1274019020688
 30
0.0
 10
70.14858363671095
 20
175.993619346033
 30
0.0
 10
74.46377440903865
 20
176.5921622661154
 30
0.0
 10
78.80667794485797
 20
176.8959275305579
 30
0.0
 10
81.70580105946829
 20
176.9603375640041
 30
0.0
 10
83.1550041272552
 20
176.992534616139
 30
0.0
  0
SPLINE
  5
B1
330
1F
100
AcDbEntity
  8
0
  6
Continuous
 62
     7
370
    15
100
AcDbSpline
210
0.0
220
0.0
230
1.0
 70
     8
 71
     3
 72
    28
 73
    24
 74
     0
 42
0.000000001
 43
0.00000001
 40
0.0
 40
0.0
 40
0.0
 40
0.0
 40
0.0530658072556761
 40
0.0936874350753997
 40
0.1230864940201337
 40
0.150572748064148
 40
0.1802442137485994
 40
0.2222472806030984
 40
0.2615672006255532
 40
0.2954458441233138
 40
0.3508131745681569
 40
0.4114052780229041
 40
0.4812822395116042
 40
0.5576405059730859
 40
0.6375604248926099
 40
0.7055484579210975
 40
0.7609372732821854
 40
0.7892899257255283
 40
0.8198979329041998
 40
0.8529111482001761
 40
0.8920054825360284
 40
0.9405938289421595
 40
1.0
 40
1.0
 40
1.0
 40
1.0
 10
58.30605884168557
 20
185.6647122143019
 30
0.0
 10
57.96191203246664
 20
185.5575257821314
 30
0.0
 10
57.35432244677055
 20
185.3682886363256
 30
0.0
 10
56.56204034503516
 20
185.1011598731611
 30
0.0
 10
55.93727790325313
 20
184.8813311781854
 30
0.0
 10
55.3850846874711
 20
184.6794581976032
 30
0.0
 10
54.75531693262871
 20
184.4405847621404
 30
0.0
 10
54.0545355077355
 20
184.1624669093304
 30
0.0
 10
53.33222208773347
 20
183.8614650404226
 30
0.0
 10
52.53114846597914
 20
183.5137512697829
 30
0.0
 10
51.60467075850509
 20
183.0922981278161
 30
0.0
 10
50.46772329791218
 20
182.5437119594108
 30
0.0
 10
49.21833803850559
 20
181.9009747099808
 30
0.0
 10
47.87319320507874
 20
181.158677710459
 30
0.0
 10
46.56349730115329
 20
180.3802582476779
 30
0.0
 10
45.39738243438182
 20
179.6404068880247
 30
0.0
 10
44.54058125001085
 20
179.0675242725382
 30
0.0
 10
43.90202986675899
 20
178.6253311955482
 30
0.0
 10
43.39264917280504
 20
178.2636374216653
 30
0.0
 10
42.82919563865198
 20
177.8521641856224
 30
0.0
 10
42.17487152225806
 20
177.3582135401253
 30
0.0
 10
41.38804787370061
 20
176.7423564673138
 30
0.0
 10
40.82323506531147
 20
176.2742657175454
 30
0.0
 10
40.51253997542398
 20
176.0167759874708
 30
0.0
  0
SPLINE
  5
B2
330
1F
100
AcDbEntity
  8
0
  6
Continuous
 62
     7
370
    15
100
AcDbSpline
210
0.0
220
0.0
230
1.0
 70
     8
 71
     3
 72
    27
 73
    23
 74
     0
 42
0.000000001
 43
0.00000001
 40
0.0
 40
0.0
 40
0.0
 40
0.0
 40
0.0672420502325644
 40
0.1208503807132974
 40
0.1649025656641444
 40
0.2015700356374296
 40
0.2318953620166882
 40
0.2616999069217064
 40
0.2936930043409701
 40
0.3579275142581542
 40
0.4289631704098847
 40
0.4985447247613617
 40
0.5678322969713567
 40
0.627052132183293
 40
0.6833460701968871
 40
0.7110951077260588
 40
0.7445326528242707
 40
0.7882623882788927
 40
0.8282742515706149
 40
0.8755132677731042
 40
0.9317858908927955
 40
1.0
 40
1.0
 40
1.0
 40
1.0
 10
48.28634050402781
 20
166.8748863165944
 30
0.0
 10
48.55026557038927
 20
167.093621617157
 30
0.0
 10
49.02460334919363
 20
167.4867423542108
 30
0.0
 10
49.68891320800759
 20
168.0020053379862
 30
0.0
 10
50.23939538112459
 20
168.4092953447055
 30
0.0
 10
50.70082785092426
 20
168.7371981926324
 30
0.0
 10
51.10665741146865
 20
169.0178649390791
 30
0.0
 10
51.49556717958581
 20
169.2810656741725
 30
0.0
 10
52.03147552824799
 20
169.6353980844501
 30
0.0
 10
52.75068480176115
 20
170.0934726945962
 30
0.0
 10
53.64567365864011
 20
170.6317267977294
 30
0.0
 10
54.57919939528035
 20
171.1549212793402
 30
0.0
 10
55.47362085667145
 20
171.623805772964
 30
0.0
 10
56.31809093143237
 20
172.0414115529011
 30
0.0
 10
56.97913013079869
 20
172.3519049919375
 30
0.0
 10
57.52473771270032
 20
172.5987582044884
 30
0.0
 10
58.01419515583797
 20
172.8143053387519
 30
0.0
 10
58.56439420517182
 20
173.0469219694361
 30
0.0
 10
59.18427275690973
 20
173.2950985006464
 30
0.0
 10
59.86926501796538
 20
173.5522191134089
 30
0.0
 10
60.695928474879
 20
173.8405578218089
 30
0.0
 10
61.30161249730157
 20
174.0299529315605
 30
0.0
 10
61.63350486246317
 20
174.1337344225666
 30
0.0
  0
SPLINE
  5
B3
330
1F
100
AcDbEntity
  8
0
  6
Continuous
 62
     7
370
    15
100
AcDbSpline
210
0.0
220
0.0
230
1.0
 70
     8
 71
     3
 72
    23
 73
    19
 74
     0
 42
0.000000001
 43
0.00000001
 40
0.0
 40
0.0
 40
0.0
 40
0.0
 40
0.074203959503231
 40
0.1327011049154109
 40
0.1792833886913425
 40
0.2159790623491079
 40
0.2455862947319264
 40
0.2748649436378341
 40
0.3045719350369426
 40
0.4739411924409745
 40
0.5493744730585728
 40
0.628713109463863
 40
0.7134619073279285
 40
0.759498880853428
 40
0.8092650472318237
 40
0.8635107796695821
 40
0.9253917311094357
 40
1.0
 40
1.0
 40
1.0
 40
1.0
 10
104.6765033920473
 20
174.1337344225667
 30
0.0
 10
105.0374712573693
 20
174.0206453211326
 30
0.0
 10
105.683000618442
 20
173.8184047828288
 30
0.0
 10
106.5450274734369
 20
173.5144943071721
 30
0.0
 10
107.2206609408855
 20
173.2578860691088
 30
0.0
 10
107.7542806439767
 20
173.0425066479876
 30
0.0
 10
108.2033133160514
 20
172.8534335945879
 30
0.0
 10
108.6173902950354
 20
172.6732145602437
 30
0.0
 10
109.6799334008404
 20
172.1979718622267
 30
0.0
 10
110.9386841052044
 20
171.5843298706224
 30
0.0
 10
112.3885999941542
 20
170.7916293264378
 30
0.0
 10
113.4396264294527
 20
170.1698880877097
 30
0.0
 10
114.3437238919752
 20
169.5952568672784
 30
0.0
 10
115.108852007393
 20
169.0837484029614
 30
0.0
 10
115.7379505110691
 20
168.6486633209559
 30
0.0
 10
116.4229216898146
 20
168.1526908492531
 30
0.0
 10
117.1946376166457
 20
167.5609895116957
 30
0.0
 10
117.7306633032392
 20
167.1173760394979
 30
0.0
 10
118.0236677504827
 20
166.8748863165947
 30
0.0
  0
SPLINE
  5
B4
330
1F
100
AcDbEntity
  8
0
  6
Continuous
 62
     7
370
    15
100
AcDbSpline
210
0.0
220
0.0
230
1.0
 70
     8
 71
     3
 72
    29
 73
    25
 74
     0
 42
0.000000001
 43
0.00000001
 40
0.0
 40
0.0
 40
0.0
 40
0.0
 40
0.0642442192234332
 40
0.1157814386493925
 40
0.1563478204125887
 40
0.1914992216429078
 40
0.2238727411707944
 40
0.2537607709512748
 40
0.2857890562080858
 40
0.3554105265469349
 40
0.4384889299815805
 40
0.518716344771236
 40
0.5730148628040775
 40
0.621336140801208
 40
0.6657592637435176
 40
0.7076164300378107
 40
0.7558775186261748
 40
0.7874233557992394
 40
0.8194193954898631
 40
0.8491774100883688
 40
0.8767404296441295
 40
0.906160845670369
 40
0.9468322843056962
 40
0.9999999999999999
 40
0.9999999999999999
 40
0.9999999999999999
 40
0.9999999999999999
 10
125.7974682790865
 20
176.0167759874711
 30
0.0
 10
125.4613288836914
 20
176.2950719301181
 30
0.0
 10
124.8555358138086
 20
176.7966190731831
 30
0.0
 10
124.017371271056
 20
177.4489520324393
 30
0.0
 10
123.3255751637073
 20
177.9672050693882
 30
0.0
 10
122.7307228855875
 20
178.3975934411417
 30
0.0
 10
122.1893106202921
 20
178.7779768617768
 30
0.0
 10
121.6608038970232
 20
179.1397415214274
 30
0.0
 10
120.917483162105
 20
179.6354825840149
 30
0.0
 10
119.8599212636024
 20
180.3110032774529
 30
0.0
 10
118.5014165062831
 20
181.1224874150872
 30
0.0
 10
117.2076576410146
 20
181.8377536006101
 30
0.0
 10
116.1049558845833
 20
182.4093568105781
 30
0.0
 10
115.2090942165011
 20
182.8510401579017
 30
0.0
 10
114.3818497727819
 20
183.2404254980707
 30
0.0
 10
113.5485422436388
 20
183.6156433477944
 30
0.0
 10
112.7891332384702
 20
183.9416771921874
 30
0.0
 10
112.0865020838518
 20
184.2298285586685
 30
0.0
 10
111.4969872407606
 20
184.4624307663784
 30
0.0
 10
110.9297621728111
 20
184.6776628876076
 30
0.0
 10
110.376408379651
 20
184.8800160512504
 30
0.0
 10
109.7507121102049
 20
185.1002204991154
 30
0.0
 10
108.957328845358
 20
185.3677664252273
 30
0.0
 10
108.3487564725865
 20
185.5573163539074
 30
0.0
 10
108.0039494128248
 20
185.6647122143021
 30
0.0
  0
SPLINE
  5
B5
330
1F
100
AcDbEntity
  8
0
  6
Continuous
 62
     7
370
    15
100
AcDbSpline
210
0.0
220
0.0
230
1.0
 70
     8
 71
     3
 72
    29
 73
    25
 74
     0
 42
0.000000001
 43
0.00000001
 40
0.0
 40
0.0
 40
0.0
 40
0.0
 40
0.0535604954193052
 40
0.0942589552696992
 40
0.1236275809755407
 40
0.151023387979279
 40
0.1805862047609205
 40
0.22242254325032
 40
0.2614590343624887
 40
0.2950718742058558
 40
0.3503592965144287
 40
0.410959159297743
 40
0.4810004342795557
 40
0.5415486462738743
 40
0.6068949768424384
 40
0.666482789425239
 40
0.7177705378994295
 40
0.7609909830830185
 40
0.7892011619107917
 40
0.819578313267712
 40
0.8523319284341468
 40
0.8912234938798044
 40
0.9398291847517888
 40
1.0
 40
1.0
 40
1.0
 40
1.0
 10
40.51253997542398
 20
176.0167759874708
 30
0.0
 10
40.2051654375293
 20
175.7479430058421
 30
0.0
 10
39.66422938771047
 20
175.2748346861377
 30
0.0
 10
38.9755216422959
 20
174.6312375096335
 30
0.0
 10
38.44236754489889
 20
174.1136894555855
 30
0.0
 10
37.97824965597566
 20
173.6470321600093
 30
0.0
 10
37.4565159367528
 20
173.1037810457173
 30
0.0
 10
36.88682885188271
 20
172.483747204838
 30
0.0
 10
36.31208468099234
 20
171.8268124755579
 30
0.0
 10
35.68497056544884
 20
171.0797523733654
 30
0.0
 10
34.97330740957108
 20
170.1892853716327
 30
0.0
 10
34.12367747240959
 20
169.0543876468675
 30
0.0
 10
33.2926208153807
 20
167.8564971133587
 30
0.0
 10
32.48704906314091
 20
166.5982508629826
 30
0.0
 10
31.76933307777246
 20
165.3794693987123
 30
0.0
 10
31.12994682256143
 20
164.1976352875189
 30
0.0
 10
30.60391176670533
 20
163.14703546201
 30
0.0
 10
30.20808056661855
 20
162.2992281185701
 30
0.0
 10
29.89473912513048
 20
161.589110699145
 30
0.0
 10
29.62504070490518
 20
160.9470691001511
 30
0.0
 10
29.33751348292106
 20
160.2243333279383
 30
0.0
 10
29.01662652769197
 20
159.3655181490571
 30
0.0
 10
28.64561906268295
 20
158.3024944222959
 30
0.0
 10
28.3947236956292
 20
157.5120513140337
 30
0.0
 10
28.25593840718702
 20
157.0748097815753
 30
0.0
  0
SPLINE
  5
B6
330
1F
100
AcDbEntity
  8
0
  6
Continuous
 62
     7
370
    15
100
AcDbSpline
210
0.0
220
0.0
230
1.0
 70
     8
 71
     3
 72
    27
 73
    23
 74
     0
 42
0.000000001
 43
0.00000001
 40
0.0
 40
0.0
 40
0.0
 40
0.0
 40
0.0569539980717124
 40
0.1000145989561887
 40
0.1332468938078716
 40
0.1595222307524782
 40
0.1856082112751621
 40
0.2135023551676669
 40
0.2438908611746864
 40
0.2769849452718394
 40
0.3532515872062864
 40
0.4275307866192501
 40
0.4960346513560712
 40
0.6018866031713762
 40
0.7035226373277558
 40
0.7358604188944563
 40
0.7675368052883613
 40
0.8035871360622173
 40
0.8381597419048014
 40
0.8805980513991722
 40
0.9332682934832094
 40
1.0
 40
1.0
 40
1.0
 40
1.0
 10
40.0540698473235
 20
154.6006201235003
 30
0.0
 10
40.14100346233649
 20
154.8709892283927
 30
0.0
 10
40.29366404694353
 20
155.3457734140773
 30
0.0
 10
40.52651257607349
 20
155.9682101990959
 30
0.0
 10
40.72077789977039
 20
156.4413415852696
 30
0.0
 10
40.89308846650108
 20
156.831806120101
 30
0.0
 10
41.06168442584516
 20
157.194718189727
 30
0.0
 10
41.24461732108468
 20
157.5735231420746
 30
0.0
 10
41.44612861050279
 20
157.9821396562876
 30
0.0
 10
41.76038263994295
 20
158.6040415026656
 30
0.0
 10
42.18982498349727
 20
159.4128833888208
 30
0.0
 10
42.73721937763621
 20
160.3583863645986
 30
0.0
 10
43.40792629407527
 20
161.4014157477843
 30
0.0
 10
44.21051358710741
 20
162.5201414261217
 30
0.0
 10
44.95470830347269
 20
163.4566123628973
 30
0.0
 10
45.48611634737561
 20
164.0888689167443
 30
0.0
 10
45.81280328833761
 20
164.4659535265698
 30
0.0
 10
46.15467318279111
 20
164.8445385078634
 30
0.0
 10
46.54250276785186
 20
165.2537263504861
 30
0.0
 10
47.00001734065102
 20
165.7107254974639
 30
0.0
 10
47.58742901835221
 20
166.2642180238186
 30
0.0
 10
48.03577025592385
 20
166.655952576391
 30
0.0
 10
48.28634050402781
 20
166.8748863165944
 30
0.0
  0
SPLINE
  5
B7
330
1F
100
AcDbEntity
  8
0
  6
Continuous
 62
     7
370
    15
100
AcDbSpline
210
0.0
220
0.0
230
1.0
 70
     8
 71
     3
 72
    35
 73
    31
 74
     0
 42
0.000000001
 43
0.00000001
 40
0.0
 40
0.0
 40
0.0
 40
0.0
 40
0.0365589380967357
 40
0.064482844283084
 40
0.0868398113388961
 40
0.1055770841839343
 40
0.14122316517778
 40
0.1733464779814216
 40
0.205886361664108
 40
0.2378753747411059
 40
0.2687085668567969
 40
0.3130894219210854
 40
0.3623527227851024
 40
0.4073739504830377
 40
0.4477523101006111
 40
0.4929174885706838
 40
0.555784771367723
 40
0.6119761605656024
 40
0.6633189090572693
 40
0.7173347941525416
 40
0.7575411256133341
 40
0.8002016028807357
 40
0.8367950370460289
 40
0.858645456936893
 40
0.8856021024579431
 40
0.9002898635681652
 40
0.9177737747713313
 40
0.9390127638525715
 40
0.9656086722283763
 40
1.0
 40
1.0
 40
1.0
 40
1.0
 10
126.2559384071871
 20
154.6006201235006
 30
0.0
 10
126.2855917311166
 20
154.3022270710095
 30
0.0
 10
126.3378944173808
 20
153.7759198602249
 30
0.0
 10
126.356477988597
 20
153.0634811668089
 30
0.0
 10
126.3375762174281
 20
152.497584252659
 30
0.0
 10
126.2834567604798
 20
151.8704332877538
 30
0.0
 10
126.1865210290713
 20
151.1675952445521
 30
0.0
 10
126.0590738384368
 20
150.3551059678571
 30
0.0
 10
125.914067665495
 20
149.5757757191395
 30
0.0
 10
125.7458022297432
 20
148.8119773829973
 30
0.0
 10
125.5228010626015
 20
147.9615033379912
 30
0.0
 10
125.204340445171
 20
146.9908017074795
 30
0.0
 10
124.7694485631672
 20
145.9389796784557
 30
0.0
 10
124.2764390288474
 20
144.9501115161645
 30
0.0
 10
123.7444183177994
 20
144.020513505875
 30
0.0
 10
123.0816548226888
 20
142.9990613743527
 30
0.0
 10
122.2695928643089
 20
141.9228402588828
 30
0.0
 10
121.3414962653865
 20
140.8764896123398
 30
0.0
 10
120.3865232578266
 20
139.9565216324777
 30
0.0
 10
119.4611977325208
 20
139.2002661637776
 30
0.0
 10
118.5423594491483
 20
138.5546969955658
 30
0.0
 10
117.7130525881742
 20
138.0326912033082
 30
0.0
 10
116.9931925179524
 20
137.6209265333239
 30
0.0
 10
116.3753285375295
 20
137.2916694912076
 30
0.0
 10
115.9096695335388
 20
137.0584989892045
 30
0.0
 10
115.4681028942092
 20
136.8580996778248
 30
0.0
 10
115.0634055380568
 20
136.6904088995988
 30
0.0
 10
114.5606333989358
 20
136.5053785713392
 30
0.0
 10
113.9188869987797
 20
136.29786607899
 30
0.0
 10
113.4366783643784
 20
136.1651754308183
 30
0.0
 10
113.1647559713072
 20
136.0903498138241
 30
0.0
  0
SPLINE
  5
B8
330
1F
100
AcDbEntity
  8
0
  6
Continuous
 62
     7
370
    15
100
AcDbSpline
210
0.0
220
0.0
230
1.0
 70
     8
 71
     3
 72
    50
 73
    46
 74
     0
 42
0.000000001
 43
0.00000001
 40
0.0
 40
0.0
 40
0.0
 40
0.0
 40
0.0388569454824996
 40
0.0747541060600372
 40
0.1082267988539402
 40
0.1355280192442462
 40
0.1561997877387371
 40
0.1776234273662995
 40
0.2049663700074921
 40
0.2332185302974588
 40
0.2594806662554098
 40
0.2909738450531468
 40
0.3218100123302777
 40
0.3546726783368162
 40
0.390328311702917
 40
0.4158550546409632
 40
0.437729792962907
 40
0.4601682127461279
 40
0.4876540027308387
 40
0.5108095865387337
 40
0.5356125635015817
 40
0.5570957226557277
 40
0.5745835049892667
 40
0.5880873476757552
 40
0.6002272999758062
 40
0.616598311635212
 40
0.6354849275403232
 40
0.6580674410150407
 40
0.6801281638385953
 40
0.6986575040745722
 40
0.7136438235586001
 40
0.7252419197731791
 40
0.7403546236493991
 40
0.7601804302195323
 40
0.7846874464611767
 40
0.8097335939502875
 40
0.8306637332133978
 40
0.8475024640856269
 40
0.8620112459268167
 40
0.8782269626407946
 40
0.8968055966019327
 40
0.9150061928403438
 40
0.937769392417511
 40
0.9657199520280638
 40
1.0
 40
1.0
 40
1.0
 40
1.0
 10
116.2651108162121
 20
124.4977746108903
 30
0.0
 10
116.798692183925
 20
124.6480691925377
 30
0.0
 10
117.8252113211958
 20
124.9372102188641
 30
0.0
 10
119.2806724816165
 20
125.4548867712857
 30
0.0
 10
120.5539197051425
 20
125.9855132214325
 30
0.0
 10
121.603284124156
 20
126.4846235905242
 30
0.0
 10
122.4824368838938
 20
126.9395948939621
 30
0.0
 10
123.3488787950289
 20
127.4196181643274
 30
0.0
 10
124.2922301029469
 20
127.9829748194268
 30
0.0
 10
125.2720814826045
 20
128.6183367206496
 30
0.0
 10
126.2761993105031
 20
129.3234652709713
 30
0.0
 10
127.2802294195665
 20
130.0913758903888
 30
0.0
 10
128.319420922957
 20
130.9659007587656
 30
0.0
 10
129.3592139202542
 20
131.9295345641072
 30
0.0
 10
130.2953725796814
 20
132.8911305498411
 30
0.0
 10
131.0826397385719
 20
133.7766853668457
 30
0.0
 10
131.718497069549
 20
134.5436798969731
 30
0.0
 10
132.3468711604361
 20
135.3525046091313
 30
0.0
 10
132.9571419342938
 20
136.1978516765134
 30
0.0
 10
133.5558435815979
 20
137.0921918530489
 30
0.0
 10
134.0791269613143
 20
137.9333632164531
 30
0.0
 10
134.5344344825505
 20
138.7209730241442
 30
0.0
 10
134.8911259336577
 20
139.3790464359427
 30
0.0
 10
135.1723021367314
 20
139.9262564236223
 30
0.0
 10
135.4363288580628
 20
140.464244383966
 30
0.0
 10
135.721591143503
 20
141.0772155308227
 30
0.0
 10
136.0502920952791
 20
141.8339908462722
 30
0.0
 10
136.3857419616886
 20
142.6759248264722
 30
0.0
 10
136.6913872401449
 20
143.5237055400675
 30
0.0
 10
136.9376714411739
 20
144.2772651974424
 30
0.0
 10
137.1223510214612
 20
144.8937060664813
 30
0.0
 10
137.2818541792056
 20
145.4666655078783
 30
0.0
 10
137.4473214675724
 20
146.1095134189971
 30
0.0
 10
137.6380922048565
 20
146.9357569668889
 30
0.0
 10
137.8307532880677
 20
147.9065701271157
 30
0.0
 10
137.9926017915712
 20
148.8989678984256
 30
0.0
 10
138.1084678469625
 20
149.7875049271199
 30
0.0
 10
138.1850009352824
 20
150.5292754574328
 30
0.0
 10
138.2391532731448
 20
151.2055471944472
 30
0.0
 10
138.2790056976071
 20
151.9076939064318
 30
0.0
 10
138.3012915718506
 20
152.6633328015162
 30
0.0
 10
138.302063418404
 20
153.5127019673482
 30
0.0
 10
138.2724435389835
 20
154.4953317046237
 30
0.0
 10
138.1966575049178
 20
155.705556256177
 30
0.0
 10
138.1047161900974
 20
156.5884585464011
 30
0.0
 10
138.0540698473236
 20
157.0748097815757
 30
0.0
  0
LINE
  5
B9
330
1F
100
AcDbEntity
  8
0
  6
Continuous
 62
     7
370
    15
100
AcDbLine
 10
54.7538447041
 20
124.0002778127
 30
0.0
 11
54.7535436789
 21
124.0061972873
 31
0.0
  0
SPLINE
  5
BA
330
1F
100
AcDbEntity
  8
0
  6
Continuous
 62
     7
370
    15
100
AcDbSpline
210
0.0
220
0.0
230
1.0
 70
     8
 71
     3
 72
    75
 73
    71
 74
     0
 42
0.000000001
 43
0.00000001
 40
0.0
 40
0.0
 40
0.0
 40
0.0
 40
0.0038967635656023
 40
0.0077805641957319
 40
0.0116616476073755
 40
0.0155493900889221
 40
0.0194460572392781
 40
0.0233451286789834
 40
0.0272478485599078
 40
0.0311584083851426
 40
0.0350750149569324
 40
0.0389903592351352
 40
0.0429110459358271
 40
0.0468488416823692
 40
0.0507979397594175
 40
0.0547412612336961
 40
0.0586927003419584
 40
0.0626758647990485
 40
0.0704522184837992
 40
0.078225729541071
 40
0.0859728296628379
 40
0.0937288748007946
 40
0.1015155555302316
 40
0.1093073350821644
 40
0.1151620120593854
 40
0.121018846705841
 40
0.1268919033078897
 40
0.1327679911931396
 40
0.1386491274545363
 40
0.1445382382843561
 40
0.153438433299027
 40
0.1622110168878842
 40
0.1709820621563162
 40
0.1797579429990336
 40
0.188541641267101
 40
0.1973302168618807
 40
0.2061227921393963
 40
0.2149218581137831
 40
0.2237336166942437
 40
0.2325457962138703
 40
0.2413647065845075
 40
0.2501964808788649
 40
0.2619716855539477
 40
0.2737554280172955
 40
0.2855709990066878
 40
0.2973955098715486
 40
0.3062851223102099
 40
0.3152027211990176
 40
0.3241273501798509
 40
0.3333810875672513
 40
0.3509760237034018
 40
0.3684927944846543
 40
0.3918377683556722
 40
0.4151937478610327
 40
0.4385624368859666
 40
0.4619462260036673
 40
0.485342462949139
 40
0.5087577932532269
 40
0.5321865675480444
 40
0.5556319831821263
 40
0.5791036673999344
 40
0.6142315972334463
 40
0.6492562548028872
 40
0.684278539760724
 40
0.7367885677738888
 40
0.7893589629938044
 40
0.8419462311596629
 40
0.8945767855609338
 40
0.9472523698450243
 40
1.0
 40
1.0
 40
1.0
 40
1.0
 10
62.01284218979109
 20
149.0501222335715
 30
0.0
 10
62.1007459728852
 20
148.9579937938421
 30
0.0
 10
62.27626111921042
 20
148.7740433879474
 30
0.0
 10
62.44102259331521
 20
148.4294316651351
 30
0.0
 10
62.5269516334079
 20
148.0562268468856
 30
0.0
 10
62.51678540204476
 20
147.6559691445735
 30
0.0
 10
62.39931697084045
 20
147.2656304978199
 30
0.0
 10
62.19430063549273
 20
146.9233156046587
 30
0.0
 10
61.91198010044754
 20
146.6339655396677
 30
0.0
 10
61.54961622396202
 20
146.412664233333
 30
0.0
 10
61.13679038688488
 20
146.2942094583051
 30
0.0
 10
60.71705077864098
 20
146.2804344437446
 30
0.0
 10
60.30028371770031
 20
146.3654155475375
 30
0.0
 10
59.89826531638904
 20
146.560002204784
 30
0.0
 10
59.55816577944802
 20
146.8569629747481
 30
0.0
 10
59.30818697344117
 20
147.2217819070295
 30
0.0
 10
59.14299333429867
 20
147.6310586406674
 30
0.0
 10
59.08494218376858
 20
148.2798357838639
 30
0.0
 10
59.17233620000192
 20
148.776407879063
 30
0.0
 10
59.4083749979257
 20
149.4678971664866
 30
0.0
 10
59.80468343264459
 20
150.069926794135
 30
0.0
 10
60.37377428353742
 20
150.5928029773198
 30
0.0
 10
61.06297988278678
 20
150.9397467891347
 30
0.0
 10
61.74443672054801
 20
151.0934829868862
 30
0.0
 10
62.38470890489047
 20
151.1018366120434
 30
0.0
 10
62.96728018747817
 20
151.0029556297695
 30
0.0
 10
63.53834655270983
 20
150.7835459150338
 30
0.0
 10
64.04671679972947
 20
150.467855547332
 30
0.0
 10
64.49724516025321
 20
150.0501504494023
 30
0.0
 10
64.92546841506875
 20
149.4974483712983
 30
0.0
 10
65.27420413177592
 20
148.5745103396488
 30
0.0
 10
65.3290503526413
 20
147.8210820316268
 30
0.0
 10
65.27737545753868
 20
146.9769227101433
 30
0.0
 10
65.0614293363623
 20
146.1766671102901
 30
0.0
 10
64.69153047665068
 20
145.4025204808906
 30
0.0
 10
64.17516250166857
 20
144.7133636090843
 30
0.0
 10
63.54132486881449
 20
144.1319568601841
 30
0.0
 10
62.80057242362586
 20
143.6688708072832
 30
0.0
 10
61.96134902054787
 20
143.3480850500419
 30
0.0
 10
61.08478250633281
 20
143.1950871999963
 30
0.0
 10
60.19038068629019
 20
143.2035547127747
 30
0.0
 10
59.19121607166165
 20
143.4014256225037
 30
0.0
 10
58.1548430921713
 20
143.8663408064425
 30
0.0
 10
57.18424120631128
 20
144.6273792055507
 30
0.0
 10
56.40186167117935
 20
145.6439925088031
 30
0.0
 10
55.94862480227219
 20
146.7218744059176
 30
0.0
 10
55.74738065746423
 20
147.7666459343878
 30
0.0
 10
55.75472416969489
 20
148.7646756267349
 30
0.0
 10
55.9201572665822
 20
149.7034397034656
 30
0.0
 10
56.53104866722544
 20
151.127906357171
 30
0.0
 10
57.3395513934886
 20
152.0140699269837
 30
0.0
 10
58.54527829960978
 20
153.2219626770949
 30
0.0
 10
60.14044347430054
 20
154.2376693378073
 30
0.0
 10
62.07390422578193
 20
154.9747195616422
 30
0.0
 10
64.16581672750868
 20
155.2962225061619
 30
0.0
 10
66.30557809205858
 20
155.1558856357911
 30
0.0
 10
68.37408479540922
 20
154.5737662477375
 30
0.0
 10
70.32864585096952
 20
153.536999869583
 30
0.0
 10
72.01488225674765
 20
152.1064494156865
 30
0.0
 10
73.3843001249018
 20
150.3278007703668
 30
0.0
 10
74.54127027713047
 20
147.9455114808007
 30
0.0
 10
75.00648078316688
 20
144.7833887114629
 30
0.0
 10
74.84754655493417
 20
142.1870026159852
 30
0.0
 10
74.28989670822794
 20
138.8767249504931
 30
0.0
 10
73.1129866037648
 20
135.4583078971879
 30
0.0
 10
70.4741500597769
 20
131.1390536523662
 30
0.0
 10
67.3348774506416
 20
128.4111717276033
 30
0.0
 10
63.5109708313662
 20
126.0305533832392
 30
0.0
 10
59.29427102075263
 20
124.4735752535588
 30
0.0
 10
56.26800952196211
 20
124.1581154876234
 30
0.0
 10
54.75384470409167
 20
124.0002778125831
 30
0.0
  0
SPLINE
  5
BB
330
1F
100
AcDbEntity
  8
0
  6
Continuous
 62
     7
370
    15
100
AcDbSpline
210
0.0
220
0.0
230
1.0
 70
     8
 71
     3
 72
    29
 73
    25
 74
     0
 42
0.000000001
 43
0.00000001
 40
0.0
 40
0.0
 40
0.0
 40
0.0
 40
0.0649122908660087
 40
0.130809044472596
 40
0.1979383821704263
 40
0.2652837898050395
 40
0.3363263612025927
 40
0.4062461248707858
 40
0.4471518986227166
 40
0.4876505984963267
 40
0.5335243203082642
 40
0.5834732906974116
 40
0.6331384640929526
 40
0.6721853594068828
 40
0.7129711947921075
 40
0.7509671916972374
 40
0.7810152310938311
 40
0.807026278335735
 40
0.8414377276218982
 40
0.8770886248064458
 40
0.9137243356825423
 40
0.9509139429867021
 40
0.9897025575148289
 40
0.9999999999999999
 40
0.9999999999999999
 40
0.9999999999999999
 40
0.9999999999999999
 10
112.1653152552762
 20
135.9788719284042
 30
0.0
 10
111.6711869938384
 20
135.8945008227757
 30
0.0
 10
110.6754364993903
 20
135.7244790355129
 30
0.0
 10
109.1386147697405
 20
135.6744937788614
 30
0.0
 10
107.5936125059283
 20
135.8809755194554
 30
0.0
 10
106.0480298667822
 20
136.276800713993
 30
0.0
 10
104.556018165429
 20
136.9353460786508
 30
0.0
 10
103.3294704551007
 20
137.6638061514199
 30
0.0
 10
102.4141925592615
 20
138.37407497865
 30
0.0
 10
101.7494258823699
 20
139.0837233117202
 30
0.0
 10
101.1170104557747
 20
139.9368963800525
 30
0.0
 10
100.5092089432305
 20
140.9028367854609
 30
0.0
 10
100.008591704399
 20
141.8665986709197
 30
0.0
 10
99.63576018616038
 20
142.8087758183009
 30
0.0
 10
99.37556318608102
 20
143.6987159805269
 30
0.0
 10
99.17529582600537
 20
144.5287974612474
 30
0.0
 10
99.0055018965929
 20
145.222675932119
 30
0.0
 10
98.92742560453833
 20
145.882031588321
 30
0.0
 10
99.00717346063784
 20
146.6043632855215
 30
0.0
 10
99.27475862013326
 20
147.3638878371403
 30
0.0
 10
99.71390117077709
 20
148.0733099416048
 30
0.0
 10
100.3189171470963
 20
148.6733898813631
 30
0.0
 10
100.8686131784827
 20
149.0561389005413
 30
0.0
 10
101.223600513675
 20
149.1760674498904
 30
0.0
 10
101.2980709822668
 20
149.2012264749658
 30
0.0
  0
SPLINE
  5
BC
330
1F
100
AcDbEntity
  8
0
  6
Continuous
 62
     7
370
    15
100
AcDbSpline
210
0.0
220
0.0
230
1.0
 70
     8
 71
     3
 72
    17
 73
    13
 74
     0
 42
0.000000001
 43
0.00000001
 40
0.0
 40
0.0
 40
0.0
 40
0.0
 40
0.0254170971039704
 40
0.2089149555856704
 40
0.2909420263768727
 40
0.3498425073920344
 40
0.4393538513490321
 40
0.5326899562244606
 40
0.6317293782213279
 40
0.7894277361183863
 40
0.9691338404947017
 40
1.0
 40
1.0
 40
1.0
 40
1.0
 10
103.8125164013387
 20
147.6799034346572
 30
0.0
 10
103.8078275170916
 20
147.6905764059055
 30
0.0
 10
103.7692873942677
 20
147.7783025260519
 30
0.0
 10
103.7535047250145
 20
147.9170088538848
 30
0.0
 10
103.7328310677462
 20
148.0657180582999
 30
0.0
 10
103.706716338855
 20
148.16106212258
 30
0.0
 10
103.6781893830752
 20
148.230124211326
 30
0.0
 10
103.7140613357248
 20
148.3582514004478
 30
0.0
 10
103.7683627033923
 20
148.4978283152538
 30
0.0
 10
103.8846003128684
 20
148.6517944371673
 30
0.0
 10
104.0007037971049
 20
148.7692891387966
 30
0.0
 10
104.0901295646913
 20
148.800740134921
 30
0.0
 10
104.1032377963041
 20
148.8053502931872
 30
0.0
  0
LWPOLYLINE
  5
BD
330
1F
100
AcDbEntity
  8
0
  6
Continuous
 62
     7
370
    15
100
AcDbPolyline
 90
       20
 70
   128
 43
0.0
 10
104.4598036622
 20
148.8884228329
 10
104.6844116938
 20
148.8944009483
 10
105.0281524355
 20
148.7626847641
 10
105.2074417969
 20
148.6098787935
 10
105.3603771983
 20
148.4177423863
 10
105.463025975
 20
148.1834697128
 10
105.4934915358
 20
148.0962050474
 10
105.5175374074
 20
148.0375884818
 10
105.5441316231
 20
148.0004997884
 10
105.5548385194
 20
147.938954221
 10
105.5297676464
 20
147.8149268634
 10
105.4730464744
 20
147.7452547599
 10
105.3733845914
 20
147.6942774226
 10
105.2662236583
 20
147.677297563
 10
105.152963002
 20
147.7039352435
 10
105.0396816813
 20
147.7829983041
 10
104.9589483576
 20
147.8922538105
 10
104.9222977285
 20
148.1136309509
 10
105.0063152988
 20
148.3450638219
 10
105.0063152988
 20
148.3450638219
  0
LINE
  5
BE
330
1F
100
AcDbEntity
  8
0
  6
Continuous
 62
     7
370
    15
100
AcDbLine
 10
112.1653152558
 20
135.9788719381
 30
0.0
 11
111.5561635504
 21
124.0002778126
 31
0.0
  0
SPLINE
  5
BF
330
1F
100
AcDbEntity
  8
0
  6
Continuous
 62
     7
370
    15
100
AcDbSpline
210
0.0
220
0.0
230
1.0
 70
     8
 71
     3
 72
    75
 73
    71
 74
     0
 42
0.000000001
 43
0.00000001
 40
0.0
 40
0.0
 40
0.0
 40
0.0
 40
0.0038967635656023
 40
0.0077805641957319
 40
0.0116616476073755
 40
0.0155493900889221
 40
0.0194460572392781
 40
0.0233451286789834
 40
0.0272478485599078
 40
0.0311584083851426
 40
0.0350750149569324
 40
0.0389903592351352
 40
0.0429110459358271
 40
0.0468488416823692
 40
0.0507979397594175
 40
0.0547412612336961
 40
0.0586927003419584
 40
0.0626758647990485
 40
0.0704522184837992
 40
0.078225729541071
 40
0.0859728296628379
 40
0.0937288748007946
 40
0.1015155555302316
 40
0.1093073350821644
 40
0.1151620120593854
 40
0.121018846705841
 40
0.1268919033078897
 40
0.1327679911931396
 40
0.1386491274545363
 40
0.1445382382843561
 40
0.153438433299027
 40
0.1622110168878842
 40
0.1709820621563162
 40
0.1797579429990336
 40
0.188541641267101
 40
0.1973302168618807
 40
0.2061227921393963
 40
0.2149218581137831
 40
0.2237336166942437
 40
0.2325457962138703
 40
0.2413647065845075
 40
0.2501964808788649
 40
0.2619716855539477
 40
0.2737554280172955
 40
0.2855709990066878
 40
0.2973955098715486
 40
0.3062851223102099
 40
0.3152027211990176
 40
0.3241273501798509
 40
0.3333810875672513
 40
0.3509760237034018
 40
0.3684927944846543
 40
0.3918377683556722
 40
0.4151937478610327
 40
0.4385624368859666
 40
0.4619462260036673
 40
0.485342462949139
 40
0.5087577932532269
 40
0.5321865675480444
 40
0.5556319831821263
 40
0.5791036673999344
 40
0.6142315972334463
 40
0.6492562548028872
 40
0.684278539760724
 40
0.7367885677738888
 40
0.7893589629938044
 40
0.8419462311596629
 40
0.8945767855609338
 40
0.9472523698450243
 40
1.0
 40
1.0
 40
1.0
 40
1.0
 10
104.2971660647195
 20
149.0501222335717
 30
0.0
 10
104.2092622816254
 20
148.9579937938422
 30
0.0
 10
104.0337471353002
 20
148.7740433879476
 30
0.0
 10
103.8689856611954
 20
148.4294316651352
 30
0.0
 10
103.7830566211027
 20
148.0562268468857
 30
0.0
 10
103.7932228524658
 20
147.6559691445736
 30
0.0
 10
103.9106912836702
 20
147.26563049782
 30
0.0
 10
104.1157076190179
 20
146.9233156046589
 30
0.0
 10
104.3980281540631
 20
146.6339655396679
 30
0.0
 10
104.7603920305486
 20
146.4126642333331
 30
0.0
 10
105.1732178676258
 20
146.2942094583052
 30
0.0
 10
105.5929574758696
 20
146.2804344437447
 30
0.0
 10
106.0097245368103
 20
146.3654155475376
 30
0.0
 10
106.4117429381216
 20
146.5600022047841
 30
0.0
 10
106.7518424750626
 20
146.8569629747482
 30
0.0
 10
107.0018212810694
 20
147.2217819070296
 30
0.0
 10
107.167014920212
 20
147.6310586406676
 30
0.0
 10
107.225066070742
 20
148.279835783864
 30
0.0
 10
107.1376720545087
 20
148.7764078790631
 30
0.0
 10
106.9016332565849
 20
149.4678971664867
 30
0.0
 10
106.505324821866
 20
150.0699267941352
 30
0.0
 10
105.9362339709732
 20
150.59280297732
 30
0.0
 10
105.2470283717238
 20
150.9397467891349
 30
0.0
 10
104.5655715339626
 20
151.0934829868863
 30
0.0
 10
103.9252993496201
 20
151.1018366120435
 30
0.0
 10
103.3427280670324
 20
151.0029556297697
 30
0.0
 10
102.7716617018008
 20
150.783545915034
 30
0.0
 10
102.2632914547811
 20
150.4678555473321
 30
0.0
 10
101.8127630942574
 20
150.0501504494024
 30
0.0
 10
101.3845398394418
 20
149.4974483712984
 30
0.0
 10
101.0358041227347
 20
148.5745103396489
 30
0.0
 10
100.9809579018693
 20
147.821082031627
 30
0.0
 10
101.0326327969719
 20
146.9769227101434
 30
0.0
 10
101.2485789181483
 20
146.1766671102902
 30
0.0
 10
101.61847777786
 20
145.4025204808907
 30
0.0
 10
102.1348457528421
 20
144.7133636090844
 30
0.0
 10
102.7686833856961
 20
144.1319568601843
 30
0.0
 10
103.5094358308848
 20
143.6688708072834
 30
0.0
 10
104.3486592339628
 20
143.3480850500421
 30
0.0
 10
105.2252257481778
 20
143.1950871999964
 30
0.0
 10
106.1196275682205
 20
143.2035547127748
 30
0.0
 10
107.118792182849
 20
143.4014256225038
 30
0.0
 10
108.1551651623393
 20
143.8663408064426
 30
0.0
 10
109.1257670481994
 20
144.6273792055509
 30
0.0
 10
109.9081465833313
 20
145.6439925088033
 30
0.0
 10
110.3613834522384
 20
146.7218744059178
 30
0.0
 10
110.5626275970464
 20
147.766645934388
 30
0.0
 10
110.5552840848157
 20
148.764675626735
 30
0.0
 10
110.3898509879284
 20
149.7034397034658
 30
0.0
 10
109.7789595872851
 20
151.1279063571712
 30
0.0
 10
108.970456861022
 20
152.0140699269839
 30
0.0
 10
107.7647299549008
 20
153.2219626770951
 30
0.0
 10
106.16956478021
 20
154.2376693378075
 30
0.0
 10
104.2361040287286
 20
154.9747195616423
 30
0.0
 10
102.1441915270019
 20
155.2962225061621
 30
0.0
 10
100.004430162452
 20
155.1558856357912
 30
0.0
 10
97.93592345910136
 20
154.5737662477376
 30
0.0
 10
95.98136240354106
 20
153.536999869583
 30
0.0
 10
94.29512599776294
 20
152.1064494156865
 30
0.0
 10
92.92570812960881
 20
150.3278007703669
 30
0.0
 10
91.76873797738016
 20
147.9455114808008
 30
0.0
 10
91.30352747134377
 20
144.7833887114629
 30
0.0
 10
91.4624616995765
 20
142.1870026159853
 30
0.0
 10
92.02011154628273
 20
138.8767249504931
 30
0.0
 10
93.19702165074592
 20
135.4583078971879
 30
0.0
 10
95.83585819473383
 20
131.1390536523663
 30
0.0
 10
98.97513080386916
 20
128.4111717276034
 30
0.0
 10
102.7990374231446
 20
126.0305533832394
 30
0.0
 10
107.0157372337581
 20
124.473575253559
 30
0.0
 10
110.0419987325487
 20
124.1581154876235
 30
0.0
 10
111.5561635504191
 20
124.0002778125832
 30
0.0
  0
LINE
  5
C0
330
1F
100
AcDbEntity
  8
0
  6
Continuous
 62
     7
370
    15
100
AcDbLine
 10
105.0063152988
 20
148.3450638219
 30
0.0
 11
104.2971660647
 21
149.0501222336
 31
0.0
  0
LINE
  5
C1
330
1F
100
AcDbEntity
  8
0
  6
Continuous
 62
     7
370
    15
100
AcDbLine
 10
110.7062037708
 20
135.7691106214
 30
0.0
 11
112.1656162813
 21
135.9847914197
 31
0.0
  0
SPLINE
  5
C2
330
1F
100
AcDbEntity
  8
0
  6
Continuous
 62
     7
370
    15
100
AcDbSpline
210
0.0
220
0.0
230
1.0
 70
    24
 71
     3
 72
     9
 73
     5
 74
     0
 42
0.000000001
 43
0.00000001
 40
0.0
 40
0.0
 40
0.0
 40
0.0
 40
0.4999999999999999
 40
1.0
 40
1.0
 40
1.0
 40
1.0
 10
112.1656162822972
 20
135.9847914398734
 30
0.0
 10
112.1656162822973
 20
135.9847914398734
 30
0.0
 10
112.1655661008397
 20
135.9838046523336
 30
0.0
 10
112.1654155812574
 20
135.9808447772021
 30
0.0
 10
112.1653152555234
 20
135.9788719332661
 30
0.0
  0
SPLINE
  5
C3
330
1F
100
AcDbEntity
  8
0
  6
Continuous
 62
     7
370
    15
100
AcDbSpline
210
0.0
220
0.0
230
1.0
 70
     8
 71
     3
 72
    29
 73
    25
 74
     0
 42
0.000000001
 43
0.00000001
 40
0.0
 40
0.0
 40
0.0
 40
0.0
 40
0.0648721558325107
 40
0.1307281657158662
 40
0.1978159975882012
 40
0.2651197658020627
 40
0.3361184118359479
 40
0.4059949443684109
 40
0.4468754262291162
 40
0.4873490859038
 40
0.533194444160284
 40
0.5831125312825957
 40
0.6327469968819501
 40
0.6717697496424363
 40
0.7125303672938916
 40
0.7505028714122438
 40
0.7805323322152977
 40
0.8065272969212376
 40
0.8409174697333867
 40
0.8765463240977898
 40
0.913159383247016
 40
0.9503259963521571
 40
0.9890906280209107
 40
1.0
 40
1.0
 40
1.0
 40
1.0
 10
54.14469299923446
 20
135.9788719284041
 30
0.0
 10
54.63882126067229
 20
135.8945008227755
 30
0.0
 10
55.63457175512039
 20
135.7244790355127
 30
0.0
 10
57.17139348477019
 20
135.6744937788613
 30
0.0
 10
58.71639574858239
 20
135.8809755194551
 30
0.0
 10
60.26197838772867
 20
136.2768007139932
 30
0.0
 10
61.7539900890811
 20
136.9353460786493
 30
0.0
 10
62.98053779941182
 20
137.663806151424
 30
0.0
 10
63.89581569524547
 20
138.3740749786413
 30
0.0
 10
64.56058237215551
 20
139.0837233117541
 30
0.0
 10
65.19299779867049
 20
139.9368963799007
 30
0.0
 10
65.80079931154695
 20
140.9028367860787
 30
0.0
 10
66.30141654921442
 20
141.8665986688415
 30
0.0
 10
66.67424807095983
 20
142.8087758243448
 30
0.0
 10
66.93444505842047
 20
143.6987159573445
 30
0.0
 10
67.13471245996949
 20
144.5287975341219
 30
0.0
 10
67.30450627231744
 20
145.2226757338595
 30
0.0
 10
67.38258296082816
 20
145.8820323082965
 30
0.0
 10
67.3028331744464
 20
146.6043595347553
 30
0.0
 10
67.03525593741658
 20
147.3639024356589
 30
0.0
 10
66.59608272560264
 20
148.0732535255462
 30
0.0
 10
65.99118512858199
 20
148.6736076445289
 30
0.0
 10
65.43719780781693
 20
149.0582919897199
 30
0.0
 10
65.07760069900303
 20
149.1794182212218
 30
0.0
 10
64.99862621870007
 20
149.2060198844428
 30
0.0
  0
SPLINE
  5
C4
330
1F
100
AcDbEntity
  8
0
  6
Continuous
 62
     7
370
    15
100
AcDbSpline
210
0.0
220
0.0
230
1.0
 70
     8
 71
     3
 72
    17
 73
    13
 74
     0
 42
0.000000001
 43
0.00000001
 40
0.0
 40
0.0
 40
0.0
 40
0.0
 40
0.0254170951696065
 40
0.2089149540155169
 40
0.290942024969524
 40
0.3498425061015908
 40
0.4393538502362559
 40
0.5326899552969366
 40
0.6317293774903795
 40
0.7894277357004421
 40
0.969133840433437
 40
0.9999999999999999
 40
0.9999999999999999
 40
0.9999999999999999
 40
0.9999999999999999
 10
62.49749185423898
 20
147.6799034371711
 30
0.0
 10
62.50218073811089
 20
147.6905764075899
 30
0.0
 10
62.54072086049495
 20
147.778302526935
 30
0.0
 10
62.55650352946967
 20
147.9170088538962
 30
0.0
 10
62.5771771867675
 20
148.0657180582984
 30
0.0
 10
62.60329191565442
 20
148.1610621225803
 30
0.0
 10
62.6318188714358
 20
148.2301242113256
 30
0.0
 10
62.5959469187857
 20
148.3582514004477
 30
0.0
 10
62.54164555111835
 20
148.4978283152537
 30
0.0
 10
62.42540794164218
 20
148.6517944371671
 30
0.0
 10
62.30930445740568
 20
148.7692891387964
 30
0.0
 10
62.21987868981934
 20
148.8007401349208
 30
0.0
 10
62.20677045820648
 20
148.8053502931871
 30
0.0
  0
LWPOLYLINE
  5
C5
330
1F
100
AcDbEntity
  8
0
  6
Continuous
 62
     7
370
    15
100
AcDbPolyline
 90
       20
 70
   128
 43
0.0
 10
61.8502045923
 20
148.8884228329
 10
61.6255965607
 20
148.8944009483
 10
61.281855819
 20
148.7626847641
 10
61.1025664576
 20
148.6098787935
 10
60.9496310562
 20
148.4177423863
 10
60.8469822795
 20
148.1834697128
 10
60.8165167187
 20
148.0962050474
 10
60.7924708471
 20
148.0375884818
 10
60.7658766314
 20
148.0004997884
 10
60.7551697352
 20
147.938954221
 10
60.7802406082
 20
147.8149268634
 10
60.8369617801
 20
147.7452547599
 10
60.9366236631
 20
147.6942774226
 10
61.0437845962
 20
147.677297563
 10
61.1570452525
 20
147.7039352435
 10
61.2703265732
 20
147.7829983041
 10
61.3510598969
 20
147.8922538105
 10
61.387710526
 20
148.1136309509
 10
61.3036929557
 20
148.3450638219
 10
61.3036929557
 20
148.3450638219
  0
LINE
  5
C6
330
1F
100
AcDbEntity
  8
0
  6
Continuous
 62
     7
370
    15
100
AcDbLine
 10
61.3036929557
 20
148.3450638219
 30
0.0
 11
62.0128421898
 21
149.0501222336
 31
0.0
  0
SPLINE
  5
C7
330
1F
100
AcDbEntity
  8
0
  6
Continuous
 62
     7
370
    15
100
AcDbSpline
210
0.0
220
0.0
230
1.0
 70
     8
 71
     3
 72
    11
 73
     7
 74
     0
 42
0.000000001
 43
0.00000001
 40
0.0000000000000584
 40
0.0000000000000584
 40
0.0000000000000584
 40
0.0000000000000584
 40
0.0001333223672511
 40
0.0001333223672511
 40
0.0001333223672511
 40
0.000266710627908
 40
0.000266710627908
 40
0.000266710627908
 40
0.000266710627908
 10
54.14439197413368
 20
135.9847914399161
 30
0.0
 10
54.14439229000178
 20
135.9847914559794
 30
0.0
 10
54.14444939800429
 20
135.9842999154127
 30
0.0
 10
54.14449987693959
 20
135.9833137755951
 30
0.0
 10
54.1445503808204
 20
135.9823271484504
 30
0.0
 10
54.14459265045099
 20
135.9808452297779
 30
0.0
 10
54.14469299854655
 20
135.9788719419317
 30
0.0
  0
LINE
  5
C8
330
1F
100
AcDbEntity
  8
0
  6
Continuous
 62
     7
370
    15
100
AcDbLine
 10
55.6038044837
 20
135.7691106214
 30
0.0
 11
54.1443919732
 21
135.9847914197
 31
0.0
  0
LINE
  5
C9
330
1F
100
AcDbEntity
  8
0
  6
Continuous
 62
     7
370
    15
100
AcDbLine
 10
138.0540698473
 20
157.0748097816
 30
0.0
 11
126.2559384072
 21
154.6006201235
 31
0.0
  0
LINE
  5
CA
330
1F
100
AcDbEntity
  8
0
  6
Continuous
 62
     7
370
    15
100
AcDbLine
 10
28.2559384072
 20
157.0748097816
 30
0.0
 11
40.0540698473
 21
154.6006201235
 31
0.0
  0
LINE
  5
CB
330
1F
100
AcDbEntity
  8
0
  6
Continuous
 62
     7
370
    15
100
AcDbLine
 10
108.0039494128
 20
185.6647122143
 30
0.0
 11
104.676503392
 21
174.1337344226
 31
0.0
  0
LINE
  5
CC
330
1F
100
AcDbEntity
  8
0
  6
Continuous
 62
     7
370
    15
100
AcDbLine
 10
83.1550041273
 20
176.9925346161
 30
0.0
 11
83.1550041273
 21
188.9925345772
 31
0.0
  0
LINE
  5
CD
330
1F
100
AcDbEntity
  8
0
  6
Continuous
 62
     7
370
    15
100
AcDbLine
 10
58.3060588417
 20
185.6647122143
 30
0.0
 11
61.6335048625
 21
174.1337344226
 31
0.0
  0
LINE
  5
CE
330
1F
100
AcDbEntity
  8
0
  6
Continuous
 62
     8
370
    15
100
AcDbLine
 10
113.1647559713
 20
136.0903498138
 30
0.0
 11
116.2651108162
 21
124.4977746109
 31
0.0
  0
LINE
  5
CF
330
1F
100
AcDbEntity
  8
0
  6
Continuous
 62
     8
370
    15
100
AcDbLine
 10
53.1452522832
 20
136.0903498138
 30
0.0
 11
50.0448974383
 21
124.4977746109
 31
0.0
  0
SPLINE
  5
D0
330
1F
100
AcDbEntity
  8
0
  6
Continuous
 62
     8
370
    15
100
AcDbSpline
210
0.0
220
0.0
230
1.0
 70
    24
 71
     3
 72
    34
 73
    30
 74
     0
 42
0.000000001
 43
0.00000001
 40
0.0
 40
0.0
 40
0.0
 40
0.0
 40
0.125
 40
0.125
 40
0.1875
 40
0.1875
 40
0.25
 40
0.25
 40
0.3125000000000001
 40
0.3125000000000001
 40
0.375
 40
0.375
 40
0.4375
 40
0.4375
 40
0.5
 40
0.5
 40
0.5625
 40
0.5625
 40
0.625
 40
0.625
 40
0.6875
 40
0.6875
 40
0.7499999999999999
 40
0.7499999999999999
 40
0.8124999999999999
 40
0.8124999999999999
 40
0.8749999999999999
 40
0.8749999999999999
 40
1.0
 40
1.0
 40
1.0
 40
1.0
 10
118.0236677504827
 20
166.8748863165947
 30
0.0
 10
118.0236677504827
 20
166.8748863165947
 30
0.0
 10
118.0630550064943
 20
166.9212052242605
 30
0.0
 10
118.2371881383351
 20
167.1259835528881
 30
0.0
 10
118.3146577589073
 20
167.2170868326173
 30
0.0
 10
118.518792402254
 20
167.4571465538068
 30
0.0
 10
118.6455717927711
 20
167.6062374902648
 30
0.0
 10
118.9565238139152
 20
167.9719130770998
 30
0.0
 10
119.1408446263485
 20
168.1886719873796
 30
0.0
 10
119.5687513296182
 20
168.6918847796716
 30
0.0
 10
119.8124488409746
 20
168.9784699259832
 30
0.0
 10
120.3504281163105
 20
169.6111266506113
 30
0.0
 10
120.644680496754
 20
169.9571636742665
 30
0.0
 10
121.2629046334666
 20
170.684187326199
 30
0.0
 10
121.5866596594261
 20
171.0649190824131
 30
0.0
 10
122.2344763701431
 20
171.8267432216527
 30
0.0
 10
122.5582313961026
 20
172.2074749778669
 30
0.0
 10
123.1764555328152
 20
172.9344986297993
 30
0.0
 10
123.4707079132587
 20
173.2805356534545
 30
0.0
 10
124.0086871885946
 20
173.9131923780826
 30
0.0
 10
124.252384699951
 20
174.1997775243943
 30
0.0
 10
124.6802914032207
 20
174.7029903166862
 30
0.0
 10
124.864612215654
 20
174.919749226966
 30
0.0
 10
125.1755642367982
 20
175.285424813801
 30
0.0
 10
125.3023436273152
 20
175.434515750259
 30
0.0
 10
125.5064782706619
 20
175.6745754714486
 30
0.0
 10
125.5839478912342
 20
175.7656787511777
 30
0.0
 10
125.7580810230749
 20
175.9704570798054
 30
0.0
 10
125.7974682790865
 20
176.0167759874711
 30
0.0
 10
125.7974682790865
 20
176.0167759874711
 30
0.0
  0
SPLINE
  5
D1
330
1F
100
AcDbEntity
  8
0
  6
Continuous
 62
     8
370
    15
100
AcDbSpline
210
0.0
220
0.0
230
1.0
 70
    24
 71
     3
 72
    34
 73
    30
 74
     0
 42
0.000000001
 43
0.00000001
 40
0.0
 40
0.0
 40
0.0
 40
0.0
 40
0.125
 40
0.125
 40
0.1875
 40
0.1875
 40
0.25
 40
0.25
 40
0.3125
 40
0.3125
 40
0.375
 40
0.375
 40
0.4375
 40
0.4375
 40
0.5
 40
0.5
 40
0.5625
 40
0.5625
 40
0.625
 40
0.625
 40
0.6875
 40
0.6875
 40
0.75
 40
0.75
 40
0.8125
 40
0.8125
 40
0.875
 40
0.875
 40
1.0
 40
1.0
 40
1.0
 40
1.0
 10
40.51253997542398
 20
176.0167759874708
 30
0.0
 10
40.51253997542398
 20
176.0167759874708
 30
0.0
 10
40.55192723143557
 20
175.970457079805
 30
0.0
 10
40.7260603632763
 20
175.7656787511774
 30
0.0
 10
40.80352998384856
 20
175.6745754714482
 30
0.0
 10
41.0076646271953
 20
175.4345157502587
 30
0.0
 10
41.1344440177123
 20
175.2854248138007
 30
0.0
 10
41.44539603885645
 20
174.9197492269656
 30
0.0
 10
41.62971685128983
 20
174.7029903166859
 30
0.0
 10
42.05762355455945
 20
174.1997775243939
 30
0.0
 10
42.30132106591586
 20
173.9131923780823
 30
0.0
 10
42.83930034125177
 20
173.2805356534541
 30
0.0
 10
43.13355272169526
 20
172.934498629799
 30
0.0
 10
43.75177685840789
 20
172.2074749778665
 30
0.0
 10
44.0755318843674
 20
171.8267432216524
 30
0.0
 10
44.72334859508438
 20
171.0649190824127
 30
0.0
 10
45.04710362104389
 20
170.6841873261986
 30
0.0
 10
45.66532775775652
 20
169.9571636742662
 30
0.0
 10
45.95958013820001
 20
169.611126650611
 30
0.0
 10
46.49755941353592
 20
168.9784699259829
 30
0.0
 10
46.74125692489235
 20
168.6918847796712
 30
0.0
 10
47.16916362816196
 20
168.1886719873793
 30
0.0
 10
47.35348444059535
 20
167.9719130770995
 30
0.0
 10
47.6644364617395
 20
167.6062374902645
 30
0.0
 10
47.79121585225648
 20
167.4571465538065
 30
0.0
 10
47.99535049560323
 20
167.2170868326169
 30
0.0
 10
48.07282011617548
 20
167.1259835528878
 30
0.0
 10
48.2469532480162
 20
166.9212052242601
 30
0.0
 10
48.28634050402781
 20
166.8748863165944
 30
0.0
 10
48.28634050402781
 20
166.8748863165944
 30
0.0
  0
SPLINE
  5
D2
330
1F
100
AcDbEntity
  8
0
  6
Continuous
 62
     7
370
    15
100
AcDbSpline
210
0.0
220
0.0
230
1.0
 70
    24
 71
     3
 72
    38
 73
    34
 74
     0
 42
0.000000001
 43
0.00000001
 40
0.0
 40
0.0
 40
0.0
 40
0.0
 40
0.0325687194024197
 40
0.0586917338362259
 40
0.0803398607047767
 40
0.0992405452082549
 40
0.1168792426716106
 40
0.1345034846746965
 40
0.1528599546865599
 40
0.1717431100398064
 40
0.2311167553816279
 40
0.285406624960667
 40
0.3281100337461278
 40
0.3652218069030777
 40
0.3973165937998908
 40
0.4246544692730999
 40
0.4519950456402183
 40
0.4844345047647882
 40
0.5218865619971454
 40
0.5641321050557093
 40
0.6109671373348874
 40
0.6629264649863665
 40
0.7110283003221975
 40
0.7640809626518391
 40
0.8194191213760084
 40
0.8397673631424332
 40
0.8593830706527836
 40
0.878083260345452
 40
0.8967162191233505
 40
0.9166054131781717
 40
0.9392731684635581
 40
0.9664362686810339
 40
1.0
 40
1.0
 40
1.0
 40
1.0
 10
192.6685419058553
 20
155.8377149525378
 30
0.0
 10
192.6685419058553
 20
155.4739574799143
 30
0.0
 10
192.6685419058553
 20
154.8184341079216
 30
0.0
 10
192.6685419058553
 20
153.9179626120507
 30
0.0
 10
192.6685419058553
 20
153.1691659695198
 30
0.0
 10
192.6685419058553
 20
152.5155888972484
 30
0.0
 10
192.6685419058553
 20
151.9086276155787
 30
0.0
 10
192.6685419058553
 20
151.3095208173267
 30
0.0
 10
192.6685419058553
 20
150.6975519272306
 30
0.0
 10
192.6685419058553
 20
149.6221880425469
 30
0.0
 10
192.6685419058553
 20
148.1537845804368
 30
0.0
 10
192.6685419058553
 20
146.4445056293472
 30
0.0
 10
192.6685419058553
 20
145.0128108764292
 30
0.0
 10
192.6685419058553
 20
143.8468838047041
 30
0.0
 10
192.6685419058553
 20
142.8648492145277
 30
0.0
 10
192.6685419058553
 20
142.0008272670798
 30
0.0
 10
192.6685419058553
 20
141.1503634672417
 30
0.0
 10
192.6685419058553
 20
140.2228695578741
 30
0.0
 10
192.6685419058553
 20
139.1841624677484
 30
0.0
 10
192.6685419058553
 20
138.055164334427
 30
0.0
 10
192.6685419058553
 20
136.8569072110952
 30
0.0
 10
192.6685419058553
 20
135.6951587705044
 30
0.0
 10
192.6685419058553
 20
134.5903361282729
 30
0.0
 10
192.6685419058553
 20
133.5767457802154
 30
0.0
 10
192.6685419058553
 20
132.8168648274203
 30
0.0
 10
192.6685419058553
 20
132.2860964666915
 30
0.0
 10
192.6685419058553
 20
131.9696993280028
 30
0.0
 10
192.6685419058553
 20
131.6718906022478
 30
0.0
 10
192.6685419058553
 20
131.3923486170451
 30
0.0
 10
192.6685419058553
 20
131.123907756044
 30
0.0
 10
192.6685419058553
 20
130.8558927770533
 30
0.0
 10
192.6685419058553
 20
130.5736165079203
 30
0.0
 10
192.6685419058553
 20
130.3935725448994
 30
0.0
 10
192.6685419058553
 20
130.2940622123569
 30
0.0
  0
SPLINE
  5
D3
330
1F
100
AcDbEntity
  8
0
  6
Continuous
 62
     7
370
    15
100
AcDbSpline
210
0.0
220
0.0
230
1.0
 70
    24
 71
     3
 72
    28
 73
    24
 74
     0
 42
0.000000001
 43
0.00000001
 40
0.0
 40
0.0
 40
0.0
 40
0.0
 40
0.0535560557632282
 40
0.1075080026169213
 40
0.1581651381018322
 40
0.2042432939043634
 40
0.2463550559483258
 40
0.2849958500952077
 40
0.3271057906181483
 40
0.3644879287657742
 40
0.3970289738669669
 40
0.424670024473587
 40
0.4520724230495223
 40
0.493305123144591
 40
0.5423188781899663
 40
0.5991799253159644
 40
0.6638735711964282
 40
0.7111806130528688
 40
0.7616351148439187
 40
0.8156437623984292
 40
0.874294332336593
 40
0.9375092681218145
 40
1.0
 40
1.0
 40
1.0
 40
1.0
 10
204.6685419058553
 20
130.2940622123569
 30
0.0
 10
204.6685419058553
 20
130.464835356878
 30
0.0
 10
204.6685419058553
 20
130.8076440160748
 30
0.0
 10
204.6685419058553
 20
131.4683237278649
 30
0.0
 10
204.6685419058553
 20
132.1928918905729
 30
0.0
 10
204.6685419058553
 20
132.9638768683985
 30
0.0
 10
204.6685419058553
 20
133.748158952706
 30
0.0
 10
204.6685419058553
 20
134.5750614389441
 30
0.0
 10
204.6685419058553
 20
135.4282903535026
 30
0.0
 10
204.6685419058553
 20
136.2887801089606
 30
0.0
 10
204.6685419058553
 20
137.0758895039772
 30
0.0
 10
204.6685419058553
 20
137.8106799351853
 30
0.0
 10
204.6685419058553
 20
138.6460498197861
 30
0.0
 10
204.6685419058553
 20
139.7075326119557
 30
0.0
 10
204.6685419058553
 20
141.0961244029513
 30
0.0
 10
204.6685419058553
 20
142.7810059426725
 30
0.0
 10
204.6685419058553
 20
144.5214035302337
 30
0.0
 10
204.6685419058553
 20
146.2456782980495
 30
0.0
 10
204.6685419058553
 20
147.8908153140914
 30
0.0
 10
204.6685419058553
 20
149.6912069809334
 30
0.0
 10
204.6685419058553
 20
151.6574329417155
 30
0.0
 10
204.6685419058553
 20
153.7304165169261
 30
0.0
 10
204.6685419058553
 20
155.1379851923092
 30
0.0
 10
204.6685419058553
 20
155.8377149525378
 30
0.0
  0
SPLINE
  5
D4
330
1F
100
AcDbEntity
  8
0
  6
Continuous
 62
     7
370
    15
100
AcDbSpline
210
0.0
220
0.0
230
1.0
 70
    24
 71
     3
 72
    16
 73
    12
 74
     0
 42
0.000000001
 43
0.00000001
 40
0.0
 40
0.0
 40
0.0
 40
0.0
 40
0.1212992107718297
 40
0.2491719331840504
 40
0.3760019134690215
 40
0.5004553447256072
 40
0.5994056877243222
 40
0.6989171568713307
 40
0.800387053396083
 40
0.9029026991219371
 40
1.0
 40
1.0
 40
1.0
 40
1.0
 10
192.6685419058553
 20
171.4458311520326
 30
0.0
 10
192.6685419058553
 20
170.9337159933014
 30
0.0
 10
192.6685419058553
 20
169.8817328575336
 30
0.0
 10
192.6685419058553
 20
168.1514570013264
 30
0.0
 10
192.6685419058553
 20
166.305463142444
 30
0.0
 10
192.6685419058553
 20
164.4990192499129
 30
0.0
 10
192.6685419058553
 20
162.7659390664794
 30
0.0
 10
192.6685419058553
 20
161.1047769127019
 30
0.0
 10
192.6685419058553
 20
159.3721052010558
 30
0.0
 10
192.6685419058553
 20
157.6133216407782
 30
0.0
 10
192.6685419058553
 20
156.4187754932919
 30
0.0
 10
192.6685419058553
 20
155.8377149525378
 30
0.0
  0
SPLINE
  5
D5
330
1F
100
AcDbEntity
  8
0
  6
Continuous
 62
     7
370
    15
100
AcDbSpline
210
0.0
220
0.0
230
1.0
 70
    24
 71
     3
 72
    22
 73
    18
 74
     0
 42
0.000000001
 43
0.00000001
 40
0.0
 40
0.0
 40
0.0
 40
0.0
 40
0.059154776940305
 40
0.1082643355164442
 40
0.1510022685198572
 40
0.1910373635618115
 40
0.2319889586168374
 40
0.2758839818146338
 40
0.3875807286543132
 40
0.5032342640859229
 40
0.599212263651719
 40
0.6897399267067263
 40
0.7722473106614326
 40
0.8201231719787565
 40
0.8716814239184183
 40
0.9304601590793742
 40
1.0
 40
1.0
 40
1.0
 40
1.0
 10
204.6685419058553
 20
155.8377149525378
 30
0.0
 10
204.6685419058553
 20
156.193240405706
 30
0.0
 10
204.6685419058553
 20
156.8439186592184
 30
0.0
 10
204.6685419058553
 20
157.7417879107148
 30
0.0
 10
204.6685419058553
 20
158.516119635653
 30
0.0
 10
204.6685419058553
 20
159.2316342431172
 30
0.0
 10
204.6685419058553
 20
159.9458204477679
 30
0.0
 10
204.6685419058553
 20
161.0621329072624
 30
0.0
 10
204.6685419058553
 20
162.579621210987
 30
0.0
 10
204.6685419058553
 20
164.3187069403043
 30
0.0
 10
204.6685419058553
 20
165.8735780756346
 30
0.0
 10
204.6685419058553
 20
167.2127135161906
 30
0.0
 10
204.6685419058553
 20
168.2863757159401
 30
0.0
 10
204.6685419058553
 20
169.1378183238203
 30
0.0
 10
204.6685419058553
 20
169.84868339157
 30
0.0
 10
204.6685419058553
 20
170.6258698497302
 30
0.0
 10
204.6685419058553
 20
171.1576453907842
 30
0.0
 10
204.6685419058553
 20
171.4458311520326
 30
0.0
  0
SPLINE
  5
D6
330
1F
100
AcDbEntity
  8
0
  6
Continuous
 62
     7
370
    15
100
AcDbSpline
210
0.0
220
0.0
230
1.0
 70
    24
 71
     3
 72
    22
 73
    18
 74
     0
 42
0.000000001
 43
0.00000001
 40
0.0
 40
0.0
 40
0.0
 40
0.0
 40
0.0831055807142096
 40
0.1547792725974054
 40
0.2204042586968754
 40
0.2853411623715696
 40
0.3535341049674416
 40
0.424710968938379
 40
0.4978141611224919
 40
0.5625471906067683
 40
0.627199643992475
 40
0.690680449957522
 40
0.7518049923167747
 40
0.8095283274888071
 40
0.8662453650908573
 40
0.927750260468265
 40
1.0
 40
1.0
 40
1.0
 40
1.0
 10
192.6685419058553
 20
179.8992233184342
 30
0.0
 10
192.6685419058553
 20
179.7518559438124
 30
0.0
 10
192.6685419058553
 20
179.4773928469598
 30
0.0
 10
192.6685419058553
 20
179.0390087636724
 30
0.0
 10
192.6685419058553
 20
178.5967633366321
 30
0.0
 10
192.6685419058553
 20
178.1263919083244
 30
0.0
 10
192.6685419058553
 20
177.620330278136
 30
0.0
 10
192.6685419058553
 20
177.0675034644632
 30
0.0
 10
192.6685419058553
 20
176.4947161130502
 30
0.0
 10
192.6685419058553
 20
175.9098544260077
 30
0.0
 10
192.6685419058553
 20
175.3230296475143
 30
0.0
 10
192.6685419058553
 20
174.7233182901343
 30
0.0
 10
192.6685419058553
 20
174.1255566805319
 30
0.0
 10
192.6685419058553
 20
173.5346520039758
 30
0.0
 10
192.6685419058553
 20
172.9212506923352
 30
0.0
 10
192.6685419058553
 20
172.2280769422221
 30
0.0
 10
192.6685419058553
 20
171.7201799601313
 30
0.0
 10
192.6685419058553
 20
171.4458311520326
 30
0.0
  0
SPLINE
  5
D7
330
1F
100
AcDbEntity
  8
0
  6
Continuous
 62
     7
370
    15
100
AcDbSpline
210
0.0
220
0.0
230
1.0
 70
    24
 71
     3
 72
    15
 73
    11
 74
     0
 42
0.000000001
 43
0.00000001
 40
0.0
 40
0.0
 40
0.0
 40
0.0
 40
0.1233028122502624
 40
0.2504706426790385
 40
0.3755228375485229
 40
0.4995726977429886
 40
0.6241560261825734
 40
0.7504538283317854
 40
0.8775151787894669
 40
1.0
 40
1.0
 40
1.0
 40
1.0
 10
204.6685419058553
 20
171.4458311520326
 30
0.0
 10
204.6685419058553
 20
171.9080394025353
 30
0.0
 10
204.6685419058553
 20
172.8469441642531
 30
0.0
 10
204.6685419058553
 20
174.1450820864111
 30
0.0
 10
204.6685419058553
 20
175.3552681388988
 30
0.0
 10
204.6685419058553
 20
176.4624233454127
 30
0.0
 10
204.6685419058553
 20
177.480708877614
 30
0.0
 10
204.6685419058553
 20
178.3999019997553
 30
0.0
 10
204.6685419058553
 20
179.2187859098868
 30
0.0
 10
204.6685419058553
 20
179.6752009764084
 30
0.0
 10
204.6685419058553
 20
179.8992233184342
 30
0.0
  0
ARC
  5
D8
330
1F
100
AcDbEntity
  8
0
  6
Continuous
 62
     7
370
    15
100
AcDbCircle
 10
198.6685419059
 20
129.9806205957
 30
0.0
 40
6.0
100
AcDbArc
 50
180.0
 51
0.0
  0
LINE
  5
D9
330
1F
100
AcDbEntity
  8
0
  6
Continuous
 62
     7
370
    15
100
AcDbLine
 10
192.6685419059
 20
130.2940622124
 30
0.0
 11
192.6685419059
 21
129.9806205957
 31
0.0
  0
LINE
  5
DA
330
1F
100
AcDbEntity
  8
0
  6
Continuous
 62
     7
370
    15
100
AcDbLine
 10
204.6685419059
 20
129.9806205957
 30
0.0
 11
204.6685419059
 21
130.2940622124
 31
0.0
  0
SPLINE
  5
DB
330
1F
100
AcDbEntity
  8
0
  6
Continuous
 62
     7
370
    15
100
AcDbSpline
210
0.0
220
0.0
230
1.0
 70
     8
 71
     3
 72
    30
 73
    26
 74
     0
 42
0.000000001
 43
0.00000001
 40
0.0
 40
0.0
 40
0.0
 40
0.0
 40
0.0193342104321877
 40
0.06927560069321
 40
0.1234402714231462
 40
0.1813482643753445
 40
0.2559127088911076
 40
0.3256590338183145
 40
0.3897742910200271
 40
0.4488661318217438
 40
0.5052057448924132
 40
0.5597963000566353
 40
0.5933968042673925
 40
0.6280676771295803
 40
0.665108139536627
 40
0.705374606137171
 40
0.7443967708465846
 40
0.7635547106840191
 40
0.7785071129085757
 40
0.7962361017414918
 40
0.8242863887018506
 40
0.862220412393635
 40
0.909506252229812
 40
0.9665639299441918
 40
1.0
 40
1.0
 40
1.0
 40
1.0
 10
188.4902315163607
 20
143.2072218491442
 30
0.0
 10
188.5145194012958
 20
143.0436450422359
 30
0.0
 10
188.6015443058992
 20
142.4575398274511
 30
0.0
 10
188.7603731190053
 20
141.4255139260842
 30
0.0
 10
188.9727711538944
 20
140.0890712400682
 30
0.0
 10
189.2239210008459
 20
138.5901834096153
 30
0.0
 10
189.5038477907159
 20
137.0210697463935
 30
0.0
 10
189.7993413220136
 20
135.4726712554286
 30
0.0
 10
190.0854030508461
 20
134.1287278148276
 30
0.0
 10
190.3694855433362
 20
132.988790643815
 30
0.0
 10
190.6555019962686
 20
131.9948806932424
 30
0.0
 10
190.9129764105616
 20
131.1996212958296
 30
0.0
 10
191.1450740783269
 20
130.5451152373726
 30
0.0
 10
191.3514781520414
 20
130.0055111341975
 30
0.0
 10
191.5936051587834
 20
129.424739311975
 30
0.0
 10
191.875744728139
 20
128.8169263543429
 30
0.0
 10
192.1407022071007
 20
128.3160733429734
 30
0.0
 10
192.3570873965518
 20
127.9496031588474
 30
0.0
 10
192.5251139941378
 20
127.6838795915556
 30
0.0
 10
192.7485124080001
 20
127.355707598437
 30
0.0
 10
193.0703911914402
 20
126.9306271237102
 30
0.0
 10
193.5228330212971
 20
126.4193996658256
 30
0.0
 10
194.0823336923214
 20
125.9048914420891
 30
0.0
 10
194.5828842483848
 20
125.5218471054953
 30
0.0
 10
194.8933376812926
 20
125.3126485622474
 30
0.0
 10
195.0080455256194
 20
125.2353528670202
 30
0.0
  0
SPLINE
  5
DC
330
1F
100
AcDbEntity
  8
0
  6
Continuous
 62
     7
370
    15
100
AcDbSpline
210
0.0
220
0.0
230
1.0
 70
     8
 71
     3
 72
    17
 73
    13
 74
     0
 42
0.000000001
 43
0.00000001
 40
0.0
 40
0.0
 40
0.0
 40
0.0
 40
0.093375385741912
 40
0.2198909304198046
 40
0.3335675193126687
 40
0.4035594022711558
 40
0.4698537605149696
 40
0.5426012132426391
 40
0.6175719813984469
 40
0.7151517407138211
 40
0.8405150618678823
 40
1.0
 40
1.0
 40
1.0
 40
1.0
 10
184.8936312127044
 20
146.2907375472474
 30
0.0
 10
184.9109436193999
 20
146.1539008195408
 30
0.0
 10
184.9517128348181
 20
145.8316622003163
 30
0.0
 10
185.0183709399569
 20
145.4106881316005
 30
0.0
 10
185.0949672001395
 20
145.0364638535139
 30
0.0
 10
185.1792318058961
 20
144.7426949434828
 30
0.0
 10
185.2691346523079
 20
144.5017406997625
 30
0.0
 10
185.4039981815763
 20
144.2396436127357
 30
0.0
 10
185.6228293076607
 20
143.9442821397573
 30
0.0
 10
185.9559313913302
 20
143.6419758945695
 30
0.0
 10
186.4640937091799
 20
143.3489442448477
 30
0.0
 10
186.8947385038986
 20
143.25881933533
 30
0.0
 10
187.1358541021289
 20
143.2083589054344
 30
0.0
  0
SPLINE
  5
DD
330
1F
100
AcDbEntity
  8
0
  6
Continuous
 62
     7
370
    15
100
AcDbSpline
210
0.0
220
0.0
230
1.0
 70
     8
 71
     3
 72
    10
 73
     6
 74
     0
 42
0.000000001
 43
0.00000001
 40
0.0
 40
0.0
 40
0.0
 40
0.0
 40
0.631354495674358
 40
0.8577944071506092
 40
1.0
 40
1.0
 40
1.0
 40
1.0
 10
183.7654315473365
 20
148.1572411096101
 30
0.0
 10
183.764927845671
 20
148.1330379925949
 30
0.0
 10
183.764243487716
 20
148.100154250492
 30
0.0
 10
183.7567639731861
 20
148.0407324291645
 30
0.0
 10
183.7529915671643
 20
148.0310045416046
 30
0.0
 10
183.7515363555084
 20
148.0272519934211
 30
0.0
  0
SPLINE
  5
DE
330
1F
100
AcDbEntity
  8
0
  6
Continuous
 62
     7
370
    15
100
AcDbSpline
210
0.0
220
0.0
230
1.0
 70
     8
 71
     3
 72
    17
 73
    13
 74
     0
 42
0.000000001
 43
0.00000001
 40
0.0
 40
0.0
 40
0.0
 40
0.0
 40
0.0067523963580188
 40
0.0144588084168285
 40
0.0327071103284275
 40
0.0570733353363135
 40
0.1294039314976536
 40
0.2267179307251242
 40
0.4150124824488911
 40
0.747560823698414
 40
0.8851851445823534
 40
1.0
 40
1.0
 40
1.0
 40
1.0
 10
183.7476235592003
 20
148.0321325380376
 30
0.0
 10
183.7472953987901
 20
148.0318128979069
 30
0.0
 10
183.7465927136619
 20
148.0311284571298
 30
0.0
 10
183.7462785782683
 20
148.0219282522367
 30
0.0
 10
183.7476865109679
 20
147.9970023902591
 30
0.0
 10
183.7536644481867
 20
147.9255368942122
 30
0.0
 10
183.7667443556066
 20
147.7878671244254
 30
0.0
 10
183.791353270856
 20
147.5358397846134
 30
0.0
 10
183.837871990469
 20
147.1133188562735
 30
0.0
 10
183.908641110172
 20
146.7424330555029
 30
0.0
 10
184.0342149255716
 20
146.4650210941625
 30
0.0
 10
184.1452955491831
 20
146.353337240528
 30
0.0
 10
184.1958174448987
 20
146.302540982612
 30
0.0
  0
SPLINE
  5
DF
330
1F
100
AcDbEntity
  8
0
  6
Continuous
 62
     7
370
    15
100
AcDbSpline
210
0.0
220
0.0
230
1.0
 70
     8
 71
     3
 72
    26
 73
    22
 74
     0
 42
0.000000001
 43
0.00000001
 40
0.0
 40
0.0
 40
0.0
 40
0.0
 40
0.0680354887820993
 40
0.1243690812694754
 40
0.2107434167171489
 40
0.272390117674419
 40
0.3238721432759167
 40
0.4351813566904297
 40
0.5620097116944847
 40
0.6356044885215371
 40
0.717137592467352
 40
0.8022828578937926
 40
0.8471318503731364
 40
0.8925944875859495
 40
0.931440352551906
 40
0.9615733328538124
 40
0.9830593706507481
 40
0.9959016424658302
 40
0.9990953769054438
 40
0.9998884250550935
 40
1.0
 40
1.0
 40
1.0
 40
1.0
 10
185.3082119121208
 20
151.090321974844
 30
0.0
 10
185.1996089476526
 20
151.0524585558895
 30
0.0
 10
185.0010823969385
 20
150.9832441104083
 30
0.0
 10
184.7162699812408
 20
150.7791896268231
 30
0.0
 10
184.5022456775467
 20
150.5198219408465
 30
0.0
 10
184.3797807706194
 20
150.2421591840813
 30
0.0
 10
184.308831772003
 20
149.995349620845
 30
0.0
 10
184.2389722564493
 20
149.6237161269256
 30
0.0
 10
184.1800442167151
 20
149.156789273748
 30
0.0
 10
184.1262293631254
 20
148.6707140978677
 30
0.0
 10
184.0816487699196
 20
148.2381680011114
 30
0.0
 10
184.0431035850822
 20
147.8388396637201
 30
0.0
 10
184.0082340379273
 20
147.5442992171591
 30
0.0
 10
183.9863479549619
 20
147.3576433912423
 30
0.0
 10
183.9752179619938
 20
147.2307622235961
 30
0.0
 10
183.9528601286049
 20
147.1636035880807
 30
0.0
 10
183.9399724771089
 20
147.1328714009105
 30
0.0
 10
183.9325141487081
 20
147.1216148100324
 30
0.0
 10
183.9292325610584
 20
147.1186222408208
 30
0.0
 10
183.9284315678487
 20
147.1179984727906
 30
0.0
 10
183.9282721870816
 20
147.118014302889
 30
0.0
 10
183.9282525292811
 20
147.1180162553512
 30
0.0
  0
SPLINE
  5
E0
330
1F
100
AcDbEntity
  8
0
  6
Continuous
 62
     7
370
    15
100
AcDbSpline
210
0.0
220
0.0
230
1.0
 70
     8
 71
     3
 72
    30
 73
    26
 74
     0
 42
0.000000001
 43
0.00000001
 40
0.0
 40
0.0
 40
0.0
 40
0.0
 40
0.0535730247988837
 40
0.0978229438882113
 40
0.133045276749172
 40
0.1702296759085612
 40
0.1977469018895006
 40
0.2407368357328382
 40
0.2574420981641404
 40
0.2771128976962105
 40
0.3305022436293977
 40
0.3991515726447751
 40
0.4758466523016394
 40
0.5591613152783117
 40
0.6400249422222263
 40
0.678174160378232
 40
0.7139912719710024
 40
0.7499076141488943
 40
0.78587044971616
 40
0.82188046511103
 40
0.8579625214951122
 40
0.8938845522255648
 40
0.9301289653318238
 40
0.9676594973808872
 40
1.0
 40
1.0
 40
1.0
 40
1.0
 10
190.1629787152357
 20
155.224811753053
 30
0.0
 10
189.9111420594152
 20
155.1938785979059
 30
0.0
 10
189.451294904176
 20
155.1373954646199
 30
0.0
 10
188.8508788669519
 20
154.9512350148513
 30
0.0
 10
188.3501172462443
 20
154.7309421389782
 30
0.0
 10
187.9543659736591
 20
154.4938046061839
 30
0.0
 10
187.5739453283001
 20
154.2014586622555
 30
0.0
 10
187.3045763561394
 20
153.9271337510793
 30
0.0
 10
187.1091002380816
 20
153.679225322336
 30
0.0
 10
186.9332119958488
 20
153.4264879006083
 30
0.0
 10
186.721220630964
 20
153.0426302104873
 30
0.0
 10
186.4968117768767
 20
152.4680103930412
 30
0.0
 10
186.313705311085
 20
151.7967174040527
 30
0.0
 10
186.1532095967748
 20
151.0037067847445
 30
0.0
 10
186.0270633773592
 20
150.2613425921268
 30
0.0
 10
185.9348084240086
 20
149.6331280061184
 30
0.0
 10
185.8709255685983
 20
149.12936987807
 30
0.0
 10
185.8084237035647
 20
148.6083280068535
 30
0.0
 10
185.746031984778
 20
148.0711946154689
 30
0.0
 10
185.6839709318475
 20
147.5379889554537
 30
0.0
 10
185.6229039149703
 20
147.0290520681838
 30
0.0
 10
185.5617553327363
 20
146.5572801059626
 30
0.0
 10
185.5038052026094
 20
146.1577929514588
 30
0.0
 10
185.4618286325555
 20
145.908721877937
 30
0.0
 10
185.4716846767959
 20
145.8829193934301
 30
0.0
 10
185.4762466448
 20
145.8709764571083
 30
0.0
  0
SPLINE
  5
E1
330
1F
100
AcDbEntity
  8
0
  6
Continuous
 62
     7
370
    15
100
AcDbSpline
210
0.0
220
0.0
230
1.0
 70
     8
 71
     3
 72
    33
 73
    29
 74
     0
 42
0.000000001
 43
0.00000001
 40
0.0
 40
0.0
 40
0.0
 40
0.0
 40
0.0337668738029077
 40
0.0665596967956129
 40
0.0953597597104719
 40
0.1289221713566981
 40
0.1598958663973733
 40
0.1923192457206971
 40
0.2268466987513325
 40
0.2638207256129518
 40
0.3136288232222023
 40
0.3551022397440696
 40
0.3905374050573794
 40
0.4361688106724141
 40
0.4850211804387085
 40
0.5292998274156523
 40
0.5697717734352532
 40
0.6057528483490989
 40
0.6469143246346678
 40
0.6931210888085575
 40
0.7439960473197018
 40
0.7977187321598823
 40
0.8454853085888233
 40
0.886055799032128
 40
0.9195818973293187
 40
0.9461047605415758
 40
0.9721722384388896
 40
1.0
 40
1.0
 40
1.0
 40
1.0
 10
202.2321198348358
 20
125.1563466250334
 30
0.0
 10
202.3156164306117
 20
125.2097782497824
 30
0.0
 10
202.4802010507561
 20
125.3151001923274
 30
0.0
 10
202.7925230351422
 20
125.5323479500337
 30
0.0
 10
203.1698595338012
 20
125.8229589165953
 30
0.0
 10
203.6311473646589
 20
126.2262036461983
 30
0.0
 10
204.1353253387169
 20
126.7549669167995
 30
0.0
 10
204.5383318580258
 20
127.260509110695
 30
0.0
 10
204.9022819041089
 20
127.7908281632763
 30
0.0
 10
205.2721400246506
 20
128.4186857017189
 30
0.0
 10
205.6020861297604
 20
129.0776059177871
 30
0.0
 10
205.8950269807108
 20
129.7478330645153
 30
0.0
 10
206.1420342482925
 20
130.3724737018977
 30
0.0
 10
206.3870081684731
 20
131.0518608653426
 30
0.0
 10
206.6343744603943
 20
131.8087481525126
 30
0.0
 10
206.8629306418814
 20
132.5793164997601
 30
0.0
 10
207.0596561119884
 20
133.3152538331436
 30
0.0
 10
207.2421989963989
 20
134.0673806611458
 30
0.0
 10
207.4258153362674
 20
134.9038832208046
 30
0.0
 10
207.6245537326125
 20
135.8913290909761
 30
0.0
 10
207.8358633777357
 20
137.0154318516164
 30
0.0
 10
208.0462328463329
 20
138.1887990109119
 30
0.0
 10
208.2388453416944
 20
139.3154659936053
 30
0.0
 10
208.4006787375388
 20
140.3030019879928
 30
0.0
 10
208.5318716732966
 20
141.1308116299974
 30
0.0
 10
208.6425181124925
 20
141.8452123683057
 30
0.0
 10
208.7449274296009
 20
142.5171266567023
 30
0.0
 10
208.8127418255416
 20
142.9714181283733
 30
0.0
 10
208.8477564735812
 20
143.2059827184918
 30
0.0
  0
SPLINE
  5
E2
330
1F
100
AcDbEntity
  8
0
  6
Continuous
 62
     7
370
    15
100
AcDbSpline
210
0.0
220
0.0
230
1.0
 70
     8
 71
     3
 72
    17
 73
    13
 74
     0
 42
0.000000001
 43
0.00000001
 40
0.0
 40
0.0
 40
0.0
 40
0.0
 40
0.1566913055376897
 40
0.2790147502179144
 40
0.3731084506522934
 40
0.4438375329926497
 40
0.4949630333970814
 40
0.5369138764634469
 40
0.6315953059699425
 40
0.7435610918923866
 40
0.874742161728183
 40
1.0
 40
1.0
 40
1.0
 40
1.0
 10
210.1341424223639
 20
143.2064391893229
 30
0.0
 10
210.3773512981359
 20
143.2464239961584
 30
0.0
 10
210.8104248722659
 20
143.317623549021
 30
0.0
 10
211.3291708873032
 20
143.589269943953
 30
0.0
 10
211.6724108605187
 20
143.87771113144
 30
0.0
 10
211.8826491401483
 20
144.1397422504812
 30
0.0
 10
212.0095803815564
 20
144.3540045014189
 30
0.0
 10
212.1164971278338
 20
144.5864996607916
 30
0.0
 10
212.2111130305446
 20
144.8774177165664
 30
0.0
 10
212.2981149624076
 20
145.2729622355612
 30
0.0
 10
212.3728869494654
 20
145.7277187796055
 30
0.0
 10
212.4219396853082
 20
146.1058339492061
 30
0.0
 10
212.4458995426417
 20
146.2905246777366
 30
0.0
  0
SPLINE
  5
E3
330
1F
100
AcDbEntity
  8
0
  6
Continuous
 62
     7
370
    15
100
AcDbSpline
210
0.0
220
0.0
230
1.0
 70
     8
 71
     3
 72
    17
 73
    13
 74
     0
 42
0.000000001
 43
0.00000001
 40
0.0
 40
0.0
 40
0.0
 40
0.0
 40
0.1139686669593195
 40
0.2529974377009738
 40
0.5890743553526561
 40
0.7746522617996996
 40
0.8696620554862461
 40
0.9404515827825389
 40
0.9646577678650988
 40
0.9830208251558376
 40
0.9908074981240232
 40
1.0
 40
1.0
 40
1.0
 40
1.0
 10
213.1306058015641
 20
146.3013952883434
 30
0.0
 10
213.1818776727205
 20
146.3504810059795
 30
0.0
 10
213.2956953769615
 20
146.4594456988287
 30
0.0
 10
213.4250431199906
 20
146.7363865679766
 30
0.0
 10
213.4984184266642
 20
147.1127621842927
 30
0.0
 10
213.5451209998263
 20
147.5338102225477
 30
0.0
 10
213.5697234742562
 20
147.781473837524
 30
0.0
 10
213.5827384130237
 20
147.9164931727394
 30
0.0
 10
213.5889623351667
 20
147.9880508617074
 30
0.0
 10
213.5904652755681
 20
148.0130752212932
 30
0.0
 10
213.5905748207881
 20
148.0250990379043
 30
0.0
 10
213.5893819726311
 20
148.02381692883
 30
0.0
 10
213.5887361662817
 20
148.0231227967429
 30
0.0
  0
SPLINE
  5
E4
330
1F
100
AcDbEntity
  8
0
  6
Continuous
 62
     7
370
    15
100
AcDbSpline
210
0.0
220
0.0
230
1.0
 70
     8
 71
     3
 72
    10
 73
     6
 74
     0
 42
0.000000001
 43
0.00000001
 40
0.0
 40
0.0
 40
0.0
 40
0.0
 40
0.0065273659400588
 40
0.3764207150861976
 40
1.0
 40
1.0
 40
1.0
 40
1.0
 10
213.5865373259523
 20
148.0231040167533
 30
0.0
 10
213.5864662368414
 20
148.0231004702545
 30
0.0
 10
213.5823666637169
 20
148.0228959504548
 30
0.0
 10
213.575503841561
 20
148.1002925322597
 30
0.0
 10
213.5742624053314
 20
148.1354370924405
 30
0.0
 10
213.5734831851599
 20
148.1574965019851
 30
0.0
  0
SPLINE
  5
E5
330
1F
100
AcDbEntity
  8
0
  6
Continuous
 62
     7
370
    15
100
AcDbSpline
210
0.0
220
0.0
230
1.0
 70
     8
 71
     3
 72
    25
 73
    21
 74
     0
 42
0.000000001
 43
0.00000001
 40
0.0
 40
0.0
 40
0.0
 40
0.0
 40
0.0009184326214876
 40
0.0164110923257792
 40
0.047824810179585
 40
0.0796915290637478
 40
0.1110668108461548
 40
0.1407474290132616
 40
0.1699245979195809
 40
0.2346821165579396
 40
0.3046230421986208
 40
0.3784118065898177
 40
0.4559582090355088
 40
0.5916196655537503
 40
0.6938503560360495
 40
0.7374435185417014
 40
0.7973359976158998
 40
0.8815496751153823
 40
0.9356371149596563
 40
0.9999999999999999
 40
0.9999999999999999
 40
0.9999999999999999
 40
0.9999999999999999
 10
213.3174005986016
 20
147.4404065468613
 30
0.0
 10
213.3175860549671
 20
147.4401722583303
 30
0.0
 10
213.3208998979915
 20
147.4359858535544
 30
0.0
 10
213.3203193085055
 20
147.4667186583863
 30
0.0
 10
213.3253476779365
 20
147.519490641742
 30
0.0
 10
213.3133686642783
 20
147.6258829260358
 30
0.0
 10
213.3016419050446
 20
147.7526044640022
 30
0.0
 10
213.2881336260182
 20
147.8944132786857
 30
0.0
 10
213.2672884492727
 20
148.1011392693664
 30
0.0
 10
213.2406379714739
 20
148.3792015501614
 30
0.0
 10
213.2049859285112
 20
148.7249808819044
 30
0.0
 10
213.1659301371962
 20
149.0768213455984
 30
0.0
 10
213.1151706167465
 20
149.4904698402138
 30
0.0
 10
213.0542937568745
 20
149.8846996086086
 30
0.0
 10
212.988137184736
 20
150.1611402542167
 30
0.0
 10
212.8986011063874
 20
150.3923885689549
 30
0.0
 10
212.756183456319
 20
150.6372135699571
 30
0.0
 10
212.5394067630559
 20
150.8496100862148
 30
0.0
 10
212.2705965474583
 20
151.0112470628576
 30
0.0
 10
212.0928837150676
 20
151.0634100706729
 30
0.0
 10
211.9963190951521
 20
151.0917541185144
 30
0.0
  0
SPLINE
  5
E6
330
1F
100
AcDbEntity
  8
0
  6
Continuous
 62
     7
370
    15
100
AcDbSpline
210
0.0
220
0.0
230
1.0
 70
     8
 71
     3
 72
    29
 73
    25
 74
     0
 42
0.000000001
 43
0.00000001
 40
0.0
 40
0.0
 40
0.0
 40
0.0
 40
0.0215545707102818
 40
0.0576940767199036
 40
0.0982650661535424
 40
0.1432127841356314
 40
0.1879883365964704
 40
0.2268037939888939
 40
0.2596215371646373
 40
0.2858105918361895
 40
0.30672641236981
 40
0.3304023263521946
 40
0.3897546176646902
 40
0.4593518657457018
 40
0.5327604498940725
 40
0.6095781423007962
 40
0.6739092627004729
 40
0.7253018196467339
 40
0.7773451958119559
 40
0.8106752682062905
 40
0.8578138181311786
 40
0.9205025233210764
 40
0.9581512647031094
 40
0.9999999999999999
 40
0.9999999999999999
 40
0.9999999999999999
 40
0.9999999999999999
 10
211.8587894897911
 20
145.8380028819175
 30
0.0
 10
211.8631234104336
 20
145.8411092909298
 30
0.0
 10
211.8747238061643
 20
145.8494240656608
 30
0.0
 10
211.8415510559323
 20
146.055581490538
 30
0.0
 10
211.7872582661648
 20
146.4402351370049
 30
0.0
 10
211.714329075469
 20
147.0038612980666
 30
0.0
 10
211.6410708516488
 20
147.6285989580261
 30
0.0
 10
211.5740272115821
 20
148.2168307871655
 30
0.0
 10
211.5170552247043
 20
148.7119931329159
 30
0.0
 10
211.4700618366203
 20
149.1071563235699
 30
0.0
 10
211.4288449144865
 20
149.4450835208615
 30
0.0
 10
211.3678347893071
 20
149.9123386265989
 30
0.0
 10
211.2751614985587
 20
150.4991805411193
 30
0.0
 10
211.1497894667877
 20
151.2221196609062
 30
0.0
 10
210.9960336496012
 20
151.9521892945425
 30
0.0
 10
210.8213470108175
 20
152.5687895932215
 30
0.0
 10
210.6170329495959
 20
153.0917821814527
 30
0.0
 10
210.3343756622064
 20
153.6006464403044
 30
0.0
 10
209.9788200107068
 20
154.0429580330557
 30
0.0
 10
209.5221470239552
 20
154.4412213097596
 30
0.0
 10
208.9479212583291
 20
154.7970070979499
 30
0.0
 10
208.2891128686249
 20
155.0436373528892
 30
0.0
 10
207.6252885980898
 20
155.1876125203148
 30
0.0
 10
207.2450119808189
 20
155.2140983126094
 30
0.0
 10
207.0448283251786
 20
155.2280408546518
 30
0.0
  0
LINE
  5
E7
330
1F
100
AcDbEntity
  8
0
  6
Continuous
 62
     7
370
    15
100
AcDbLine
 10
187.1498103469
 20
143.207344565
 30
0.0
 11
192.6685419059
 21
143.2068393238
 31
0.0
  0
LINE
  5
E8
330
1F
100
AcDbEntity
  8
0
  6
Continuous
 62
     7
370
    15
100
AcDbLine
 10
204.6685419059
 20
143.2061096761
 30
0.0
 11
210.124333046
 21
143.2059439382
 31
0.0
  0
LINE
  5
E9
330
1F
100
AcDbEntity
  8
0
  6
Continuous
 62
     7
370
    15
100
AcDbLine
 10
184.2243232488
 20
146.2907453189
 30
0.0
 11
185.5220416629
 21
146.2907302505
 31
0.0
  0
LINE
  5
EA
330
1F
100
AcDbEntity
  8
0
  6
Continuous
 62
     7
370
    15
100
AcDbLine
 10
211.8093311512
 20
146.2905271248
 30
0.0
 11
213.1027065942
 21
146.2905221529
 31
0.0
  0
LINE
  5
EB
330
1F
100
AcDbEntity
  8
0
  6
Continuous
 62
     7
370
    15
100
AcDbLine
 10
211.9796458801
 20
151.0939594224
 30
0.0
 11
211.1681095552
 21
151.0939492806
 31
0.0
  0
LINE
  5
EC
330
1F
100
AcDbEntity
  8
0
  6
Continuous
 62
     7
370
    15
100
AcDbLine
 10
186.1769247899
 20
151.0933235213
 30
0.0
 11
185.3274385683
 21
151.0932915641
 31
0.0
  0
LINE
  5
ED
330
1F
100
AcDbEntity
  8
0
  6
Continuous
 62
     7
370
    15
100
AcDbLine
 10
207.0347593147
 20
155.2281488383
 30
0.0
 11
204.6685419059
 21
155.2279656683
 31
0.0
  0
LINE
  5
EE
330
1F
100
AcDbEntity
  8
0
  6
Continuous
 62
     7
370
    15
100
AcDbLine
 10
192.6685419059
 20
155.226109337
 30
0.0
 11
190.184428465
 21
155.2255292728
 31
0.0
  0
SPLINE
  5
EF
330
1F
100
AcDbEntity
  8
0
  6
Continuous
 62
     7
370
    15
100
AcDbSpline
210
0.0
220
0.0
230
1.0
 70
    24
 71
     3
 72
    13
 73
     9
 74
     0
 42
0.000000001
 43
0.00000001
 40
0.0
 40
0.0
 40
0.0
 40
0.0
 40
0.1666913667623995
 40
0.3333545117368869
 40
0.500055548397813
 40
0.666638882168721
 40
0.833256413962346
 40
1.0
 40
1.0
 40
1.0
 40
1.0
 10
192.6685419058553
 20
182.992534616139
 30
0.0
 10
192.6685419058553
 20
182.9631516860641
 30
0.0
 10
192.6685419058553
 20
182.9043908006101
 30
0.0
 10
192.6685419058553
 20
182.6881531296957
 30
0.0
 10
192.6685419058553
 20
182.2585091301996
 30
0.0
 10
192.6685419058553
 20
181.6109674061862
 30
0.0
 10
192.6685419058553
 20
180.7946746221435
 30
0.0
 10
192.6685419058553
 20
180.197782320874
 30
0.0
 10
192.6685419058553
 20
179.8992233184342
 30
0.0
  0
SPLINE
  5
F0
330
1F
100
AcDbEntity
  8
0
  6
Continuous
 62
     7
370
    15
100
AcDbSpline
210
0.0
220
0.0
230
1.0
 70
    24
 71
     3
 72
    13
 73
     9
 74
     0
 42
0.000000001
 43
0.00000001
 40
0.0
 40
0.0
 40
0.0
 40
0.0
 40
0.1667435860376537
 40
0.3333611178312789
 40
0.4999444516021869
 40
0.6666454882631131
 40
0.8333086332376002
 40
1.0
 40
1.0
 40
1.0
 40
1.0
 10
204.6685419058553
 20
179.8992233184342
 30
0.0
 10
204.6685419058553
 20
180.197782320874
 30
0.0
 10
204.6685419058553
 20
180.7946746221434
 30
0.0
 10
204.6685419058553
 20
181.6109674061863
 30
0.0
 10
204.6685419058553
 20
182.2585091301997
 30
0.0
 10
204.6685419058553
 20
182.6881531296957
 30
0.0
 10
204.6685419058553
 20
182.9043908006101
 30
0.0
 10
204.6685419058553
 20
182.9631516860641
 30
0.0
 10
204.6685419058553
 20
182.992534616139
 30
0.0
  0
SPLINE
  5
F1
330
1F
100
AcDbEntity
  8
0
  6
Continuous
 62
     7
370
    15
100
AcDbSpline
210
0.0
220
0.0
230
1.0
 70
     8
 71
     3
 72
    34
 73
    30
 74
     0
 42
0.000000001
 43
0.00000001
 40
0.0
 40
0.0
 40
0.0
 40
0.0
 40
0.0625
 40
0.0625
 40
0.125
 40
0.125
 40
0.1875
 40
0.1875
 40
0.25
 40
0.25
 40
0.3125
 40
0.3125
 40
0.375
 40
0.375
 40
0.5
 40
0.5
 40
0.625
 40
0.625
 40
0.6875
 40
0.6875
 40
0.75
 40
0.75
 40
0.8125
 40
0.8125
 40
0.875
 40
0.875
 40
0.9375
 40
0.9375
 40
1.0
 40
1.0
 40
1.0
 40
1.0
 10
192.6685419058553
 20
155.8377149525378
 30
0.0
 10
192.6685419058553
 20
155.9408061882909
 30
0.0
 10
192.7319738585181
 20
156.0438486234591
 30
0.0
 10
192.9743407224234
 20
156.2406125820658
 30
0.0
 10
193.1529709715993
 20
156.3342651261307
 30
0.0
 10
193.5958775459937
 20
156.5054893239214
 30
0.0
 10
193.8597597703703
 20
156.5830516256653
 30
0.0
 10
194.4362281509295
 20
156.7192427121172
 30
0.0
 10
194.7485419058553
 20
156.7779070226063
 30
0.0
 10
195.3885419058553
 20
156.8768746089293
 30
0.0
 10
195.7161369064866
 20
156.9172250470091
 30
0.0
 10
196.362519938932
 20
156.9821955619541
 30
0.0
 10
196.6813419058553
 20
157.0068520389669
 30
0.0
 10
197.6029419058553
 20
157.0622738873077
 30
0.0
 10
198.1685419058553
 20
157.0748097815753
 30
0.0
 10
199.1685419058553
 20
157.0748097815753
 30
0.0
 10
199.7341419058554
 20
157.0622738873077
 30
0.0
 10
200.6557419058553
 20
157.0068520389669
 30
0.0
 10
200.9745638727787
 20
156.9821955619541
 30
0.0
 10
201.6209469052241
 20
156.9172250470091
 30
0.0
 10
201.9485419058553
 20
156.8768746089293
 30
0.0
 10
202.5885419058554
 20
156.7779070226063
 30
0.0
 10
202.9008556607812
 20
156.7192427121172
 30
0.0
 10
203.4773240413404
 20
156.5830516256653
 30
0.0
 10
203.7412062657169
 20
156.5054893239214
 30
0.0
 10
204.1841128401114
 20
156.3342651261307
 30
0.0
 10
204.3627430892873
 20
156.2406125820658
 30
0.0
 10
204.6051099531926
 20
156.0438486234591
 30
0.0
 10
204.6685419058553
 20
155.9408061882909
 30
0.0
 10
204.6685419058553
 20
155.8377149525378
 30
0.0
  0
SPLINE
  5
F2
330
1F
100
AcDbEntity
  8
0
  6
Continuous
 62
     7
370
    15
100
AcDbSpline
210
0.0
220
0.0
230
1.0
 70
     8
 71
     3
 72
    34
 73
    30
 74
     0
 42
0.000000001
 43
0.00000001
 40
0.0
 40
0.0
 40
0.0
 40
0.0
 40
0.0625
 40
0.0625
 40
0.1250000000000001
 40
0.1250000000000001
 40
0.1875000000000001
 40
0.1875000000000001
 40
0.2500000000000001
 40
0.2500000000000001
 40
0.3125000000000001
 40
0.3125000000000001
 40
0.3750000000000001
 40
0.3750000000000001
 40
0.5000000000000002
 40
0.5000000000000002
 40
0.6250000000000006
 40
0.6250000000000006
 40
0.6875000000000004
 40
0.6875000000000004
 40
0.7500000000000003
 40
0.7500000000000003
 40
0.8125000000000002
 40
0.8125000000000002
 40
0.8750000000000001
 40
0.8750000000000001
 40
0.9375000000000001
 40
0.9375000000000001
 40
1.0
 40
1.0
 40
1.0
 40
1.0
 10
192.6685419058553
 20
179.8992233184342
 30
0.0
 10
192.6685419058553
 20
180.3796807264232
 30
0.0
 10
192.7319738585181
 20
180.8599106989528
 30
0.0
 10
192.9743407224234
 20
181.7769304712659
 30
0.0
 10
193.1529709715993
 20
182.2133987922081
 30
0.0
 10
193.5958775459937
 20
183.0113903348887
 30
0.0
 10
193.8597597703703
 20
183.3728699716523
 30
0.0
 10
194.4362281509295
 20
184.0075894597819
 30
0.0
 10
194.7485419058553
 20
184.2809948792936
 30
0.0
 10
195.3885419058553
 20
184.7422339909631
 30
0.0
 10
195.7161369064866
 20
184.9302874830899
 30
0.0
 10
196.362519938932
 20
185.2330830115182
 30
0.0
 10
196.6813419058553
 20
185.3479946909555
 30
0.0
 10
197.6029419058553
 20
185.6062885934904
 30
0.0
 10
198.1685419058553
 20
185.6647122143019
 30
0.0
 10
199.1685419058553
 20
185.6647122143019
 30
0.0
 10
199.7341419058554
 20
185.6062885934904
 30
0.0
 10
200.6557419058553
 20
185.3479946909555
 30
0.0
 10
200.9745638727787
 20
185.2330830115182
 30
0.0
 10
201.6209469052241
 20
184.9302874830898
 30
0.0
 10
201.9485419058553
 20
184.7422339909631
 30
0.0
 10
202.5885419058554
 20
184.2809948792937
 30
0.0
 10
202.9008556607812
 20
184.0075894597818
 30
0.0
 10
203.4773240413404
 20
183.3728699716523
 30
0.0
 10
203.7412062657169
 20
183.0113903348887
 30
0.0
 10
204.1841128401114
 20
182.2133987922081
 30
0.0
 10
204.3627430892873
 20
181.7769304712659
 30
0.0
 10
204.6051099531926
 20
180.8599106989528
 30
0.0
 10
204.6685419058553
 20
180.3796807264232
 30
0.0
 10
204.6685419058553
 20
179.8992233184342
 30
0.0
  0
SPLINE
  5
F3
330
1F
100
AcDbEntity
  8
0
  6
Continuous
 62
     7
370
    15
100
AcDbSpline
210
0.0
220
0.0
230
1.0
 70
     8
 71
     3
 72
    11
 73
     7
 74
     0
 42
0.000000001
 43
0.00000001
 40
0.0
 40
0.0
 40
0.0
 40
0.0
 40
0.3497243985102316
 40
0.6745193608016626
 40
0.8754434338316277
 40
1.0
 40
1.0
 40
1.0
 40
1.0
 10
183.6685419058553
 20
148.3450638219498
 30
0.0
 10
183.7072057640723
 20
148.2695303058484
 30
0.0
 10
183.7817774011719
 20
148.1238475361679
 30
0.0
 10
183.886645882237
 20
147.9113563006968
 30
0.0
 10
183.9728473756638
 20
147.7890874867152
 30
0.0
 10
184.0143652494018
 20
147.7497367680543
 30
0.0
 10
184.0302535179027
 20
147.7346778373458
 30
0.0
  0
LINE
  5
F4
330
1F
100
AcDbEntity
  8
0
  6
Continuous
 62
     7
370
    15
100
AcDbLine
 10
184.1948099422
 20
146.3156229521
 30
0.0
 11
184.2068441075
 21
146.2950029113
 31
0.0
  0
SPLINE
  5
F5
330
1F
100
AcDbEntity
  8
0
  6
Continuous
 62
     7
370
    15
100
AcDbSpline
210
0.0
220
0.0
230
1.0
 70
     8
 71
     3
 72
    20
 73
    16
 74
     0
 42
0.000000001
 43
0.00000001
 40
0.0
 40
0.0
 40
0.0
 40
0.0
 40
0.0579603295580392
 40
0.1360807333530804
 40
0.2152028019304066
 40
0.2935333717019514
 40
0.3749363436489696
 40
0.448470705827305
 40
0.5179537693804399
 40
0.5915390952700248
 40
0.6660650544264205
 40
0.7692932415485854
 40
0.873155768621133
 40
0.9763426345772517
 40
1.0
 40
1.0
 40
1.0
 40
1.0
 10
184.2245782048109
 20
146.3065605611237
 30
0.0
 10
184.2443195427052
 20
146.311020044506
 30
0.0
 10
184.2906687570474
 20
146.3214901328175
 30
0.0
 10
184.3602127813913
 20
146.5554429636412
 30
0.0
 10
184.4342825738972
 20
146.9589322798642
 30
0.0
 10
184.5150099388325
 20
147.485278360015
 30
0.0
 10
184.5787657675532
 20
148.064245017251
 30
0.0
 10
184.6710839329113
 20
148.6157194853754
 30
0.0
 10
184.7635033746754
 20
149.1250661493914
 30
0.0
 10
184.8470067999502
 20
149.616760045997
 30
0.0
 10
184.946307247245
 20
150.1212266434765
 30
0.0
 10
185.0503440221846
 20
150.5961650811591
 30
0.0
 10
185.1649603395814
 20
150.9289141772921
 30
0.0
 10
185.2518820417001
 20
151.0924934779967
 30
0.0
 10
185.2983985034342
 20
151.0744060817816
 30
0.0
 10
185.3070741595635
 20
151.0710326517316
 30
0.0
  0
SPLINE
  5
F6
330
1F
100
AcDbEntity
  8
0
  6
Continuous
 62
     7
370
    15
100
AcDbSpline
210
0.0
220
0.0
230
1.0
 70
     8
 71
     3
 72
    26
 73
    22
 74
     0
 42
0.000000001
 43
0.00000001
 40
0.0
 40
0.0
 40
0.0
 40
0.0
 40
0.0240912558796423
 40
0.0691826243358619
 40
0.1298171416011384
 40
0.1906992466146001
 40
0.2529499186588526
 40
0.3153505368654249
 40
0.362455288643831
 40
0.4104346531719113
 40
0.458188547652789
 40
0.5104250021145844
 40
0.5552586169543374
 40
0.5931863709533983
 40
0.6307275325866128
 40
0.6689904642719166
 40
0.7459689415603322
 40
0.8233485159885496
 40
0.9013619961585322
 40
0.9804282556160273
 40
0.9999999999999999
 40
0.9999999999999999
 40
0.9999999999999999
 40
0.9999999999999999
 10
187.1499891414704
 20
143.2276963848767
 30
0.0
 10
187.17344400918
 20
143.2245376228379
 30
0.0
 10
187.2407991238203
 20
143.2154666367262
 30
0.0
 10
187.3638211199217
 20
143.4054184424339
 30
0.0
 10
187.5209533516813
 20
143.8520243926103
 30
0.0
 10
187.6949537241467
 20
144.6166848143365
 30
0.0
 10
187.86377369615
 20
145.6062088228544
 30
0.0
 10
188.0209447987237
 20
146.6716303549093
 30
0.0
 10
188.164935675795
 20
147.710148785202
 30
0.0
 10
188.2884847487895
 20
148.6717684867554
 30
0.0
 10
188.4280781029641
 20
149.6546157338871
 30
0.0
 10
188.5299512519996
 20
150.5611759889845
 30
0.0
 10
188.6552598852523
 20
151.3425268217775
 30
0.0
 10
188.7993908214117
 20
151.9389898652381
 30
0.0
 10
188.931031607543
 20
152.4798807846664
 30
0.0
 10
189.1026337459483
 20
153.1755777992845
 30
0.0
 10
189.3197544474812
 20
153.9137461733704
 30
0.0
 10
189.5802683091147
 20
154.592568338658
 30
0.0
 10
189.8406992690107
 20
155.0313791275189
 30
0.0
 10
190.0342838469056
 20
155.2345520182579
 30
0.0
 10
190.1411556726254
 20
155.2064659164649
 30
0.0
 10
190.1623611712504
 20
155.2008930745213
 30
0.0
  0
LINE
  5
F7
330
1F
100
AcDbEntity
  8
0
  6
Continuous
 62
     7
370
    15
100
AcDbLine
 10
183.6685419059
 20
149.0501222336
 30
0.0
 11
183.6685419059
 21
148.3450638219
 31
0.0
  0
SPLINE
  5
F8
330
1F
100
AcDbEntity
  8
0
  6
Continuous
 62
     7
370
    15
100
AcDbSpline
210
0.0
220
0.0
230
1.0
 70
     8
 71
     3
 72
    11
 73
     7
 74
     0
 42
0.000000001
 43
0.00000001
 40
0.0
 40
0.0
 40
0.0
 40
0.0
 40
0.1449611474440095
 40
0.3410867518803235
 40
0.6582913827747949
 40
1.0
 40
1.0
 40
1.0
 40
1.0
 10
213.3042089500123
 20
147.7252890902195
 30
0.0
 10
213.3228025473159
 20
147.7431186922392
 30
0.0
 10
213.3665524059636
 20
147.7850709059701
 30
0.0
 10
213.4543196364569
 20
147.911133538507
 30
0.0
 10
213.5573469620548
 20
148.1240179231057
 30
0.0
 10
213.630569249246
 20
148.2695774758551
 30
0.0
 10
213.6685419058553
 20
148.3450638219498
 30
0.0
  0
LINE
  5
F9
330
1F
100
AcDbEntity
  8
0
  6
Continuous
 62
     7
370
    15
100
AcDbLine
 10
183.6685419059
 20
148.3450638219
 30
0.0
 11
184.0931755936
 21
148.3450638219
 31
0.0
  0
LINE
  5
FA
330
1F
100
AcDbEntity
  8
0
  6
Continuous
 62
     7
370
    15
100
AcDbLine
 10
213.2435900029
 20
148.3450638219
 30
0.0
 11
213.6685419059
 21
148.3450638219
 31
0.0
  0
LINE
  5
FB
330
1F
100
AcDbEntity
  8
0
  6
Continuous
 62
     7
370
    15
100
AcDbLine
 10
213.131523013
 20
146.313319465
 30
0.0
 11
213.1205160851
 21
146.2947874798
 31
0.0
  0
SPLINE
  5
FC
330
1F
100
AcDbEntity
  8
0
  6
Continuous
 62
     7
370
    15
100
AcDbSpline
210
0.0
220
0.0
230
1.0
 70
     8
 71
     3
 72
    20
 73
    16
 74
     0
 42
0.000000001
 43
0.00000001
 40
0.0
 40
0.0
 40
0.0
 40
0.0
 40
0.057782116495087
 40
0.1356898266199247
 40
0.2145968595006553
 40
0.2927156961143452
 40
0.3738981347664427
 40
0.4472416554173435
 40
0.5165475752060428
 40
0.5899430415176659
 40
0.6642769221525662
 40
0.7672377607156391
 40
0.8708314901677872
 40
0.9737522644836433
 40
1.0
 40
1.0
 40
1.0
 40
1.0
 10
213.102440188806
 20
146.3063528044625
 30
0.0
 10
213.082349508155
 20
146.3108041742636
 30
0.0
 10
213.035170534113
 20
146.3212573323195
 30
0.0
 10
212.964376961107
 20
146.5552023748423
 30
0.0
 10
212.8889683491702
 20
146.9587397997792
 30
0.0
 10
212.8067848788285
 20
147.485141429216
 30
0.0
 10
212.7418707911811
 20
148.0642793994388
 30
0.0
 10
212.6478881318636
 20
148.6157966066586
 30
0.0
 10
212.5538035040196
 20
149.1251919992815
 30
0.0
 10
212.4687893716319
 20
149.6169861100079
 30
0.0
 10
212.3676963415911
 20
150.1215761737694
 30
0.0
 10
212.2617808148245
 20
150.5965028683566
 30
0.0
 10
212.1450869886613
 20
150.9299243974268
 30
0.0
 10
212.0555949836546
 20
151.0938880389842
 30
0.0
 10
212.0072530281098
 20
151.0748427070746
 30
0.0
 10
211.997429682891
 20
151.0709725932564
 30
0.0
  0
SPLINE
  5
FD
330
1F
100
AcDbEntity
  8
0
  6
Continuous
 62
     7
370
    15
100
AcDbSpline
210
0.0
220
0.0
230
1.0
 70
     8
 71
     3
 72
    26
 73
    22
 74
     0
 42
0.000000001
 43
0.00000001
 40
0.0
 40
0.0
 40
0.0
 40
0.0
 40
0.0239823271392473
 40
0.0689097972220912
 40
0.1293240390597618
 40
0.1899851163447494
 40
0.2520097161342252
 40
0.3141838812733899
 40
0.3611177236264146
 40
0.4089229568779001
 40
0.4565036832740528
 40
0.508550226994809
 40
0.5532218838195323
 40
0.5910145942724916
 40
0.6284223012838965
 40
0.6665490116644683
 40
0.7432534185162927
 40
0.8203574657951962
 40
0.898093104947856
 40
0.9768775671362689
 40
1.0
 40
1.0
 40
1.0
 40
1.0
 10
210.1241439068157
 20
143.2263052977616
 30
0.0
 10
210.1002866963903
 20
143.2231408097721
 30
0.0
 10
210.0317364042043
 20
143.2140481047813
 30
0.0
 10
209.9065129454264
 20
143.4039920289266
 30
0.0
 10
209.74654216587
 20
143.8506678874882
 30
0.0
 10
209.5693992126023
 20
144.615507105904
 30
0.0
 10
209.3975292766065
 20
145.6053198093578
 30
0.0
 10
209.2375193341771
 20
146.6710719368086
 30
0.0
 10
209.0909276840007
 20
147.7099284837159
 30
0.0
 10
208.9651464054461
 20
148.671904745536
 30
0.0
 10
208.8230326788458
 20
149.6550778164647
 30
0.0
 10
208.7193174625681
 20
150.5620866775286
 30
0.0
 10
208.5917422185091
 20
151.3437467281536
 30
0.0
 10
208.4450117444499
 20
151.9403299198296
 30
0.0
 10
208.310993630302
 20
152.4813702250114
 30
0.0
 10
208.136291373643
 20
153.1772791182962
 30
0.0
 10
207.9152482021487
 20
153.9157695957201
 30
0.0
 10
207.6500313360024
 20
154.5945300105271
 30
0.0
 10
207.3848858360518
 20
155.0347588645039
 30
0.0
 10
207.1837811088073
 20
155.2387655750095
 30
0.0
 10
207.0709826842947
 20
155.2083375587279
 30
0.0
 10
207.0453889892204
 20
155.2014335139791
 30
0.0
  0
LINE
  5
FE
330
1F
100
AcDbEntity
  8
0
  6
Continuous
 62
     7
370
    15
100
AcDbLine
 10
213.6685419059
 20
148.3450638219
 30
0.0
 11
213.6685419059
 21
149.0501222336
 31
0.0
  0
LINE
  5
FF
330
1F
100
AcDbEntity
  8
0
  6
Continuous
 62
     7
370
    15
100
AcDbLine
 10
213.6685419059
 20
149.0501222336
 30
0.0
 11
213.1682916366
 21
149.0501222336
 31
0.0
  0
LINE
  5
100
330
1F
100
AcDbEntity
  8
0
  6
Continuous
 62
     7
370
    15
100
AcDbLine
 10
184.168858412
 20
149.0501222336
 30
0.0
 11
183.6685419059
 21
149.0501222336
 31
0.0
  0
ARC
  5
101
330
1F
100
AcDbEntity
  8
0
  6
Continuous
 62
     7
370
    15
100
AcDbCircle
 10
198.6685419059
 20
182.9925346161
 30
0.0
 40
6.000000000000028
100
AcDbArc
 50
359.9970831974
 51
180.0045371218
  0
ARC
  5
102
330
1F
100
AcDbEntity
  8
0
  6
Continuous
 62
     8
370
    15
100
AcDbCircle
 10
198.6685360426
 20
130.4527677824
 30
0.0
 40
6.002096623438264
100
AcDbArc
 50
181.5165811127
 51
358.4876522252
  0
SPLINE
  5
103
330
1F
100
AcDbEntity
  8
0
  6
Continuous
 62
     8
370
    15
100
AcDbSpline
210
0.0
220
0.0
230
1.0
 70
     8
 71
     3
 72
    34
 73
    30
 74
     0
 42
0.000000001
 43
0.00000001
 40
0.0
 40
0.0
 40
0.0
 40
0.0
 40
0.0625
 40
0.0625
 40
0.1250000000000001
 40
0.1250000000000001
 40
0.1875000000000001
 40
0.1875000000000001
 40
0.2500000000000001
 40
0.2500000000000001
 40
0.3125000000000001
 40
0.3125000000000001
 40
0.3750000000000001
 40
0.3750000000000001
 40
0.5
 40
0.5
 40
0.6249999999999999
 40
0.6249999999999999
 40
0.6875
 40
0.6875
 40
0.75
 40
0.75
 40
0.8125
 40
0.8125
 40
0.875
 40
0.875
 40
0.9375000000000001
 40
0.9375000000000001
 40
1.0
 40
1.0
 40
1.0
 40
1.0
 10
192.6685419058553
 20
171.4458311520326
 30
0.0
 10
192.6685419058553
 20
171.8267432216525
 30
0.0
 10
192.7319738585181
 20
172.2074749778665
 30
0.0
 10
192.9743407224234
 20
172.934498629799
 30
0.0
 10
193.1529709715993
 20
173.2805356534541
 30
0.0
 10
193.5958775459937
 20
173.9131923780822
 30
0.0
 10
193.8597597703703
 20
174.1997775243939
 30
0.0
 10
194.4362281509295
 20
174.7029903166859
 30
0.0
 10
194.7485419058553
 20
174.9197492269656
 30
0.0
 10
195.3885419058553
 20
175.2854248138007
 30
0.0
 10
195.7161369064866
 20
175.4345157502587
 30
0.0
 10
196.362519938932
 20
175.6745754714482
 30
0.0
 10
196.6813419058553
 20
175.7656787511774
 30
0.0
 10
197.6029419058553
 20
175.970457079805
 30
0.0
 10
198.1685419058553
 20
176.0167759874708
 30
0.0
 10
199.1685419058553
 20
176.0167759874708
 30
0.0
 10
199.7341419058554
 20
175.970457079805
 30
0.0
 10
200.6557419058553
 20
175.7656787511774
 30
0.0
 10
200.9745638727787
 20
175.6745754714482
 30
0.0
 10
201.6209469052241
 20
175.4345157502587
 30
0.0
 10
201.9485419058553
 20
175.2854248138007
 30
0.0
 10
202.5885419058554
 20
174.9197492269656
 30
0.0
 10
202.9008556607812
 20
174.7029903166859
 30
0.0
 10
203.4773240413404
 20
174.1997775243939
 30
0.0
 10
203.7412062657169
 20
173.9131923780823
 30
0.0
 10
204.1841128401114
 20
173.2805356534541
 30
0.0
 10
204.3627430892873
 20
172.934498629799
 30
0.0
 10
204.6051099531926
 20
172.2074749778665
 30
0.0
 10
204.6685419058553
 20
171.8267432216524
 30
0.0
 10
204.6685419058553
 20
171.4458311520326
 30
0.0
  0
SPLINE
  5
104
330
1F
100
AcDbEntity
  8
0
  6
Continuous
 62
     7
370
    15
100
AcDbSpline
210
0.0
220
0.0
230
1.0
 70
     8
 71
     3
 72
    13
 73
     9
 74
     0
 42
0.000000001
 43
0.00000001
 40
0.0
 40
0.0
 40
0.0
 40
0.0
 40
0.1669969159823577
 40
0.3326634490823825
 40
0.4997641737065603
 40
0.6670795512851854
 40
0.833248146748617
 40
1.0
 40
1.0
 40
1.0
 40
1.0
 10
256.3582529405166
 20
85.85202936951055
 30
0.0
 10
257.0991295870352
 20
85.41485755564956
 30
0.0
 10
258.5749806776116
 20
84.54399666229058
 30
0.0
 10
260.7216383292751
 20
83.065666893059
 30
0.0
 10
262.8131556749831
 20
81.4841318175668
 30
0.0
 10
264.8309523731611
 20
79.7836137750053
 30
0.0
 10
266.7753542220734
 20
77.98902328571963
 30
0.0
 10
267.9897735362551
 20
76.71147519767021
 30
0.0
 10
268.5980469903064
 20
76.07158205766521
 30
0.0
  0
SPLINE
  5
105
330
1F
100
AcDbEntity
  8
0
  6
Continuous
 62
     7
370
    15
100
AcDbSpline
210
0.0
220
0.0
230
1.0
 70
     8
 71
     3
 72
    19
 73
    15
 74
     0
 42
0.000000001
 43
0.00000001
 40
0.0
 40
0.0
 40
0.0
 40
0.0
 40
0.0892939905003699
 40
0.1697799816112942
 40
0.2493008630451933
 40
0.3318905269726559
 40
0.4163468865119188
 40
0.5011608767857468
 40
0.5852728169774883
 40
0.6678424938454202
 40
0.7480584248184261
 40
0.8272000175202221
 40
0.9096440809257715
 40
1.0
 40
1.0
 40
1.0
 40
1.0
 10
277.4625802166771
 20
84.16006532533845
 30
0.0
 10
277.0608774684161
 20
84.59068946717404
 30
0.0
 10
276.2970961116775
 20
85.4094607917899
 30
0.0
 10
275.1330168307469
 20
86.57202111086221
 30
0.0
 10
273.9713781576268
 20
87.67257030755735
 30
0.0
 10
272.7671930336924
 20
88.76425506177804
 30
0.0
 10
271.5121629292349
 20
89.8485186495211
 30
0.0
 10
270.2223054339936
 20
90.90242701005306
 30
0.0
 10
268.9176947195375
 20
91.91198162691964
 30
0.0
 10
267.616399163098
 20
92.86927581303888
 30
0.0
 10
266.3238599893128
 20
93.77618137063581
 30
0.0
 10
265.013677920015
 20
94.64670669402048
 30
0.0
 10
263.6287743948321
 20
95.5105208804525
 30
0.0
 10
262.6649610512656
 20
96.06617249232822
 30
0.0
 10
262.1609897011288
 20
96.35671888796793
 30
0.0
  0
SPLINE
  5
106
330
1F
100
AcDbEntity
  8
0
  6
Continuous
 62
     7
370
    15
100
AcDbSpline
210
0.0
220
0.0
230
1.0
 70
     8
 71
     3
 72
    28
 73
    24
 74
     0
 42
0.000000001
 43
0.00000001
 40
0.0
 40
0.0
 40
0.0
 40
0.0
 40
0.0706153889242415
 40
0.1273584354680484
 40
0.1747180330784686
 40
0.2163751777282824
 40
0.2552626722930226
 40
0.2936238347415444
 40
0.3323480439222085
 40
0.370901989827971
 40
0.4690893507022238
 40
0.55564969818155
 40
0.6272068315606754
 40
0.6745817414831959
 40
0.7103869733760829
 40
0.7446649555776311
 40
0.786430953046317
 40
0.8105350785513655
 40
0.8366746961363302
 40
0.8661421646419429
 40
0.901003336921705
 40
0.9442580732452597
 40
1.0
 40
1.0
 40
1.0
 40
1.0
 10
268.5980148370254
 20
76.07161830087948
 30
0.0
 10
268.8461648165199
 20
75.79459113758912
 30
0.0
 10
269.2937158904617
 20
75.29495859804933
 30
0.0
 10
269.8880243983656
 20
74.59426976701052
 30
0.0
 10
270.3666492320068
 20
73.9979171220315
 30
0.0
 10
270.7697419210658
 20
73.46419972794723
 30
0.0
 10
271.1308905793443
 20
72.96053639898545
 30
0.0
 10
271.4749868299879
 20
72.46504209420763
 30
0.0
 10
271.8134391315129
 20
71.96852672074448
 30
0.0
 10
272.3176312772001
 20
71.21056679714812
 30
0.0
 10
272.9360523952921
 20
70.23502940877309
 30
0.0
 10
273.5971883588689
 20
69.09631168401441
 30
0.0
 10
274.081050773979
 20
68.16929150400786
 30
0.0
 10
274.4242598825495
 20
67.4670431315019
 30
0.0
 10
274.6758384960917
 20
66.93249861316811
 30
0.0
 10
274.9081532743093
 20
66.42530074113206
 30
0.0
 10
275.110548505593
 20
65.97347583381084
 30
0.0
 10
275.2937371447761
 20
65.55999268594984
 30
0.0
 10
275.4474548169261
 20
65.20199491561162
 30
0.0
 10
275.6124022686024
 20
64.79477208334669
 30
0.0
 10
275.7934334935555
 20
64.30825095413505
 30
0.0
 10
275.9995823048862
 20
63.69964209110858
 30
0.0
 10
276.1363218423511
 20
63.24654607532898
 30
0.0
 10
276.2133156019873
 20
62.99142187074366
 30
0.0
  0
SPLINE
  5
107
330
1F
100
AcDbEntity
  8
0
  6
Continuous
 62
     7
370
    15
100
AcDbSpline
210
0.0
220
0.0
230
1.0
 70
     8
 71
     3
 72
    25
 73
    21
 74
     0
 42
0.000000001
 43
0.00000001
 40
0.0
 40
0.0
 40
0.0
 40
0.0
 40
0.0565911323942836
 40
0.1055843994096765
 40
0.1470585101019853
 40
0.1810357802393358
 40
0.2075198631739742
 40
0.2265123148713772
 40
0.2403073546918732
 40
0.256261988301525
 40
0.2781787243693526
 40
0.3060463979192966
 40
0.3398477732005251
 40
0.3983762600754968
 40
0.468857049017165
 40
0.5512045949043657
 40
0.6454663070538776
 40
0.7518594845405449
 40
0.8704179238898557
 40
1.0
 40
1.0
 40
1.0
 40
1.0
 10
287.9681664655591
 20
65.55744150563086
 30
0.0
 10
287.8549147297769
 20
65.9328551757178
 30
0.0
 10
287.643616316072
 20
66.63327987494709
 30
0.0
 10
287.3223473215861
 20
67.60685447596741
 30
0.0
 10
287.0344601296096
 20
68.428968593188
 30
0.0
 10
286.7858473405903
 20
69.10072490187574
 30
0.0
 10
286.583819767423
 20
69.62312100732407
 30
0.0
 10
286.4282914901994
 20
70.01194657386743
 30
0.0
 10
286.297364474158
 20
70.33143510232793
 30
0.0
 10
286.1562460016294
 20
70.66852954043226
 30
0.0
 10
285.9724924288241
 20
71.09603913636194
 30
0.0
 10
285.7317674825216
 20
71.63763670485254
 30
0.0
 10
285.373083762061
 20
72.4131394260103
 30
0.0
 10
284.8622650541685
 20
73.45675481282734
 30
0.0
 10
284.1557226288162
 20
74.79821065976188
 30
0.0
 10
283.2715724982553
 20
76.34577028486925
 30
0.0
 10
282.1837479254485
 20
78.08703232350699
 30
0.0
 10
280.860937943972
 20
80.00271884625231
 30
0.0
 10
279.288844008445
 20
82.07084866615958
 30
0.0
 10
278.089122121969
 20
83.44331172999443
 30
0.0
 10
277.4626123699582
 20
84.16002908212417
 30
0.0
  0
SPLINE
  5
108
330
1F
100
AcDbEntity
  8
0
  6
Continuous
 62
     7
370
    15
100
AcDbSpline
210
0.0
220
0.0
230
1.0
 70
     8
 71
     3
 72
    24
 73
    20
 74
     0
 42
0.000000001
 43
0.00000001
 40
0.0
 40
0.0
 40
0.0
 40
0.0
 40
0.1107478783341248
 40
0.2093800529078555
 40
0.2958966270861833
 40
0.3702993055169316
 40
0.4325490186171774
 40
0.4826204061184783
 40
0.5205021240278103
 40
0.5461904074947715
 40
0.5579614417481826
 40
0.5703015280576658
 40
0.5918186943367898
 40
0.6225147001122696
 40
0.6623943821474323
 40
0.7251740687906355
 40
0.80234927472669
 40
0.8939525408997769
 40
1.0
 40
1.0
 40
1.0
 40
1.0
 10
237.1635581990964
 20
93.54362166288124
 30
0.0
 10
237.8790236239005
 20
93.33342092538886
 30
0.0
 10
239.2316832933459
 20
92.93601519446696
 30
0.0
 10
241.1429149319669
 20
92.35075451324072
 30
0.0
 10
242.8181680738702
 20
91.80198536819475
 30
0.0
 10
244.2563800780383
 20
91.29472046530758
 30
0.0
 10
245.4574834070643
 20
90.84563400284856
 30
0.0
 10
246.4218257928853
 20
90.46781988230407
 30
0.0
 10
247.1500402746525
 20
90.17217411229552
 30
0.0
 10
247.6322314436584
 20
89.9713890842301
 30
0.0
 10
247.9503071849561
 20
89.83697506276681
 30
0.0
 10
248.2421573699702
 20
89.71247430969225
 30
0.0
 10
248.6553206478177
 20
89.53394993243626
 30
0.0
 10
249.2441393477121
 20
89.27477246467235
 30
0.0
 10
250.0955768861601
 20
88.89138322753097
 30
0.0
 10
251.2412170589814
 20
88.3603838497846
 30
0.0
 10
252.7122951576882
 20
87.6569041694801
 30
0.0
 10
254.4537027255074
 20
86.80186916459168
 30
0.0
 10
255.7039760062416
 20
86.17795726177218
 30
0.0
 10
256.3747972461809
 20
85.84320376210805
 30
0.0
  0
SPLINE
  5
109
330
1F
100
AcDbEntity
  8
0
  6
Continuous
 62
     7
370
    15
100
AcDbSpline
210
0.0
220
0.0
230
1.0
 70
     8
 71
     3
 72
    24
 73
    20
 74
     0
 42
0.000000001
 43
0.00000001
 40
0.0
 40
0.0
 40
0.0
 40
0.0
 40
0.0828979390269654
 40
0.1556054660160848
 40
0.2181162988215032
 40
0.2704329239223899
 40
0.3125601857676977
 40
0.3440202013306198
 40
0.3656549510798124
 40
0.3840926351771864
 40
0.4100685785650877
 40
0.4489254636505923
 40
0.4977333389641266
 40
0.5565052528421279
 40
0.6252484559141192
 40
0.7039595479381731
 40
0.7926281333858085
 40
0.8912951134953843
 40
1.0
 40
1.0
 40
1.0
 40
1.0
 10
262.1448610196194
 20
96.36533652308118
 30
0.0
 10
261.553560919046
 20
96.66137188212167
 30
0.0
 10
260.4436475872422
 20
97.21705180060249
 30
0.0
 10
258.8858316946541
 20
97.98908571874566
 30
0.0
 10
257.5437600679439
 20
98.6431753086996
 30
0.0
 10
256.4179342631838
 20
99.18090504777031
 30
0.0
 10
255.5127160494551
 20
99.60430915547393
 30
0.0
 10
254.8266033727761
 20
99.91913867094607
 30
0.0
 10
254.3100758810366
 20
100.1525230902241
 30
0.0
 10
253.8318906711108
 20
100.3658893658963
 30
0.0
 10
253.2284542908011
 20
100.6312070802996
 30
0.0
 10
252.4033060005487
 20
100.9855919780463
 30
0.0
 10
251.3374152020839
 20
101.4277396358267
 30
0.0
 10
250.0505296927938
 20
101.9390038724047
 30
0.0
 10
248.5412941859418
 20
102.5077428554057
 30
0.0
 10
246.8088383314795
 20
103.1208076586068
 30
0.0
 10
244.8525178979378
 20
103.7618424815357
 30
0.0
 10
242.6730310965116
 20
104.4294339405437
 30
0.0
 10
241.1456298691613
 20
104.8785186106405
 30
0.0
 10
240.3449620650998
 20
105.1139299945032
 30
0.0
  0
SPLINE
  5
10A
330
1F
100
AcDbEntity
  8
0
  6
Continuous
 62
     7
370
    15
100
AcDbSpline
210
0.0
220
0.0
230
1.0
 70
     8
 71
     3
 72
    33
 73
    29
 74
     0
 42
0.000000001
 43
0.00000001
 40
0.0
 40
0.0
 40
0.0
 40
0.0
 40
0.0469057266041235
 40
0.0854616157709316
 40
0.1174224650646081
 40
0.1440762709476069
 40
0.1660719725747443
 40
0.1966836913762101
 40
0.2330629146354903
 40
0.274668848952765
 40
0.3485288112318436
 40
0.4176895869480842
 40
0.4780415731204833
 40
0.5314917653775975
 40
0.5697478740026007
 40
0.6010772647382301
 40
0.6339667912128928
 40
0.670230256677649
 40
0.7091562037780912
 40
0.7644768566473147
 40
0.8242615227060955
 40
0.8541837172481089
 40
0.8874622103119341
 40
0.902616071206814
 40
0.919894674585614
 40
0.9405620414949575
 40
0.9664330191815619
 40
1.0
 40
1.0
 40
1.0
 40
1.0
 10
276.1756501856953
 20
63.18061126092284
 30
0.0
 10
276.2035618000861
 20
62.87053972294154
 30
0.0
 10
276.2544163936998
 20
62.30559346671768
 30
0.0
 10
276.2446224074793
 20
61.5666966743567
 30
0.0
 10
276.1989618749807
 20
60.97522122182824
 30
0.0
 10
276.1391241897282
 20
60.49477206282375
 30
0.0
 10
276.0681517438089
 20
60.02484693732465
 30
0.0
 10
275.9733080175357
 20
59.50887719285497
 30
0.0
 10
275.8343694388054
 20
58.8977610163276
 30
0.0
 10
275.5921546260696
 20
58.06307375311531
 30
0.0
 10
275.2358546277985
 20
57.20530518396066
 30
0.0
 10
274.752264235558
 20
56.36476338725934
 30
0.0
 10
274.2181570402284
 20
55.64239481307249
 30
0.0
 10
273.7123673641158
 20
55.08677361464073
 30
0.0
 10
273.2613361888353
 20
54.66838151494407
 30
0.0
 10
272.8933429685297
 20
54.36625537604087
 30
0.0
 10
272.4769863935118
 20
54.06510808797509
 30
0.0
 10
272.0297440860354
 20
53.79202351062602
 30
0.0
 10
271.5263363086526
 20
53.53318480401413
 30
0.0
 10
270.7857089675433
 20
53.23381911482176
 30
0.0
 10
270.0055293312046
 20
52.98999140415879
 30
0.0
 10
269.2874140428999
 20
52.80208451198902
 30
0.0
 10
268.8637055684682
 20
52.70161721140006
 30
0.0
 10
268.5062641455983
 20
52.64037445684083
 30
0.0
 10
268.2088863292433
 20
52.60479541430345
 30
0.0
 10
267.835025308709
 20
52.57938221453926
 30
0.0
 10
267.3431012251598
 20
52.5662254206492
 30
0.0
 10
266.9584652267091
 20
52.56927088287819
 30
0.0
 10
266.7412459697425
 20
52.57099077660931
 30
0.0
  0
SPLINE
  5
10B
330
1F
100
AcDbEntity
  8
0
  6
Continuous
 62
     7
370
    15
100
AcDbSpline
210
0.0
220
0.0
230
1.0
 70
     8
 71
     3
 72
    49
 73
    45
 74
     0
 42
0.000000001
 43
0.00000001
 40
0.0
 40
0.0
 40
0.0
 40
0.0
 40
0.0394374727023901
 40
0.0722432731716768
 40
0.0986361599457665
 40
0.1188193222458857
 40
0.1340985510617506
 40
0.1497505890601231
 40
0.1840590503622481
 40
0.2226071329019807
 40
0.2657667363762858
 40
0.2889296326132109
 40
0.3095504416362632
 40
0.3257460456549496
 40
0.3375716312109767
 40
0.3452155847664553
 40
0.3540810781769396
 40
0.3676953553920552
 40
0.3855304550688435
 40
0.4036143714458352
 40
0.4214672132858557
 40
0.4399263739578579
 40
0.4592668555618952
 40
0.5092164054168962
 40
0.5585508564772157
 40
0.6036619632817186
 40
0.6456775748332387
 40
0.6882943066067883
 40
0.7037765570862503
 40
0.7185979137716616
 40
0.7315153074296616
 40
0.7425011502903422
 40
0.7515302561124982
 40
0.7600698201621032
 40
0.7732275309993447
 40
0.7949044354546745
 40
0.823148254049317
 40
0.8572946432064101
 40
0.8761855744656547
 40
0.8961656961260283
 40
0.917623743989014
 40
0.941271462254112
 40
0.9682038403527816
 40
1.0
 40
1.0
 40
1.0
 40
1.0
 10
266.5914819256333
 20
40.57192551111738
 30
0.0
 10
267.1036364894498
 20
40.57399162228301
 30
0.0
 10
268.0418234351278
 20
40.57777641433771
 30
0.0
 10
269.3018503746666
 20
40.6742359435274
 30
0.0
 10
270.3028504685587
 20
40.79645857966156
 30
0.0
 10
271.07311007566
 20
40.92235902503171
 30
0.0
 10
271.70429793686
 20
41.04506338565705
 30
0.0
 10
272.5034431467101
 20
41.22211780217002
 30
0.0
 10
273.5705789085528
 20
41.50555587870208
 30
0.0
 10
274.9386849217191
 20
41.95836896129607
 30
0.0
 10
276.1527513430282
 20
42.45522013840587
 30
0.0
 10
277.1303750735364
 20
42.92472716360102
 30
0.0
 10
277.7933348325113
 20
43.276822150194
 30
0.0
 10
278.3297683712015
 20
43.58736077729938
 30
0.0
 10
278.7199713440026
 20
43.82725153567829
 30
0.0
 10
279.0504477199981
 20
44.04408063788689
 30
0.0
 10
279.3697898039102
 20
44.2588538741163
 30
0.0
 10
279.746725400329
 20
44.51877664520153
 30
0.0
 10
280.1779966726788
 20
44.83395557598532
 30
0.0
 10
280.6649525623229
 20
45.2171060420478
 30
0.0
 10
281.1716615303062
 20
45.64458770794955
 30
0.0
 10
281.6740112744128
 20
46.09897473602384
 30
0.0
 10
282.4359893331414
 20
46.83817122588977
 30
0.0
 10
283.4018290543843
 20
47.90125893207366
 30
0.0
 10
284.4656905108254
 20
49.30415454928751
 30
0.0
 10
285.3660333956792
 20
50.72649829385607
 30
0.0
 10
286.1199534900261
 20
52.15984665469939
 30
0.0
 10
286.6124555121121
 20
53.30792097032715
 30
0.0
 10
286.9263588482978
 20
54.162868444
 30
0.0
 10
287.0986048801346
 20
54.67524561861807
 30
0.0
 10
287.2417008669394
 20
55.13894045188444
 30
0.0
 10
287.3549792983727
 20
55.53576347838345
 30
0.0
 10
287.4471637690044
 20
55.88108821703361
 30
0.0
 10
287.5402297240351
 20
56.25139794495581
 30
0.0
 10
287.6621178599555
 20
56.77506557676985
 30
0.0
 10
287.8191699864105
 20
57.5439515317767
 30
0.0
 10
287.9910622974733
 20
58.58285315068024
 30
0.0
 10
288.112298356622
 20
59.60450675927741
 30
0.0
 10
288.1850552156728
 20
60.53525150746989
 30
0.0
 10
288.2211673967265
 20
61.31226241586775
 30
0.0
 10
288.2295712542269
 20
62.15819373272531
 30
0.0
 10
288.2018046923659
 20
63.10061702846437
 30
0.0
 10
288.1304720604322
 20
64.18182340912479
 30
0.0
 10
288.0495297864269
 20
64.95180265286584
 30
0.0
 10
288.0057069097597
 20
65.36867635513588
 30
0.0
  0
SPLINE
  5
10C
330
1F
100
AcDbEntity
  8
0
  6
Continuous
 62
     7
370
    15
100
AcDbSpline
210
0.0
220
0.0
230
1.0
 70
     8
 71
     3
 72
    27
 73
    23
 74
     0
 42
0.000000001
 43
0.00000001
 40
0.0
 40
0.0
 40
0.0
 40
0.0
 40
0.1146229442249306
 40
0.204296867137178
 40
0.2647927624290063
 40
0.3065900135221269
 40
0.3547794778162954
 40
0.4111936019099955
 40
0.4762994905616162
 40
0.5501510739318279
 40
0.6270257030257727
 40
0.6782329629995782
 40
0.7314808290652692
 40
0.7856563848817151
 40
0.814054271309222
 40
0.8275379211934402
 40
0.8481991888517194
 40
0.869366272320865
 40
0.8894694083900473
 40
0.91183747000076
 40
0.9473491443520861
 40
1.0
 40
1.0
 40
1.0
 40
1.0
 10
249.894017458195
 20
61.92527755935731
 30
0.0
 10
249.9103885657674
 20
61.91129150879559
 30
0.0
 10
249.9395674183195
 20
61.8863636347761
 30
0.0
 10
250.1276000414021
 20
61.8527108261526
 30
0.0
 10
250.3421333657211
 20
61.80561172423631
 30
0.0
 10
250.6152072086773
 20
61.72778648888725
 30
0.0
 10
250.912029905177
 20
61.61716396230443
 30
0.0
 10
251.2841156146556
 20
61.44293108602516
 30
0.0
 10
251.7292423380261
 20
61.18333220347098
 30
0.0
 10
252.2211464727235
 20
60.8267240364813
 30
0.0
 10
252.6750202829181
 20
60.42231418410674
 30
0.0
 10
253.0631859478102
 20
60.01348163984645
 30
0.0
 10
253.3838105567498
 20
59.62607953023634
 30
0.0
 10
253.6328380613054
 20
59.27245237669316
 30
0.0
 10
253.8120814983369
 20
59.02537485625522
 30
0.0
 10
253.8999050102722
 20
58.84383380285126
 30
0.0
 10
253.9438456610577
 20
58.68424236981468
 30
0.0
 10
253.9806542003566
 20
58.5174540384754
 30
0.0
 10
253.9840296109051
 20
58.37731097502073
 30
0.0
 10
253.9716326197356
 20
58.24471080885063
 30
0.0
 10
253.9578735523386
 20
58.20494077768632
 30
0.0
 10
253.9614929058853
 20
58.20574539801959
 30
0.0
 10
253.9636543917357
 20
58.20622591904159
 30
0.0
  0
SPLINE
  5
10D
330
1F
100
AcDbEntity
  8
0
  6
Continuous
 62
     7
370
    15
100
AcDbSpline
210
0.0
220
0.0
230
1.0
 70
     8
 71
     3
 72
    16
 73
    12
 74
     0
 42
0.000000001
 43
0.00000001
 40
0.0
 40
0.0
 40
0.0
 40
0.0
 40
0.1249737589263952
 40
0.2637708461259108
 40
0.4102470143271861
 40
0.5834955139203583
 40
0.7920655641347937
 40
0.9239981067461136
 40
0.97736566571194
 40
0.9921936358905081
 40
1.0
 40
1.0
 40
1.0
 40
1.0
 10
251.0336495473006
 20
58.8874237288937
 30
0.0
 10
251.0700754376968
 20
58.87440367065328
 30
0.0
 10
251.1469562806293
 20
58.84692340753096
 30
0.0
 10
251.3323262217048
 20
58.73979878648165
 30
0.0
 10
251.5468677666656
 20
58.55652777949729
 30
0.0
 10
251.7529848938939
 20
58.27186435060202
 30
0.0
 10
251.896343641776
 20
57.96486963317389
 30
0.0
 10
251.9406279279941
 20
57.72590662377488
 30
0.0
 10
251.9551144729035
 20
57.60503498804623
 30
0.0
 10
251.9606333023496
 20
57.55770314129543
 30
0.0
 10
251.9604015430584
 20
57.54288679662422
 30
0.0
 10
251.9603216115089
 20
57.53777678190927
 30
0.0
  0
SPLINE
  5
10E
330
1F
100
AcDbEntity
  8
0
  6
Continuous
 62
     7
370
    15
100
AcDbSpline
210
0.0
220
0.0
230
1.0
 70
     8
 71
     3
 72
    28
 73
    24
 74
     0
 42
0.000000001
 43
0.00000001
 40
0.0
 40
0.0
 40
0.0
 40
0.0
 40
0.0377739260070076
 40
0.0702482087384635
 40
0.1071749933872227
 40
0.1358641698123201
 40
0.1588587566666075
 40
0.178088812651597
 40
0.2287821974446763
 40
0.2794000609863415
 40
0.3326616089931893
 40
0.3899528136563271
 40
0.4515959539946062
 40
0.5166073342304298
 40
0.5753824927209319
 40
0.6257335288864924
 40
0.6686542599917231
 40
0.7151464428344225
 40
0.7692689025182179
 40
0.8320891617825281
 40
0.9079295046165712
 40
0.951704339890712
 40
1.0
 40
1.0
 40
1.0
 40
1.0
 10
248.9032529291987
 20
60.3333280010159
 30
0.0
 10
248.837578570129
 20
60.20598418465397
 30
0.0
 10
248.7154438975554
 20
59.96916275942838
 30
0.0
 10
248.595608243187
 20
59.57314053498524
 30
0.0
 10
248.5450562962518
 20
59.18561443161309
 30
0.0
 10
248.557687311924
 20
58.83002766440829
 30
0.0
 10
248.5866981226031
 20
58.55194644691529
 30
0.0
 10
248.6430641217183
 20
58.20130970962044
 30
0.0
 10
248.7594617595566
 20
57.74257110205664
 30
0.0
 10
248.9979997211565
 20
57.1721988439427
 30
0.0
 10
249.3356688106005
 20
56.60964367123549
 30
0.0
 10
249.7807300609223
 20
56.05156717090195
 30
0.0
 10
250.3415471918402
 20
55.52030964214086
 30
0.0
 10
250.9814400343403
 20
55.06706302830433
 30
0.0
 10
251.6346568007386
 20
54.73234062011653
 30
0.0
 10
252.233596296261
 20
54.51769184652879
 30
0.0
 10
252.8022899407971
 20
54.38249932984372
 30
0.0
 10
253.3949006586407
 20
54.30763779335008
 30
0.0
 10
254.0678205775214
 20
54.30580295029984
 30
0.0
 10
254.8454091995683
 20
54.42154057828083
 30
0.0
 10
255.5667979009177
 20
54.6654344435366
 30
0.0
 10
256.1919436864613
 20
54.98442351566989
 30
0.0
 10
256.50595211159
 20
55.20909348708403
 30
0.0
 10
256.6706655098216
 20
55.32694432008969
 30
0.0
  0
SPLINE
  5
10F
330
1F
100
AcDbEntity
  8
0
  6
Continuous
 62
     7
370
    15
100
AcDbSpline
210
0.0
220
0.0
230
1.0
 70
     8
 71
     3
 72
    35
 73
    31
 74
     0
 42
0.000000001
 43
0.00000001
 40
0.0
 40
0.0
 40
0.0
 40
0.0
 40
0.0269539950430425
 40
0.050069931520163
 40
0.0692751266973591
 40
0.0845590321858277
 40
0.1005987788263203
 40
0.1187500924694188
 40
0.1395750193858013
 40
0.1721994632706339
 40
0.1986594623818431
 40
0.2205422942760575
 40
0.2402502056469168
 40
0.2706921758202503
 40
0.3069679293311905
 40
0.348956218103248
 40
0.3972946213202272
 40
0.4532185767508882
 40
0.5016247841878742
 40
0.5487202681058145
 40
0.5932294377333958
 40
0.6364213813019565
 40
0.6795867787778919
 40
0.7231492930142454
 40
0.7671346638545448
 40
0.8123873653904713
 40
0.858402891617488
 40
0.9045702957441409
 40
0.9515144824976106
 40
1.0
 40
1.0
 40
1.0
 40
1.0
 10
244.7137625064761
 20
66.33897918590323
 30
0.0
 10
244.5016831893385
 20
66.09794795585161
 30
0.0
 10
244.1077231522839
 20
65.65020664093213
 30
0.0
 10
243.6672067944991
 20
64.95040098309921
 30
0.0
 10
243.3623223547069
 20
64.338734340775
 30
0.0
 10
243.1464961999835
 20
63.78303165043965
 30
0.0
 10
242.985967574158
 20
63.24368491598445
 30
0.0
 10
242.8570673602702
 20
62.63991839864094
 30
0.0
 10
242.7512662860097
 20
61.84560541668881
 30
0.0
 10
242.7169507589937
 20
60.94490878954034
 30
0.0
 10
242.7731621883083
 20
60.03763864429165
 30
0.0
 10
242.8781150188036
 20
59.30140188419381
 30
0.0
 10
243.0338049577672
 20
58.52147636224478
 30
0.0
 10
243.2580062147747
 20
57.60358206935214
 30
0.0
 10
243.5958129832704
 20
56.45893452192357
 30
0.0
 10
244.0846555211405
 20
55.13996024797704
 30
0.0
 10
244.7929255562151
 20
53.63786877575663
 30
0.0
 10
245.6834795619732
 20
52.09550933342532
 30
0.0
 10
246.6922358067586
 20
50.60213911758594
 30
0.0
 10
247.750869846862
 20
49.27829474007621
 30
0.0
 10
248.9171532550776
 20
48.09863237527367
 30
0.0
 10
250.1559194186327
 20
47.04424045792202
 30
0.0
 10
251.4490764837145
 20
46.06173712623929
 30
0.0
 10
252.7985535150621
 20
45.13228070093377
 30
0.0
 10
254.2204972637252
 20
44.26120846256354
 30
0.0
 10
255.7170556170122
 20
43.46334159330509
 30
0.0
 10
257.2955510633925
 20
42.75844345886605
 30
0.0
 10
258.95001985365
 20
42.18259039138363
 30
0.0
 10
260.6383098662843
 20
41.722013829762
 30
0.0
 10
261.7730166941008
 20
41.42530011025523
 30
0.0
 10
262.3495337040736
 20
41.27454706797635
 30
0.0
  0
LWPOLYLINE
  5
110
330
1F
100
AcDbEntity
  8
0
  6
Continuous
 62
     7
370
    15
100
AcDbPolyline
 90
        3
 70
   128
 43
0.0
 10
256.995034606
 20
55.6083331839
 10
262.0595957499
 20
60.5520755503
 10
267.1235424778
 20
65.4963774097
  0
LINE
  5
111
330
1F
100
AcDbEntity
  8
0
  6
Continuous
 62
     7
370
    15
100
AcDbLine
 10
251.0217554432
 20
58.8922658138
 30
0.0
 11
250.2294448766
 21
58.118947045
 31
0.0
  0
LINE
  5
112
330
1F
100
AcDbEntity
  8
0
  6
Continuous
 62
     7
370
    15
100
AcDbLine
 10
250.3410721873
 20
61.8023589099
 30
0.0
 11
249.1080408749
 21
60.5989422665
 31
0.0
  0
SPLINE
  5
113
330
1F
100
AcDbEntity
  8
0
  6
Continuous
 62
     7
370
    15
100
AcDbSpline
210
0.0
220
0.0
230
1.0
 70
     8
 71
     3
 72
     9
 73
     5
 74
     0
 42
0.000000001
 43
0.00000001
 40
0.0
 40
0.0
 40
0.0
 40
0.0
 40
0.5000502810268674
 40
1.0
 40
1.0
 40
1.0
 40
1.0
 10
251.3138516401144
 20
72.78086698247806
 30
0.0
 10
250.2334301496114
 20
71.7276553991138
 30
0.0
 10
248.0728044455634
 20
69.62144403732543
 30
0.0
 10
245.913296943963
 20
67.51406838088478
 30
0.0
 10
244.8336517754175
 20
66.46048651367646
 30
0.0
  0
SPLINE
  5
114
330
1F
100
AcDbEntity
  8
0
  6
Continuous
 62
     7
370
    15
100
AcDbSpline
210
0.0
220
0.0
230
1.0
 70
     8
 71
     3
 72
    13
 73
     9
 74
     0
 42
0.000000001
 43
0.00000001
 40
0.0
 40
0.0
 40
0.0
 40
0.0
 40
0.1623038249302106
 40
0.326373120910151
 40
0.4922082277813621
 40
0.6596381097821009
 40
0.828840456217324
 40
1.0
 40
1.0
 40
1.0
 40
1.0
 10
240.3052949576915
 20
105.1245914670726
 30
0.0
 10
239.1029328154018
 20
105.4247951865273
 30
0.0
 10
236.6851297536929
 20
106.0284681121
 30
0.0
 10
233.0392209478847
 20
106.8276313136379
 30
0.0
 10
229.3672408882922
 20
107.439077844509
 30
0.0
 10
225.6824706525154
 20
107.8482348674476
 30
0.0
 10
221.9885025713412
 20
108.0899214974606
 30
0.0
 10
219.523598799739
 20
108.1959266588489
 30
0.0
 10
218.2840598938247
 20
108.2492340225206
 30
0.0
  0
SPLINE
  5
115
330
1F
100
AcDbEntity
  8
0
  6
Continuous
 62
     7
370
    15
100
AcDbSpline
210
0.0
220
0.0
230
1.0
 70
     8
 71
     3
 72
    12
 73
     8
 74
     0
 42
0.000000001
 43
0.00000001
 40
0.0
 40
0.0
 40
0.0
 40
0.0
 40
0.2046360213985164
 40
0.4068859857599756
 40
0.6068822465087972
 40
0.8045589661995897
 40
1.0
 40
1.0
 40
1.0
 40
1.0
 10
218.2104605866161
 20
96.25138930482998
 30
0.0
 10
219.4833450075666
 20
96.19469176210312
 30
0.0
 10
222.0142720107277
 20
96.08195777028226
 30
0.0
 10
225.8199742393871
 20
95.79276446917697
 30
0.0
 10
229.6292801250443
 20
95.26096586292107
 30
0.0
 10
233.4256270488395
 20
94.47887609026644
 30
0.0
 10
235.9486182922196
 20
93.84711896272348
 30
0.0
 10
237.2029397073593
 20
93.53303682061402
 30
0.0
  0
SPLINE
  5
116
330
1F
100
AcDbEntity
  8
0
  6
Continuous
 62
     7
370
    15
100
AcDbSpline
210
0.0
220
0.0
230
1.0
 70
     8
 71
     3
 72
    32
 73
    28
 74
     0
 42
0.000000001
 43
0.00000001
 40
0.0
 40
0.0
 40
0.0
 40
0.0
 40
0.0369580606961813
 40
0.0698415652488934
 40
0.0995663527471607
 40
0.124378247230007
 40
0.1439254702506275
 40
0.1643609224861851
 40
0.1896253739517615
 40
0.2211253247074609
 40
0.2637635064910134
 40
0.3030321539624438
 40
0.3443752495852538
 40
0.3883414423853109
 40
0.4349111349144233
 40
0.4821652970996275
 40
0.5458417681939217
 40
0.6006423304773324
 40
0.6471502739366873
 40
0.6950265742660743
 40
0.7291655766884504
 40
0.7661530574797814
 40
0.8139307655993275
 40
0.8584749426001879
 40
0.9107957268913346
 40
0.9708818858469596
 40
1.0
 40
1.0
 40
1.0
 40
1.0
 10
267.3880733493712
 20
65.80555114733241
 30
0.0
 10
267.5324225890035
 20
66.03861677903086
 30
0.0
 10
267.8052068381904
 20
66.4790529982728
 30
0.0
 10
268.0182689257178
 20
67.1669421890586
 30
0.0
 10
268.1106839273946
 20
67.74417391180934
 30
0.0
 10
268.1187519846793
 20
68.25670693221099
 30
0.0
 10
268.0788357360156
 20
68.71166228405585
 30
0.0
 10
267.9992766411218
 20
69.15961410468948
 30
0.0
 10
267.8439218195954
 20
69.6763242366879
 30
0.0
 10
267.5642530144215
 20
70.32428805982228
 30
0.0
 10
267.1311588198156
 20
71.02770947080982
 30
0.0
 10
266.5140974215324
 20
71.69591063681325
 30
0.0
 10
265.8783270522214
 20
72.35412233706526
 30
0.0
 10
265.1453971550625
 20
72.99819028903526
 30
0.0
 10
264.3146483376381
 20
73.59498966119641
 30
0.0
 10
263.3090996713639
 20
74.19348785116091
 30
0.0
 10
262.192095627932
 20
74.71084951579279
 30
0.0
 10
261.0373426434995
 20
75.09369445008932
 30
0.0
 10
259.9680164345792
 20
75.33126299620167
 30
0.0
 10
259.035284847688
 20
75.4453897263211
 30
0.0
 10
258.1706488499556
 20
75.478435782078
 30
0.0
 10
257.3102145543313
 20
75.44815808056333
 30
0.0
 10
256.3758853916863
 20
75.32945447890295
 30
0.0
 10
255.3508094628718
 20
75.09537796918838
 30
0.0
 10
254.2774068952879
 20
74.72100970680543
 30
0.0
 10
253.3408268308015
 20
74.2941305983589
 30
0.0
 10
252.8139115834403
 20
73.92379942115262
 30
0.0
 10
252.6419155816013
 20
73.80291568860781
 30
0.0
  0
LINE
  5
117
330
1F
100
AcDbEntity
  8
0
  6
Continuous
 62
     7
370
    15
100
AcDbLine
 10
252.2603707983
 20
73.5460968451
 30
0.0
 11
251.9442730015
 21
73.3333305484
 31
0.0
  0
SPLINE
  5
118
330
1F
100
AcDbEntity
  8
0
  6
Continuous
 62
     7
370
    15
100
AcDbSpline
210
0.0
220
0.0
230
1.0
 70
     8
 71
     3
 72
    14
 73
    10
 74
     0
 42
0.000000001
 43
0.00000001
 40
0.0
 40
0.0
 40
0.0
 40
0.0
 40
0.176385792561859
 40
0.3520318722596135
 40
0.5149153938817598
 40
0.6687274334825595
 40
0.8284315454042752
 40
0.9945820974603313
 40
1.0
 40
1.0
 40
1.0
 40
1.0
 10
265.986030817811
 20
52.70799856044037
 30
0.0
 10
265.5741870787238
 20
52.85782362207521
 30
0.0
 10
264.7522267584307
 20
53.15684542078515
 30
0.0
 10
263.6384497670203
 20
53.78629191146438
 30
0.0
 10
262.5703122734343
 20
54.51575997099899
 30
0.0
 10
261.4505393068552
 20
55.43509664865889
 30
0.0
 10
260.3575509823907
 20
56.52917496411543
 30
0.0
 10
259.6113483819174
 20
57.33725237747085
 30
0.0
 10
259.275945980714
 20
57.80957747844098
 30
0.0
 10
259.2653544210618
 20
57.82449287399039
 30
0.0
  0
SPLINE
  5
119
330
1F
100
AcDbEntity
  8
0
  6
Continuous
 62
     7
370
    15
100
AcDbSpline
210
0.0
220
0.0
230
1.0
 70
     8
 71
     3
 72
    21
 73
    17
 74
     0
 42
0.000000001
 43
0.00000001
 40
0.0
 40
0.0
 40
0.0
 40
0.0
 40
0.0961150466829765
 40
0.1862364606303716
 40
0.2690305036204291
 40
0.3397106037747861
 40
0.3978343597823031
 40
0.4428920231604124
 40
0.4935331270067969
 40
0.5613903770903131
 40
0.646231592758943
 40
0.7048601185461862
 40
0.7687610214130681
 40
0.837643362099374
 40
0.9134757543993592
 40
1.0
 40
1.0
 40
1.0
 40
1.0
 10
218.1735068750552
 20
108.2501985390787
 30
0.0
 10
217.6035880604991
 20
108.2307694701683
 30
0.0
 10
216.4992899663653
 20
108.1931229085518
 30
0.0
 10
214.9126177501644
 20
108.0561951065082
 30
0.0
 10
213.491066618498
 20
107.8744200565638
 30
0.0
 10
212.2735741006086
 20
107.6761836135956
 30
0.0
 10
211.2840534303816
 20
107.4868845480933
 30
0.0
 10
210.4180551097746
 20
107.3004930455273
 30
0.0
 10
209.5005292440647
 20
107.0819352479705
 30
0.0
 10
208.369892846418
 20
106.778614657127
 30
0.0
 10
207.2134414147953
 20
106.4206613819173
 30
0.0
 10
206.096200017632
 20
106.032978252164
 30
0.0
 10
205.0790363567284
 20
105.6470863702963
 30
0.0
 10
203.9881846579982
 20
105.1926449747835
 30
0.0
 10
202.8048898748981
 20
104.6473290609717
 30
0.0
 10
202.0055878074345
 20
104.2253522453817
 30
0.0
 10
201.5796181070971
 20
104.0004693819398
 30
0.0
  0
SPLINE
  5
11A
330
1F
100
AcDbEntity
  8
0
  6
Continuous
 62
     7
370
    15
100
AcDbSpline
210
0.0
220
0.0
230
1.0
 70
     8
 71
     3
 72
    22
 73
    18
 74
     0
 42
0.000000001
 43
0.00000001
 40
0.0
 40
0.0
 40
0.0
 40
0.0
 40
0.0924934386295105
 40
0.1715327977607704
 40
0.2441682922278632
 40
0.312353992875854
 40
0.3750050238629332
 40
0.4474478204469667
 40
0.5083925712980921
 40
0.563498381213714
 40
0.6149973880546279
 40
0.6642818190505642
 40
0.7113171217664678
 40
0.7597154893281217
 40
0.8222778655121764
 40
0.9014195904472262
 40
1.0
 40
1.0
 40
1.0
 40
1.0
 10
207.3765170280545
 20
93.49324115228677
 30
0.0
 10
207.6710254893356
 20
93.64793093348531
 30
0.0
 10
208.2172032623356
 20
93.9348093472101
 30
0.0
 10
209.0141583100017
 20
94.29104526324606
 30
0.0
 10
209.7505770884852
 20
94.5874384916488
 30
0.0
 10
210.4483868286009
 20
94.84401014368827
 30
0.0
 10
211.1602480528752
 20
95.08206768028231
 30
0.0
 10
211.8616414907808
 20
95.29190967100148
 30
0.0
 10
212.553678632236
 20
95.47401155932656
 30
0.0
 10
213.1789430537105
 20
95.62081172292467
 30
0.0
 10
213.7662524672263
 20
95.7442937077722
 30
0.0
 10
214.3284002469235
 20
95.85007148353111
 30
0.0
 10
214.8831810863435
 20
95.94301734288752
 30
0.0
 10
215.4938267373669
 20
96.03329722853424
 30
0.0
 10
216.2394376606907
 20
96.12395424628295
 30
0.0
 10
217.1962872859976
 20
96.2095864883052
 30
0.0
 10
217.9216580591153
 20
96.23577180756973
 30
0.0
 10
218.3240128254344
 20
96.2502965008771
 30
0.0
  0
LWPOLYLINE
  5
11B
330
1F
100
AcDbEntity
  8
0
  6
Continuous
 62
     7
370
    15
100
AcDbPolyline
 90
        3
 70
   128
 43
0.0
 10
220.1523568033
 20
83.1560064228
 10
215.5130263897
 20
78.6300078747
 10
210.8743575432
 20
74.1032321714
  0
LINE
  5
11C
330
1F
100
AcDbEntity
  8
0
  6
Continuous
 62
     7
370
    15
100
AcDbLine
 10
216.5013906463
 20
65.7624380044
 30
0.0
 11
219.9613803481
 21
69.1397384318
 31
0.0
  0
SPLINE
  5
11D
330
1F
100
AcDbEntity
  8
0
  6
Continuous
 62
     7
370
    15
100
AcDbSpline
210
0.0
220
0.0
230
1.0
 70
     8
 71
     3
 72
     9
 73
     5
 74
     0
 42
0.000000001
 43
0.00000001
 40
0.0
 40
0.0
 40
0.0
 40
0.0
 40
0.4995953302377542
 40
1.0
 40
1.0
 40
1.0
 40
1.0
 10
226.1851928114959
 20
56.92031114803586
 30
0.0
 10
226.7076431402558
 20
57.43051180791927
 30
0.0
 10
227.7533901621729
 20
58.4517396477404
 30
0.0
 10
228.7975367477716
 20
59.47467345341773
 30
0.0
 10
229.3200325751215
 20
59.98655430663634
 30
0.0
  0
SPLINE
  5
11E
330
1F
100
AcDbEntity
  8
0
  6
Continuous
 62
     7
370
    15
100
AcDbSpline
210
0.0
220
0.0
230
1.0
 70
     8
 71
     3
 72
    26
 73
    22
 74
     0
 42
0.000000001
 43
0.00000001
 40
0.0
 40
0.0
 40
0.0
 40
0.0
 40
0.0932126450099094
 40
0.1772787037048545
 40
0.2524143031706518
 40
0.3194710639313001
 40
0.3786345661750377
 40
0.4296181379627848
 40
0.4902151996587436
 40
0.5315630871359295
 40
0.5567471650209831
 40
0.5864647560734978
 40
0.638740567261187
 40
0.691446831563139
 40
0.7386473232508246
 40
0.7620286926192831
 40
0.7926980741489692
 40
0.8313355514850475
 40
0.8781802457104618
 40
0.933921701530044
 40
1.0
 40
1.0
 40
1.0
 40
1.0
 10
212.0108237615165
 20
54.95554231453077
 30
0.0
 10
212.5095609813272
 20
54.81762250182653
 30
0.0
 10
213.4580963201536
 20
54.55531639937847
 30
0.0
 10
214.791077852015
 20
54.23164949476175
 30
0.0
 10
215.9438489689005
 20
54.01712017326435
 30
0.0
 10
216.904515444018
 20
53.91194397371903
 30
0.0
 10
217.7100106249384
 20
53.87870716709057
 30
0.0
 10
218.4640342171443
 20
53.89248799212187
 30
0.0
 10
219.134929178375
 20
53.94488418076058
 30
0.0
 10
219.6968098184519
 20
54.01774340988231
 30
0.0
 10
220.1617736364014
 20
54.09407802251469
 30
0.0
 10
220.6752467982114
 20
54.19344572655272
 30
0.0
 10
221.3039089454223
 20
54.34176426604528
 30
0.0
 10
222.0113777309263
 20
54.54710848624856
 30
0.0
 10
222.5817900720928
 20
54.74333437941388
 30
0.0
 10
223.0529815648493
 20
54.92424963976483
 30
0.0
 10
223.4940696082566
 20
55.11010780864485
 30
0.0
 10
224.0387297293879
 20
55.37036622227652
 30
0.0
 10
224.6797077149428
 20
55.73133276672986
 30
0.0
 10
225.4079600270019
 20
56.22102285642941
 30
0.0
 10
225.8748864019615
 20
56.63867890871954
 30
0.0
 10
226.1281597774334
 20
56.86522674114593
 30
0.0
  0
SPLINE
  5
11F
330
1F
100
AcDbEntity
  8
0
  6
Continuous
 62
     7
370
    15
100
AcDbSpline
210
0.0
220
0.0
230
1.0
 70
     8
 71
     3
 72
    28
 73
    24
 74
     0
 42
0.000000001
 43
0.00000001
 40
0.0
 40
0.0
 40
0.0
 40
0.0
 40
0.0456255918831956
 40
0.0907851816463962
 40
0.1320864296770242
 40
0.1674082169130242
 40
0.2258657958522744
 40
0.2762913383718241
 40
0.3196117209850255
 40
0.3582270817605251
 40
0.4024830269871624
 40
0.4541907921808762
 40
0.5127981135052527
 40
0.5710430833789351
 40
0.6267071736634512
 40
0.6801261289514511
 40
0.7154966979070311
 40
0.7568119450883591
 40
0.8056305259301597
 40
0.8476858349289416
 40
0.8944434908952579
 40
0.9452239853831109
 40
1.0
 40
1.0
 40
1.0
 40
1.0
 10
210.6683377833569
 20
73.88540163559689
 30
0.0
 10
210.5323585175446
 20
73.71534809562745
 30
0.0
 10
210.2617888254622
 20
73.37697787666656
 30
0.0
 10
209.9511825977475
 20
72.83557400004737
 30
0.0
 10
209.7116437212352
 20
72.317054995432
 30
0.0
 10
209.5118409544389
 20
71.71184291825651
 30
0.0
 10
209.3938212249465
 20
71.0451027306886
 30
0.0
 10
209.3628411844523
 20
70.33303345434643
 30
0.0
 10
209.4154065150113
 20
69.70927972798209
 30
0.0
 10
209.5285323201525
 20
69.12170127692967
 30
0.0
 10
209.7129469023146
 20
68.5111970756095
 30
0.0
 10
210.0110909173137
 20
67.83762350900719
 30
0.0
 10
210.4334729021519
 20
67.15043172655315
 30
0.0
 10
210.9589891087453
 20
66.51791778200946
 30
0.0
 10
211.5439131300066
 20
65.98646635199911
 30
0.0
 10
212.1011824870399
 20
65.60864151563135
 30
0.0
 10
212.6318986917366
 20
65.33686858514648
 30
0.0
 10
213.17284731301
 20
65.13240935667207
 30
0.0
 10
213.7622370222674
 20
65.0002048588556
 30
0.0
 10
214.3793062922373
 20
64.95877193157632
 30
0.0
 10
214.9917912567214
 20
65.01666830780057
 30
0.0
 10
215.6321714212056
 20
65.19057600052803
 30
0.0
 10
216.0203471224629
 20
65.4176345843405
 30
0.0
 10
216.2217815774892
 20
65.5354611817838
 30
0.0
  0
SPLINE
  5
120
330
1F
100
AcDbEntity
  8
0
  6
Continuous
 62
     7
370
    15
100
AcDbSpline
210
0.0
220
0.0
230
1.0
 70
     8
 71
     3
 72
    20
 73
    16
 74
     0
 42
0.000000001
 43
0.00000001
 40
0.0
 40
0.0
 40
0.0
 40
0.0
 40
0.0979680094582203
 40
0.1863816763092186
 40
0.2577501455878893
 40
0.3093388763436601
 40
0.3816601333781214
 40
0.4311271669908618
 40
0.4598742863734609
 40
0.5003925961023937
 40
0.5533093148361776
 40
0.6109546642906114
 40
0.6864133306991468
 40
0.8013028658152819
 40
1.0
 40
1.0
 40
1.0
 40
1.0
 10
213.1815043049084
 20
69.06058774699483
 30
0.0
 10
213.2573310037845
 20
69.07341580077598
 30
0.0
 10
213.4015893930656
 20
69.09782085075848
 30
0.0
 10
213.6300779983147
 20
69.0572726955266
 30
0.0
 10
213.8227409938942
 20
68.99052155533346
 30
0.0
 10
214.0063218113936
 20
68.89775215246998
 30
0.0
 10
214.1612128434394
 20
68.78806079305008
 30
0.0
 10
214.282006334179
 20
68.67480140450861
 30
0.0
 10
214.3560240039916
 20
68.5949825252405
 30
0.0
 10
214.4180027231186
 20
68.51923806710153
 30
0.0
 10
214.477332230233
 20
68.42925375796653
 30
0.0
 10
214.5285292873285
 20
68.35521443687438
 30
0.0
 10
214.5393145625207
 20
68.3530124898338
 30
0.0
 10
214.5677728146012
 20
68.19528773271531
 30
0.0
 10
214.5698964342677
 20
68.18409549075822
 30
0.0
 10
214.5712420180668
 20
68.17700377857885
 30
0.0
  0
SPLINE
  5
121
330
1F
100
AcDbEntity
  8
0
  6
Continuous
 62
     7
370
    15
100
AcDbSpline
210
0.0
220
0.0
230
1.0
 70
     8
 71
     3
 72
    34
 73
    30
 74
     0
 42
0.000000001
 43
0.00000001
 40
0.0
 40
0.0
 40
0.0
 40
0.0
 40
0.0009998632617786
 40
0.002217507311036
 40
0.01222910201518
 40
0.0255977827938274
 40
0.0463595895463538
 40
0.0771447586574709
 40
0.1210314322856377
 40
0.1453386101571841
 40
0.1643817916981412
 40
0.1824591717974097
 40
0.231012991865596
 40
0.277700344572663
 40
0.3263342675961865
 40
0.3775228684365435
 40
0.4320768321671095
 40
0.4885991093681404
 40
0.5176454980050544
 40
0.5465977045659872
 40
0.5982120204182796
 40
0.6463059026912441
 40
0.6959201981887856
 40
0.7302050422991019
 40
0.7639065051842397
 40
0.8018901523798326
 40
0.8535427043929092
 40
0.920116117802016
 40
1.0
 40
1.0
 40
1.0
 40
1.0
 10
213.917772716283
 20
70.54417207995728
 30
0.0
 10
213.9207480177683
 20
70.54271774256132
 30
0.0
 10
213.927346672853
 20
70.5394922977115
 30
0.0
 10
213.9686518476315
 20
70.54079314321608
 30
0.0
 10
214.0573728620693
 20
70.58577296788273
 30
0.0
 10
214.2166205594499
 20
70.67336293970774
 30
0.0
 10
214.4596453258654
 20
70.79756108675144
 30
0.0
 10
214.8434805294243
 20
70.91494977539531
 30
0.0
 10
215.2791675653284
 20
70.9961582875485
 30
0.0
 10
215.7118846540691
 20
71.02009435475486
 30
0.0
 10
216.0446238385628
 20
71.01222571613465
 30
0.0
 10
216.5157666362368
 20
70.97041928415942
 30
0.0
 10
217.1729524266275
 20
70.84009203645908
 30
0.0
 10
218.0205918406923
 20
70.52787842184875
 30
0.0
 10
218.855352193661
 20
70.07845048179863
 30
0.0
 10
219.6620898898328
 20
69.4833657607681
 30
0.0
 10
220.3699131976156
 20
68.7607029199131
 30
0.0
 10
220.8183682370848
 20
68.12436853806486
 30
0.0
 10
221.0669243979891
 20
67.65181302171665
 30
0.0
 10
221.2354576915309
 20
67.24195340845245
 30
0.0
 10
221.3293057447621
 20
66.84852604845723
 30
0.0
 10
221.3212681397678
 20
66.51109486892788
 30
0.0
 10
221.2872329110729
 20
66.18421800521108
 30
0.0
 10
221.2395343143221
 20
65.86239532055072
 30
0.0
 10
221.1795799820396
 20
65.56291553341549
 30
0.0
 10
221.0970626481958
 20
65.27514452026416
 30
0.0
 10
221.0002727296042
 20
65.04835892608263
 30
0.0
 10
220.862181133863
 20
64.8237474565656
 30
0.0
 10
220.7733222823938
 20
64.71458197402602
 30
0.0
 10
220.7248549800748
 20
64.65503859306212
 30
0.0
  0
SPLINE
  5
122
330
1F
100
AcDbEntity
  8
0
  6
Continuous
 62
     7
370
    15
100
AcDbSpline
210
0.0
220
0.0
230
1.0
 70
     8
 71
     3
 72
    11
 73
     7
 74
     0
 42
0.000000001
 43
0.00000001
 40
0.0
 40
0.0
 40
0.0
 40
0.0
 40
0.1627413694045677
 40
0.5121738047358635
 40
0.8489929823374371
 40
1.0
 40
1.0
 40
1.0
 40
1.0
 10
266.7418134946753
 20
52.57098373892995
 30
0.0
 10
266.7132984481335
 20
52.57174867471126
 30
0.0
 10
266.6235569157074
 20
52.57415605318502
 30
0.0
 10
266.4262106928178
 20
52.59654314169776
 30
0.0
 10
266.1857838201881
 20
52.64760752908352
 30
0.0
 10
266.0258701913224
 20
52.69661810181734
 30
0.0
 10
265.9763687901819
 20
52.71178936669469
 30
0.0
  0
SPLINE
  5
123
330
1F
100
AcDbEntity
  8
0
  6
Continuous
 62
     7
370
    15
100
AcDbSpline
210
0.0
220
0.0
230
1.0
 70
     8
 71
     3
 72
    12
 73
     8
 74
     0
 42
0.000000001
 43
0.00000001
 40
0.0
 40
0.0
 40
0.0
 40
0.0
 40
0.1550442823965998
 40
0.403851914461889
 40
0.652383333058586
 40
0.8996634501922486
 40
1.0
 40
1.0
 40
1.0
 40
1.0
 10
262.3080235613481
 20
41.28623715762875
 30
0.0
 10
262.525828564037
 20
41.21942503740581
 30
0.0
 10
263.0931565941692
 20
41.04539602940745
 30
0.0
 10
264.0220091124305
 20
40.82969733160456
 30
0.0
 10
265.0897026754339
 20
40.65947796817015
 30
0.0
 10
265.9476829289565
 20
40.5863043045746
 30
0.0
 10
266.4468376886926
 20
40.57515166261378
 30
0.0
 10
266.5909144007005
 20
40.57193254879673
 30
0.0
  0
SPLINE
  5
124
330
1F
100
AcDbEntity
  8
0
  6
Continuous
 62
     7
370
    15
100
AcDbSpline
210
0.0
220
0.0
230
1.0
 70
     8
 71
     3
 72
    26
 73
    22
 74
     0
 42
0.000000001
 43
0.00000001
 40
0.0
 40
0.0
 40
0.0
 40
0.0
 40
0.0493439931354636
 40
0.0910621081273851
 40
0.1256714993503805
 40
0.1650623109767059
 40
0.1900769994358345
 40
0.2229366719846644
 40
0.2679122295403262
 40
0.3180087977601339
 40
0.3619030554628563
 40
0.3996212827184439
 40
0.4363981004311787
 40
0.4741017093011679
 40
0.5257765923466937
 40
0.5802838788160963
 40
0.6458099286554246
 40
0.7230805515553126
 40
0.810201048453817
 40
0.9016227230365279
 40
1.0
 40
1.0
 40
1.0
 40
1.0
 10
201.5572012483527
 20
103.9879700491376
 30
0.0
 10
201.2811641070026
 20
103.8290532158953
 30
0.0
 10
200.7717500443061
 20
103.5357793859431
 30
0.0
 10
200.0871274719159
 20
103.1033110815409
 30
0.0
 10
199.4679670106067
 20
102.6888407349787
 30
0.0
 10
198.9493227568024
 20
102.319234446274
 30
0.0
 10
198.4475404727342
 20
101.9419735377228
 30
0.0
 10
197.9260390428329
 20
101.5305104780166
 30
0.0
 10
197.3025023741715
 20
101.0067027672991
 30
0.0
 10
196.6474266176854
 20
100.4164443879975
 30
0.0
 10
196.0461238919008
 20
99.83702332546187
 30
0.0
 10
195.5186513387842
 20
99.2980722080615
 30
0.0
 10
195.0328041219674
 20
98.77417564092532
 30
0.0
 10
194.5032211379639
 20
98.17116844864867
 30
0.0
 10
193.9222305387698
 20
97.46409520443576
 30
0.0
 10
193.2635055183054
 20
96.59317223219662
 30
0.0
 10
192.5490782899242
 20
95.55253312707734
 30
0.0
 10
191.7759215279559
 20
94.28950058781408
 30
0.0
 10
190.9913519833983
 20
92.81570846670243
 30
0.0
 10
190.2473739851088
 20
91.15578284043286
 30
0.0
 10
189.8302933386514
 20
90.00861169237182
 30
0.0
 10
189.6141105940241
 20
89.4140058063122
 30
0.0
  0
SPLINE
  5
125
330
1F
100
AcDbEntity
  8
0
  6
Continuous
 62
     7
370
    15
100
AcDbSpline
210
0.0
220
0.0
230
1.0
 70
     8
 71
     3
 72
    25
 73
    21
 74
     0
 42
0.000000001
 43
0.00000001
 40
0.0
 40
0.0
 40
0.0
 40
0.0
 40
0.0765262184744376
 40
0.13855446643935
 40
0.1904917329486338
 40
0.2353316942327631
 40
0.2740540596075967
 40
0.3096935607551133
 40
0.4019397992242306
 40
0.5048574497023431
 40
0.6168851141809026
 40
0.7089235768236777
 40
0.7348637452069227
 40
0.7588768906810179
 40
0.7912448856724803
 40
0.8249365992724239
 40
0.8681903588889825
 40
0.9038763061023994
 40
0.9469533371247932
 40
1.0
 40
1.0
 40
1.0
 40
1.0
 10
201.2212946526562
 20
86.24699716779455
 30
0.0
 10
201.3101386659886
 20
86.48590924761167
 30
0.0
 10
201.4709951032855
 20
86.91847126890163
 30
0.0
 10
201.7284335269346
 20
87.46418829655133
 30
0.0
 10
201.9602647181371
 20
87.89652446564786
 30
0.0
 10
202.1680000620799
 20
88.25690576323171
 30
0.0
 10
202.35395187165
 20
88.57124098818265
 30
0.0
 10
202.6225869625291
 20
89.00968922017081
 30
0.0
 10
203.0355454850866
 20
89.63854598317837
 30
0.0
 10
203.6783405067337
 20
90.46011418564198
 30
0.0
 10
204.3970837138165
 20
91.22577549970914
 30
0.0
 10
204.9624152989462
 20
91.75486480421854
 30
0.0
 10
205.3096188750756
 20
92.06072951295718
 30
0.0
 10
205.5101265228962
 20
92.23236261471725
 30
0.0
 10
205.7278852419129
 20
92.41104872003457
 30
0.0
 10
205.9968229613449
 20
92.6187531024007
 30
0.0
 10
206.2830258795193
 20
92.823023700252
 30
0.0
 10
206.6060602565784
 20
93.0359938424626
 30
0.0
 10
206.9679818640638
 20
93.25959470483319
 30
0.0
 10
207.2456824824315
 20
93.41820826685296
 30
0.0
 10
207.3989338867988
 20
93.505740485089
 30
0.0
  0
SPLINE
  5
126
330
1F
100
AcDbEntity
  8
0
  6
Continuous
 62
     7
370
    15
100
AcDbSpline
210
0.0
220
0.0
230
1.0
 70
     8
 71
     3
 72
    14
 73
    10
 74
     0
 42
0.000000001
 43
0.00000001
 40
0.0
 40
0.0
 40
0.0
 40
0.0
 40
0.1382505141970741
 40
0.2831855184472131
 40
0.4130800372175151
 40
0.5601406095222544
 40
0.6840977327757273
 40
0.8490206330344373
 40
1.0
 40
1.0
 40
1.0
 40
1.0
 10
221.3149718705095
 20
66.60653228916566
 30
0.0
 10
221.1396182976712
 20
66.5613670689952
 30
0.0
 10
220.7804327082056
 20
66.46885286487783
 30
0.0
 10
220.2339572076972
 20
66.3671399066494
 30
0.0
 10
219.6493075948522
 20
66.28701349372633
 30
0.0
 10
219.0783050302325
 20
66.23715440721006
 30
0.0
 10
218.4119443650407
 20
66.20973455222482
 30
0.0
 10
217.7290722169705
 20
66.20715427734856
 30
0.0
 10
217.2445643836294
 20
66.24414481982083
 30
0.0
 10
217.0130032536304
 20
66.26182373278098
 30
0.0
  0
LINE
  5
127
330
1F
100
AcDbEntity
  8
0
  6
Continuous
 62
     7
370
    15
100
AcDbLine
 10
230.0585752479
 20
60.7725847558
 30
0.0
 11
230.2077365052
 21
60.9570702181
 31
0.0
  0
SPLINE
  5
128
330
1F
100
AcDbEntity
  8
0
  6
Continuous
 62
     7
370
    15
100
AcDbSpline
210
0.0
220
0.0
230
1.0
 70
     8
 71
     3
 72
    46
 73
    42
 74
     0
 42
0.000000001
 43
0.00000001
 40
0.0
 40
0.0
 40
0.0
 40
0.0
 40
0.0207470074037756
 40
0.0558300651579461
 40
0.0890249978398891
 40
0.1207211706405386
 40
0.1613220630992556
 40
0.2005199563470396
 40
0.2352777428668477
 40
0.2618199516997495
 40
0.2967179641300346
 40
0.3370497317281567
 40
0.376612866245722
 40
0.4156007023765239
 40
0.4515774616649411
 40
0.4831121219730053
 40
0.5102556078862224
 40
0.5290454755385214
 40
0.5453406676977318
 40
0.5592113507608248
 40
0.5744343540518536
 40
0.5962292628458677
 40
0.6245586192165855
 40
0.6560226850575511
 40
0.6818703547946636
 40
0.7016450109336431
 40
0.7173872558560178
 40
0.733957855164236
 40
0.7544701932621981
 40
0.7790116614203928
 40
0.8064820817245493
 40
0.8314098296404472
 40
0.8530472571676061
 40
0.8671034554751061
 40
0.8792946001072977
 40
0.8901342199204553
 40
0.9053481906519402
 40
0.9266184332941938
 40
0.9540368287523797
 40
0.9875695663377161
 40
1.0
 40
1.0
 40
1.0
 40
1.0
 10
230.4132202961628
 20
61.21121645466034
 30
0.0
 10
230.5638538428549
 20
61.39388862742646
 30
0.0
 10
230.9692077603199
 20
61.88545828417708
 30
0.0
 10
231.51785584769
 20
62.67433601865094
 30
0.0
 10
232.0833440764788
 20
63.55894786181548
 30
0.0
 10
232.6406419828612
 20
64.56041770939686
 30
0.0
 10
233.1657512561112
 20
65.67266042704638
 30
0.0
 10
233.6271106848453
 20
66.8795640345362
 30
0.0
 10
233.957064396724
 20
67.94343779680545
 30
0.0
 10
234.2226514942424
 20
68.95417734162335
 30
0.0
 10
234.4684242995671
 20
70.0617662550475
 30
0.0
 10
234.6771352457133
 20
71.33634061793954
 30
0.0
 10
234.7616037316951
 20
72.67681406200504
 30
0.0
 10
234.7230217455761
 20
73.97235362977086
 30
0.0
 10
234.5774108244342
 20
75.18006812410627
 30
0.0
 10
234.3369488330749
 20
76.24624620017731
 30
0.0
 10
234.0574765879805
 20
77.0995808776444
 30
0.0
 10
233.788405531687
 20
77.76901974690503
 30
0.0
 10
233.5518761861485
 20
78.28509743102815
 30
0.0
 10
233.313303502296
 20
78.75416006828887
 30
0.0
 10
233.0252998995513
 20
79.26915490301859
 30
0.0
 10
232.6224046986995
 20
79.91116518948701
 30
0.0
 10
232.0656089179584
 20
80.67514129036027
 30
0.0
 10
231.4193070476621
 20
81.42049590824097
 30
0.0
 10
230.7912665972322
 20
82.03533344813444
 30
0.0
 10
230.2660133686267
 20
82.48700290758339
 30
0.0
 10
229.8019334599758
 20
82.8459568395313
 30
0.0
 10
229.313040123367
 20
83.18724320277721
 30
0.0
 10
228.7246535747708
 20
83.54922318932695
 30
0.0
 10
228.011378288053
 20
83.92016188555239
 30
0.0
 10
227.2377336885158
 20
84.241562839121
 30
0.0
 10
226.4834223336674
 20
84.4757886811939
 30
0.0
 10
225.8621502077381
 20
84.6114809501389
 30
0.0
 10
225.3699168768607
 20
84.68437321239993
 30
0.0
 10
224.9873448690032
 20
84.7208309125585
 30
0.0
 10
224.589638749041
 20
84.73996761678089
 30
0.0
 10
224.086073416555
 20
84.73560654539806
 30
0.0
 10
223.4118947036849
 20
84.6764115375752
 30
0.0
 10
222.5722372775002
 20
84.50112481004348
 30
0.0
 10
221.8460899439779
 20
84.26669064478676
 30
0.0
 10
221.4539606835085
 20
84.02213197009988
 30
0.0
 10
221.3479119356306
 20
83.95599270468988
 30
0.0
  0
LINE
  5
129
330
1F
100
AcDbEntity
  8
0
  6
Continuous
 62
     7
370
    15
100
AcDbLine
 10
220.6904685661
 20
83.5663516968
 30
0.0
 11
220.6481862822
 21
83.5412926385
 31
0.0
  0
SPLINE
  5
12A
330
1F
100
AcDbEntity
  8
0
  6
Continuous
 62
     7
370
    15
100
AcDbSpline
210
0.0
220
0.0
230
1.0
 70
     8
 71
     3
 72
    37
 73
    33
 74
     0
 42
0.000000001
 43
0.00000001
 40
0.0
 40
0.0
 40
0.0
 40
0.0
 40
0.0420290159398367
 40
0.0775850818215229
 40
0.10739741439653
 40
0.1317248896810799
 40
0.1521282315263356
 40
0.1813311171648161
 40
0.2140418149743847
 40
0.250167178694111
 40
0.2766606205143045
 40
0.3013206855632312
 40
0.3220749835807187
 40
0.3389630531480523
 40
0.3520083813003707
 40
0.3653498123436049
 40
0.3818080665246679
 40
0.4017714830477089
 40
0.4240433817993091
 40
0.4546691860706002
 40
0.4863218175208757
 40
0.518974118843302
 40
0.552595080244718
 40
0.5889881471721965
 40
0.6308255044877009
 40
0.6781732093179367
 40
0.7311280248637755
 40
0.7898142131506316
 40
0.8376426807197875
 40
0.888745349135441
 40
0.9429611190253769
 40
1.0
 40
1.0
 40
1.0
 40
1.0
 10
189.51141535563
 20
88.97336672211978
 30
0.0
 10
189.4573449652741
 20
88.46835682192163
 30
0.0
 10
189.3575316442606
 20
87.53611433297922
 30
0.0
 10
189.2950259761774
 20
86.2203427398386
 30
0.0
 10
189.2894969579431
 20
85.11020431974036
 30
0.0
 10
189.3220478940604
 20
84.1802140666266
 30
0.0
 10
189.3855381221859
 20
83.25365591813508
 30
0.0
 10
189.4941625841523
 20
82.21953966333014
 30
0.0
 10
189.678083299356
 20
80.98480143741237
 30
0.0
 10
189.9145279215711
 20
79.78282141053472
 30
0.0
 10
190.1779080306137
 20
78.68342064577146
 30
0.0
 10
190.4260480758306
 20
77.77926927655403
 30
0.0
 10
190.66475085288
 20
76.99825469513254
 30
0.0
 10
190.8746879122701
 20
76.36522476708289
 30
0.0
 10
191.0643867801712
 20
75.82696403188768
 30
0.0
 10
191.2608025210337
 20
75.29725416087783
 30
0.0
 10
191.5007787315554
 20
74.6844728712494
 30
0.0
 10
191.8008110896089
 20
73.96545308474688
 30
0.0
 10
192.1973180686388
 20
73.07912811938483
 30
0.0
 10
192.6913909020182
 20
72.06155492823018
 30
0.0
 10
193.2896476772658
 20
70.93474080764736
 30
0.0
 10
193.9517883578611
 20
69.79092451241212
 30
0.0
 10
194.693440632687
 20
68.61372968988846
 30
0.0
 10
195.5545883302066
 20
67.35987257906876
 30
0.0
 10
196.585973029654
 20
65.99169398308462
 30
0.0
 10
197.8330372757405
 20
64.49838583539719
 30
0.0
 10
199.3216098807701
 20
62.90478510445088
 30
0.0
 10
200.9105283709432
 20
61.40083486133005
 30
0.0
 10
202.5607607602354
 20
60.01213115270233
 30
0.0
 10
204.2303604069161
 20
58.76089329367654
 30
0.0
 10
206.0604275420135
 20
57.53871433018276
 30
0.0
 10
207.3611807050162
 20
56.81509698967017
 30
0.0
 10
208.028060734438
 20
56.44410734531888
 30
0.0
  0
SPLINE
  5
12B
330
1F
100
AcDbEntity
  8
0
  6
Continuous
 62
     7
370
    15
100
AcDbSpline
210
0.0
220
0.0
230
1.0
 70
     8
 71
     3
 72
    30
 73
    26
 74
     0
 42
0.000000001
 43
0.00000001
 40
0.0
 40
0.0
 40
0.0
 40
0.0
 40
0.0047520533414883
 40
0.0823867503980036
 40
0.1524447078028087
 40
0.2134233775594522
 40
0.2765933058644871
 40
0.3301943039207715
 40
0.3795220740389027
 40
0.4268035253399262
 40
0.4718468106510588
 40
0.5145270808432035
 40
0.554913724454245
 40
0.5932532334199139
 40
0.6316817088946688
 40
0.6793833032856851
 40
0.7274562316421753
 40
0.7812089717119454
 40
0.8344536202205237
 40
0.8591596400510143
 40
0.8828569044895032
 40
0.9077109691921097
 40
0.9362622994690901
 40
0.9712667192408877
 40
1.0
 40
1.0
 40
1.0
 40
1.0
 10
209.405009535004
 20
69.97197690024183
 30
0.0
 10
209.3797974886303
 20
69.99299854667215
 30
0.0
 10
208.9426941098693
 20
70.35745260746513
 30
0.0
 10
208.1583211234849
 20
71.0682442855827
 30
0.0
 10
207.1328241513691
 20
72.09513212960067
 30
0.0
 10
206.2475525754264
 20
73.11422460723004
 30
0.0
 10
205.4968455770808
 20
74.08822250118706
 30
0.0
 10
204.8474370776335
 20
75.0245827582322
 30
0.0
 10
204.2990366421902
 20
75.886438382263
 30
0.0
 10
203.8172025198219
 20
76.71030895530062
 30
0.0
 10
203.3914287911792
 20
77.50275712518467
 30
0.0
 10
203.018647336238
 20
78.25883419712355
 30
0.0
 10
202.6969254772414
 20
78.97669594522469
 30
0.0
 10
202.4198139379644
 20
79.66809270007191
 30
0.0
 10
202.1624918971718
 20
80.39753147147502
 30
0.0
 10
201.926995431712
 20
81.19190023951076
 30
0.0
 10
201.719009593703
 20
82.07605539205869
 30
0.0
 10
201.5425422979343
 20
82.9952814273264
 30
0.0
 10
201.4221761184075
 20
83.74907938288925
 30
0.0
 10
201.3365710347855
 20
84.30498850924867
 30
0.0
 10
201.2800955997504
 20
84.69051053463677
 30
0.0
 10
201.24204465838
 20
85.0832927225424
 30
0.0
 10
201.2320036367275
 20
85.526154373206
 30
0.0
 10
201.2512057931338
 20
85.98683763632347
 30
0.0
 10
201.2855599555083
 20
86.3074716805823
 30
0.0
 10
201.3010469872733
 20
86.45201514446441
 30
0.0
  0
SPLINE
  5
12C
330
1F
100
AcDbEntity
  8
0
  6
Continuous
 62
     7
370
    15
100
AcDbSpline
210
0.0
220
0.0
230
1.0
 70
     8
 71
     3
 72
    12
 73
     8
 74
     0
 42
0.000000001
 43
0.00000001
 40
0.0
 40
0.0
 40
0.0
 40
0.0
 40
0.1548565490747316
 40
0.4095713585665464
 40
0.6646282032234926
 40
0.9193842532213803
 40
1.0
 40
1.0
 40
1.0
 40
1.0
 10
208.0281967378704
 20
56.44403509519631
 30
0.0
 10
208.2296718071175
 20
56.34013136648965
 30
0.0
 10
208.7625418621578
 20
56.06532225069319
 30
0.0
 10
209.6501161445408
 20
55.67772969561832
 30
0.0
 10
210.6911796835444
 20
55.30190597159473
 30
0.0
 10
211.5083992321488
 20
55.06881085287329
 30
0.0
 10
211.9762162083581
 20
54.9620533923672
 30
0.0
 10
212.0886687617788
 20
54.93639132869456
 30
0.0
  0
SPLINE
  5
12D
330
1F
100
AcDbEntity
  8
0
  6
Continuous
 62
     7
370
    15
100
AcDbSpline
210
0.0
220
0.0
230
1.0
 70
     8
 71
     3
 72
    26
 73
    22
 74
     0
 42
0.000000001
 43
0.00000001
 40
0.0
 40
0.0
 40
0.0
 40
0.0
 40
0.0106759308569146
 40
0.0708572063580204
 40
0.1246840373794188
 40
0.1724534557743247
 40
0.2146758563538817
 40
0.2568982569334388
 40
0.3046676753283447
 40
0.3584945063497431
 40
0.4186757818508489
 40
0.4713910510636715
 40
0.5278440872089878
 40
0.5874663601847764
 40
0.6494059431536635
 40
0.7125727589384281
 40
0.7757395747231929
 40
0.8376791576920799
 40
0.8973014306678688
 40
0.9537544668131842
 40
1.0
 40
1.0
 40
1.0
 40
1.0
 10
262.1543817323733
 20
96.34508342520328
 30
0.0
 10
262.1422606966878
 20
96.35670846362407
 30
0.0
 10
262.0618121870121
 20
96.43386499052001
 30
0.0
 10
261.8309167562052
 20
96.40817388916285
 30
0.0
 10
261.4811414718332
 20
96.26236762741182
 30
0.0
 10
261.110658118217
 20
95.99720898094088
 30
0.0
 10
260.735457826945
 20
95.6599969160431
 30
0.0
 10
260.3326405119637
 20
95.2380090843149
 30
0.0
 10
259.871103405412
 20
94.69009782390017
 30
0.0
 10
259.3346480541176
 20
93.9754283273717
 30
0.0
 10
258.7784522348281
 20
93.14718244047053
 30
0.0
 10
258.2299337517896
 20
92.24316542056455
 30
0.0
 10
257.714040525635
 20
91.30646535182568
 30
0.0
 10
257.2224423175484
 20
90.31097706519542
 30
0.0
 10
256.7877199975468
 20
89.3068475099929
 30
0.0
 10
256.4408099743435
 20
88.35310092502411
 30
0.0
 10
256.2050097745715
 20
87.50796137749381
 30
0.0
 10
256.0898010688401
 20
86.81522075311968
 30
0.0
 10
256.0947347280156
 20
86.30597453639383
 30
0.0
 10
256.1897645464034
 20
85.9768381119066
 30
0.0
 10
256.3206868435218
 20
85.88989561497573
 30
0.0
 10
256.3796416223045
 20
85.85074509756048
 30
0.0
  0
SPLINE
  5
12E
330
1F
100
AcDbEntity
  8
0
  6
Continuous
 62
     7
370
    15
100
AcDbSpline
210
0.0
220
0.0
230
1.0
 70
     8
 71
     3
 72
    26
 73
    22
 74
     0
 42
0.000000001
 43
0.00000001
 40
0.0
 40
0.0
 40
0.0
 40
0.0
 40
0.0510710181792937
 40
0.1050394835569769
 40
0.1529160533040513
 40
0.1952259292503518
 40
0.2375358051966523
 40
0.2854123749437267
 40
0.3393808403214099
 40
0.3997585624830756
 40
0.452685691374088
 40
0.5094085840525087
 40
0.5693601299432066
 40
0.6316788915277651
 40
0.6952536535026256
 40
0.7588284154774869
 40
0.8211471770620454
 40
0.8810987229527428
 40
0.9378216156311635
 40
0.9907487445221765
 40
1.0
 40
1.0
 40
1.0
 40
1.0
 10
287.9542545862365
 20
65.55483583606885
 30
0.0
 10
287.9838913916455
 20
65.42218306508111
 30
0.0
 10
288.0448464077274
 20
65.14935164221745
 30
0.0
 10
287.9131801168071
 20
64.71530866706462
 30
0.0
 10
287.664769567319
 20
64.29930986684089
 30
0.0
 10
287.3232005211417
 20
63.91601692271573
 30
0.0
 10
286.8859222548816
 20
63.53955024309782
 30
0.0
 10
286.3066803233986
 20
63.14527422171148
 30
0.0
 10
285.5396754682781
 20
62.73197733356474
 30
0.0
 10
284.6392018574772
 20
62.35392016585838
 30
0.0
 10
283.6460798973246
 20
62.03147235273909
 30
0.0
 10
282.6077403134542
 20
61.77812944099556
 30
0.0
 10
281.494304609868
 20
61.59616443128324
 30
0.0
 10
280.3604066743896
 20
61.50674290049759
 30
0.0
 10
279.2719767693886
 20
61.52344814600512
 30
0.0
 10
278.293991387379
 20
61.64828629704113
 30
0.0
 10
277.4813370184416
 20
61.87143360582448
 30
0.0
 10
276.8580526766908
 20
62.17123857723446
 30
0.0
 10
276.4559528657659
 20
62.52734126810207
 30
0.0
 10
276.2466565518329
 20
62.80455340930463
 30
0.0
 10
276.2296852673424
 20
62.96947520570187
 30
0.0
 10
276.2271601826172
 20
62.99401321336837
 30
0.0
  0
LWPOLYLINE
  5
12F
330
1F
100
AcDbEntity
  8
0
  6
Continuous
 62
     7
370
    15
100
AcDbPolyline
 90
       28
 70
   128
 43
0.0
 10
237.163526136
 20
93.5436310156
 10
237.1363242878
 20
93.5520051898
 10
236.8677266829
 20
93.6868238459
 10
236.6277259479
 20
93.9071690505
 10
236.4199602492
 20
94.209700595
 10
236.247579103
 20
94.5898324096
 10
236.1131956318
 20
95.0418020833
 10
236.018846952
 20
95.5587582167
 10
235.9659632935
 20
96.1328642818
 10
235.9553463185
 20
96.7554174158
 10
235.9871569696
 20
97.4169803477
 10
236.0609130298
 20
98.107524458
 10
236.1754964323
 20
98.8165818018
 10
236.3291702097
 20
99.5334037925
 10
236.519604824
 20
100.2471241394
 10
236.7439134806
 20
100.9469235697
 10
236.998695889
 20
101.6221938372
 10
237.2800898075
 20
102.2626985331
 10
237.5838295912
 20
102.8587282591
 10
237.9053108546
 20
103.4012478121
 10
238.2396602694
 20
103.8820331486
 10
238.5818094393
 20
104.2937960531
 10
238.9265717317
 20
104.6302946196
 10
239.2687209016
 20
104.8864278729
 10
239.6030703164
 20
105.058313094
 10
239.9245515798
 20
105.1433446781
 10
240.2282913635
 20
105.1402336331
 10
240.3447314748
 20
105.1139972593
  0
SPLINE
  5
130
330
1F
100
AcDbEntity
  8
0
  6
Continuous
 62
     7
370
    15
100
AcDbSpline
210
0.0
220
0.0
230
1.0
 70
     8
 71
     3
 72
    14
 73
    10
 74
     0
 42
0.000000001
 43
0.00000001
 40
0.0
 40
0.0
 40
0.0
 40
0.0
 40
0.1550101336296394
 40
0.3123711579601708
 40
0.4726755851831951
 40
0.6334959860273506
 40
0.8031451901890008
 40
0.9701131367051955
 40
0.9999999999999999
 40
0.9999999999999999
 40
0.9999999999999999
 40
0.9999999999999999
 10
264.2870011365933
 20
51.93568067118416
 30
0.0
 10
263.7692565970507
 20
51.9033363981562
 30
0.0
 10
262.7259153808505
 20
51.83815731739194
 30
0.0
 10
261.1239673996805
 20
51.92780805920781
 30
0.0
 10
259.5191242928127
 20
52.24333366472339
 30
0.0
 10
257.9003262660975
 20
52.70880249974826
 30
0.0
 10
256.3522743242577
 20
53.40696524461379
 30
0.0
 10
255.251933544296
 20
54.00747217133726
 30
0.0
 10
254.7077310039295
 20
54.35693998280006
 30
0.0
 10
254.6251091622573
 20
54.40999683580331
 30
0.0
  0
SPLINE
  5
131
330
1F
100
AcDbEntity
  8
0
  6
Continuous
 62
     7
370
    15
100
AcDbSpline
210
0.0
220
0.0
230
1.0
 70
     8
 71
     3
 72
    10
 73
     6
 74
     0
 42
0.000000001
 43
0.00000001
 40
0.0
 40
0.0
 40
0.0
 40
0.0
 40
0.0831342935032596
 40
0.5405775509508844
 40
1.0
 40
1.0
 40
1.0
 40
1.0
 10
249.6222496980346
 20
61.10080093767098
 30
0.0
 10
249.6159698967743
 20
61.13109946771648
 30
0.0
 10
249.5751357302389
 20
61.32811449580193
 30
0.0
 10
249.6565767030107
 20
61.63922395379931
 30
0.0
 10
249.8179172635986
 20
61.8475097941682
 30
0.0
 10
249.8987616827442
 20
61.95187752240416
 30
0.0
  0
SPLINE
  5
132
330
1F
100
AcDbEntity
  8
0
  6
Continuous
 62
     7
370
    15
100
AcDbSpline
210
0.0
220
0.0
230
1.0
 70
     8
 71
     3
 72
    10
 73
     6
 74
     0
 42
0.000000001
 43
0.00000001
 40
0.0
 40
0.0
 40
0.0
 40
0.0
 40
0.1444704047186388
 40
0.52585836227668
 40
1.0
 40
1.0
 40
1.0
 40
1.0
 10
250.9016931985724
 20
58.77508147839751
 30
0.0
 10
250.8998604122448
 20
58.78333038959921
 30
0.0
 10
250.8931892464895
 20
58.81335563209464
 30
0.0
 10
250.9039468402221
 20
58.86591906785704
 30
0.0
 10
250.9318590932625
 20
58.89284029479658
 30
0.0
 10
250.947328296715
 20
58.90776026331788
 30
0.0
  0
SPLINE
  5
133
330
1F
100
AcDbEntity
  8
0
  6
Continuous
 62
     7
370
    15
100
AcDbSpline
210
0.0
220
0.0
230
1.0
 70
     8
 71
     3
 72
    18
 73
    14
 74
     0
 42
0.000000001
 43
0.00000001
 40
0.0
 40
0.0
 40
0.0
 40
0.0
 40
0.019231869126156
 40
0.070423878997475
 40
0.1735762490594576
 40
0.2449343304991145
 40
0.3270818746322268
 40
0.4075188419481226
 40
0.4919338363330418
 40
0.5876991906417491
 40
0.6822712036014453
 40
0.835227675297462
 40
1.0
 40
1.0
 40
1.0
 40
1.0
 10
251.9585627475735
 20
57.54107758974358
 30
0.0
 10
251.9583584496593
 20
57.53189412161698
 30
0.0
 10
251.9576103449642
 20
57.49826580167143
 30
0.0
 10
251.9353405742826
 20
57.40229699889137
 30
0.0
 10
251.882943501834
 20
57.28889472862411
 30
0.0
 10
251.7784629962699
 20
57.18846362568429
 30
0.0
 10
251.6573030393562
 20
57.14081585710571
 30
0.0
 10
251.5228592042344
 20
57.11337421020863
 30
0.0
 10
251.3796870816173
 20
57.12979385820162
 30
0.0
 10
251.2492425888583
 20
57.19365755433257
 30
0.0
 10
251.1157784832895
 20
57.286556190874
 30
0.0
 10
251.0358790245687
 20
57.43279599844347
 30
0.0
 10
251.0645741877035
 20
57.50679604359327
 30
0.0
 10
251.0794553341121
 20
57.54517204100247
 30
0.0
  0
LWPOLYLINE
  5
134
330
1F
100
AcDbEntity
  8
0
  6
Continuous
 62
     7
370
    15
100
AcDbPolyline
 90
       22
 70
   128
 43
0.0
 10
264.2870012393
 20
51.9356807792
 10
263.9387482227
 20
51.5326683095
 10
263.5936134959
 20
51.060167552
 10
263.2568870116
 20
50.5254206256
 10
262.9337298477
 20
49.9366237092
 10
262.6290951022
 20
49.3028014175
 10
262.3476519763
 20
48.6336684785
 10
262.0937142081
 20
47.939480834
 10
261.8711739553
 20
47.2308784445
 10
261.6834421395
 20
46.5187222084
 10
261.5333961657
 20
45.8139274946
 10
261.4233358203
 20
45.1272968406
 10
261.3549480213
 20
44.4693543792
 10
261.3292809632
 20
43.8501845334
 10
261.3467280502
 20
43.2792774501
 10
261.4070218672
 20
42.7653835427
 10
261.5092382781
 20
42.3163793716
 10
261.6518105904
 20
41.9391469184
 10
261.8325535682
 20
41.6394681046
 10
262.0486969257
 20
41.4219361707
 10
262.2969277881
 20
41.2898852744
 10
262.3464013715
 20
41.2749200511
  0
SPLINE
  5
135
330
1F
100
AcDbEntity
  8
0
  6
Continuous
 62
     7
370
    15
100
AcDbSpline
210
0.0
220
0.0
230
1.0
 70
     8
 71
     3
 72
    32
 73
    28
 74
     0
 42
0.000000001
 43
0.00000001
 40
0.0
 40
0.0
 40
0.0
 40
0.0
 40
0.0342741084464696
 40
0.0686912161837994
 40
0.1042014851277588
 40
0.1403364427849103
 40
0.1763364759313849
 40
0.2136831659158587
 40
0.2515437914906771
 40
0.2891981772777152
 40
0.3281885880620523
 40
0.3676791291248427
 40
0.4067752022180145
 40
0.4474045138284757
 40
0.4841106882746997
 40
0.5187961677736819
 40
0.5555283394241204
 40
0.5927301585573547
 40
0.6442588889467006
 40
0.6961043617445591
 40
0.7476130412114185
 40
0.8063157007467694
 40
0.8669816755087179
 40
0.9074659690754944
 40
0.9483155342921694
 40
0.9896495479143562
 40
1.0
 40
1.0
 40
1.0
 40
1.0
 10
250.4522709005149
 20
58.31998034664454
 30
0.0
 10
250.3628924817344
 20
58.25178644159922
 30
0.0
 10
250.1837627373036
 20
58.11511411119559
 30
0.0
 10
250.0768544189905
 20
57.76206598686563
 30
0.0
 10
250.1063313372287
 20
57.3451826002179
 30
0.0
 10
250.3026096478943
 20
56.89957514749159
 30
0.0
 10
250.6382460478885
 20
56.48547998322672
 30
0.0
 10
251.087484989444
 20
56.1454087666205
 30
0.0
 10
251.6114660709298
 20
55.93612155473974
 30
0.0
 10
252.1537209948646
 20
55.87951249760402
 30
0.0
 10
252.6625646224452
 20
55.98750092664809
 30
0.0
 10
253.0745815406822
 20
56.26948132831092
 30
0.0
 10
253.3675726431927
 20
56.68781085832938
 30
0.0
 10
253.4696403908166
 20
57.19459728018656
 30
0.0
 10
253.4751752456474
 20
57.72048287163465
 30
0.0
 10
253.3837122013221
 20
58.23681956073379
 30
0.0
 10
253.2344784225239
 20
58.74829798387441
 30
0.0
 10
252.9639107346405
 20
59.31379580319421
 30
0.0
 10
252.5565395414093
 20
59.89030859961478
 30
0.0
 10
252.0024357134675
 20
60.40645371215653
 30
0.0
 10
251.3662187878743
 20
60.80167467959937
 30
0.0
 10
250.6737781019556
 20
61.03986798735077
 30
0.0
 10
250.0574502595051
 20
61.0575131054737
 30
0.0
 10
249.5764473717082
 20
60.9299239881219
 30
0.0
 10
249.2298204853658
 20
60.71779195207547
 30
0.0
 10
248.9957658224779
 20
60.51773680056584
 30
0.0
 10
248.9250348141743
 20
60.35343007686102
 30
0.0
 10
248.9108700568842
 20
60.32052562776272
 30
0.0
  0
SPLINE
  5
136
330
1F
100
AcDbEntity
  8
0
  6
Continuous
 62
     7
370
    15
100
AcDbSpline
210
0.0
220
0.0
230
1.0
 70
     8
 71
     3
 72
    28
 73
    24
 74
     0
 42
0.000000001
 43
0.00000001
 40
0.0
 40
0.0
 40
0.0
 40
0.0
 40
0.0438935844893384
 40
0.0923350739887054
 40
0.1289024364361158
 40
0.1661487219211439
 40
0.2032200883469326
 40
0.2437708877904653
 40
0.2785757233704934
 40
0.3080209950916641
 40
0.3371663007396345
 40
0.3668718003858609
 40
0.4266341745287386
 40
0.4867079187963056
 40
0.5472737525201928
 40
0.6086567512186217
 40
0.6706157276156737
 40
0.7328543139468094
 40
0.7957240320536402
 40
0.859498030351022
 40
0.9234875602851031
 40
0.9879268732429797
 40
1.0
 40
1.0
 40
1.0
 40
1.0
 10
256.654812895095
 20
55.33098102664793
 30
0.0
 10
256.8991932950461
 20
55.54215284243828
 30
0.0
 10
257.4132748532828
 20
55.98637642231172
 30
0.0
 10
257.8672051433123
 20
56.84787725872645
 30
0.0
 10
258.1241248126639
 20
57.751449938005
 30
0.0
 10
258.1894308459956
 20
58.63212466248917
 30
0.0
 10
258.1121136186356
 20
59.57847665640222
 30
0.0
 10
257.8337436130987
 20
60.49203421464871
 30
0.0
 10
257.4839029595018
 20
61.33141102251625
 30
0.0
 10
257.0780365434604
 20
62.03853296244196
 30
0.0
 10
256.6731341961727
 20
62.69040399185313
 30
0.0
 10
256.0967221032477
 20
63.54520272945581
 30
0.0
 10
255.2647863333807
 20
64.53385229865032
 30
0.0
 10
254.1508914268126
 20
65.56945106240607
 30
0.0
 10
252.9470592641078
 20
66.44114319198374
 30
0.0
 10
251.6800456155819
 20
67.12068900028733
 30
0.0
 10
250.3880899527863
 20
67.58459124443306
 30
0.0
 10
249.1095365285378
 20
67.82947856332771
 30
0.0
 10
247.8790332476936
 20
67.84156532897927
 30
0.0
 10
246.7252585082363
 20
67.62566189823033
 30
0.0
 10
245.7096203757
 20
67.16589992352112
 30
0.0
 10
245.0386425168561
 20
66.71793007000619
 30
0.0
 10
244.7694487109728
 20
66.37807408938886
 30
0.0
 10
244.726971815023
 20
66.32444719749505
 30
0.0
  0
LINE
  5
137
330
1F
100
AcDbEntity
  8
0
  6
Continuous
 62
     7
370
    15
100
AcDbLine
 10
251.0794553341
 20
57.545172041
 30
0.0
 11
250.4522709005
 21
58.3199803466
 31
0.0
  0
SPLINE
  5
138
330
1F
100
AcDbEntity
  8
0
  6
Continuous
 62
     7
370
    15
100
AcDbSpline
210
0.0
220
0.0
230
1.0
 70
     8
 71
     3
 72
    28
 73
    24
 74
     0
 42
0.000000001
 43
0.00000001
 40
0.0
 40
0.0
 40
0.0
 40
0.0
 40
0.0246638986810039
 40
0.0746250776920663
 40
0.1123395908413089
 40
0.1507543644271899
 40
0.1889886149715737
 40
0.2308118360754013
 40
0.2667079589199987
 40
0.2970748905545809
 40
0.327132296242955
 40
0.3577675885583149
 40
0.4194005594220634
 40
0.4813546695081212
 40
0.5438163174864418
 40
0.6071208752940915
 40
0.6710195153041267
 40
0.7352065096437512
 40
0.8000444744585937
 40
0.865815175164151
 40
0.9318081205711943
 40
0.9982649432295859
 40
1.0
 40
1.0
 40
1.0
 40
1.0
 10
267.097456920346
 20
65.52501542155426
 30
0.0
 10
267.2016980541308
 20
65.61609754457393
 30
0.0
 10
267.5170984216076
 20
65.89168294956657
 30
0.0
 10
267.7643461660379
 20
66.51602574592766
 30
0.0
 10
267.8893253144004
 20
67.28334709751591
 30
0.0
 10
267.8372913362899
 20
68.05104921961625
 30
0.0
 10
267.6287421526376
 20
68.86856154998723
 30
0.0
 10
267.2544778715048
 20
69.6881224105033
 30
0.0
 10
266.7867376216349
 20
70.41199932292666
 30
0.0
 10
266.245166869257
 20
70.9865196340368
 30
0.0
 10
265.7163465377158
 20
71.51723610377653
 30
0.0
 10
264.9784262237335
 20
72.21407120362369
 30
0.0
 10
263.9421670751832
 20
73.00286929930381
 30
0.0
 10
262.5831956035423
 20
73.79873081695737
 30
0.0
 10
261.1342748065313
 20
74.430648760174
 30
0.0
 10
259.6235211710763
 20
74.87173428587634
 30
0.0
 10
258.0881886398862
 20
75.09749508591102
 30
0.0
 10
256.564755030275
 20
75.10300590693939
 30
0.0
 10
255.0899449716932
 20
74.87560226499849
 30
0.0
 10
253.6930634507073
 20
74.42418830719632
 30
0.0
 10
252.4374795713944
 20
73.72173254284284
 30
0.0
 10
251.6409783078435
 20
73.1565701895109
 30
0.0
 10
251.3222589910064
 20
72.78602276051318
 30
0.0
 10
251.3141495780796
 20
72.7765946463326
 30
0.0
  0
SPLINE
  5
139
330
1F
100
AcDbEntity
  8
0
  6
Continuous
 62
     7
370
    15
100
AcDbSpline
210
0.0
220
0.0
230
1.0
 70
     8
 71
     3
 72
    26
 73
    22
 74
     0
 42
0.000000001
 43
0.00000001
 40
0.0
 40
0.0
 40
0.0
 40
0.0
 40
0.013006372474102
 40
0.0664520140332569
 40
0.1138831401942691
 40
0.1558065312674863
 40
0.1977299223407035
 40
0.2451610485017157
 40
0.2986066900608706
 40
0.358361775358874
 40
0.4107037269391715
 40
0.4667569754305997
 40
0.525957016932937
 40
0.5874579577622919
 40
0.6501774404218522
 40
0.7128969230814144
 40
0.7743978639107679
 40
0.8335979054131061
 40
0.8896511539045338
 40
0.9419931054848314
 40
1.0
 40
1.0
 40
1.0
 40
1.0
 10
218.2834522598531
 20
108.2308619579745
 30
0.0
 10
218.2400319998147
 20
108.2384105616747
 30
0.0
 10
218.0181896886599
 20
108.2769778040026
 30
0.0
 10
217.6370810190636
 20
108.1672519244897
 30
0.0
 10
217.175767782568
 20
107.9402049317226
 30
0.0
 10
216.7729698272696
 20
107.6074439246554
 30
0.0
 10
216.3974977832401
 20
107.1788278559777
 30
0.0
 10
216.0282714937867
 20
106.6055796943474
 30
0.0
 10
215.6728598793028
 20
105.8417861238898
 30
0.0
 10
215.3870609725201
 20
104.9400280578762
 30
0.0
 10
215.1878333680149
 20
103.9410876265324
 30
0.0
 10
215.0823689188334
 20
102.8928384613765
 30
0.0
 10
215.0793695053969
 20
101.7645668784222
 30
0.0
 10
215.1940287173531
 20
100.6110998410131
 30
0.0
 10
215.4299806670772
 20
99.49904817911953
 30
0.0
 10
215.776850710129
 20
98.49516324760441
 30
0.0
 10
216.2115805880179
 20
97.65436440690428
 30
0.0
 10
216.7031870051585
 20
97.00791176188625
 30
0.0
 10
217.2190433923963
 20
96.56928772432565
 30
0.0
 10
217.7619930991636
 20
96.2916686921219
 30
0.0
 10
218.1322207389475
 20
96.26660712367072
 30
0.0
 10
218.3268376869939
 20
96.25343305063808
 30
0.0
  0
SPLINE
  5
13A
330
1F
100
AcDbEntity
  8
0
  6
Continuous
 62
     7
370
    15
100
AcDbSpline
210
0.0
220
0.0
230
1.0
 70
     8
 71
     3
 72
    13
 73
     9
 74
     0
 42
0.000000001
 43
0.00000001
 40
0.0
 40
0.0
 40
0.0
 40
0.0
 40
0.1247274657040536
 40
0.3095899706747482
 40
0.4848531570138315
 40
0.6595544731313353
 40
0.8310555764140773
 40
1.0
 40
1.0
 40
1.0
 40
1.0
 10
258.2442325460961
 20
56.82773060156072
 30
0.0
 10
258.4662338467183
 20
56.52587018935741
 30
0.0
 10
259.0172702664951
 20
55.77661295371669
 30
0.0
 10
260.0007215592876
 20
54.75852118076984
 30
0.0
 10
261.1074136282239
 20
53.79525142741845
 30
0.0
 10
262.2315042456817
 20
53.01126774004562
 30
0.0
 10
263.342718076557
 20
52.44379876260714
 30
0.0
 10
264.0573158516561
 20
52.18886696917054
 30
0.0
 10
264.4119314940478
 20
52.06235831654698
 30
0.0
  0
SPLINE
  5
13B
330
1F
100
AcDbEntity
  8
0
  6
Continuous
 62
     7
370
    15
100
AcDbSpline
210
0.0
220
0.0
230
1.0
 70
     8
 71
     3
 72
     9
 73
     5
 74
     0
 42
0.000000001
 43
0.00000001
 40
0.0
 40
0.0
 40
0.0
 40
0.0
 40
0.4999999999999999
 40
1.0
 40
1.0
 40
1.0
 40
1.0
 10
264.4117016964082
 20
52.06213404316986
 30
0.0
 10
264.3909558187909
 20
52.0418854306211
 30
0.0
 10
264.3494196821659
 20
52.00055442542271
 30
0.0
 10
264.3078153013931
 20
51.95757627733776
 30
0.0
 10
264.2870011878867
 20
51.93568072514259
 30
0.0
  0
LINE
  5
13C
330
1F
100
AcDbEntity
  8
0
  6
Continuous
 62
     7
370
    15
100
AcDbLine
 10
251.7635467679
 20
58.2128662522
 30
0.0
 11
251.0794553341
 21
57.545172041
 31
0.0
  0
ARC
  5
13D
330
1F
100
AcDbEntity
  8
0
  6
Continuous
 62
     7
370
    15
100
AcDbCircle
 10
265.7156568579
 20
51.1241899764
 30
0.0
 40
1.606249711480081
100
AcDbArc
 50
80.0696264372
 51
144.2722714648
  0
SPLINE
  5
13E
330
1F
100
AcDbEntity
  8
0
  6
Continuous
 62
     7
370
    15
100
AcDbSpline
210
0.0
220
0.0
230
1.0
 70
     8
 71
     3
 72
    33
 73
    29
 74
     0
 42
0.000000001
 43
0.00000001
 40
0.0
 40
0.0
 40
0.0
 40
0.0
 40
0.0167449316823108
 40
0.0359237547999028
 40
0.0554713118500203
 40
0.0947976548705273
 40
0.1343289082018124
 40
0.1741840078278211
 40
0.2145769455722755
 40
0.2553489512108447
 40
0.2963049480008701
 40
0.3376763115636776
 40
0.3796428288416431
 40
0.421751154493319
 40
0.4641554677576359
 40
0.5069737618835174
 40
0.550301526692089
 40
0.5925338493616609
 40
0.633138000931954
 40
0.6693446786417204
 40
0.7029899714982093
 40
0.7371642985728393
 40
0.7720123136602306
 40
0.8065135537555197
 40
0.8540664111509096
 40
0.9042904710560801
 40
0.9577734995493249
 40
1.0
 40
1.0
 40
1.0
 40
1.0
 10
220.1558704882038
 20
83.15125933794567
 30
0.0
 10
220.2619245440078
 20
83.24424581230417
 30
0.0
 10
220.4894477115263
 20
83.44373443178243
 30
0.0
 10
220.8820466911493
 20
83.70103262467457
 30
0.0
 10
221.458036405942
 20
84.04268628316264
 30
0.0
 10
222.2925026112394
 20
84.32211446932253
 30
0.0
 10
223.4080572979303
 20
84.44575853972552
 30
0.0
 10
224.6138696504692
 20
84.35609766680936
 30
0.0
 10
225.882683047827
 20
84.04176394176352
 30
0.0
 10
227.1765092489333
 20
83.49867128249258
 30
0.0
 10
228.4566187901949
 20
82.74202442158538
 30
0.0
 10
229.6898226177741
 20
81.77946031954212
 30
0.0
 10
230.8418675256584
 20
80.63218958119657
 30
0.0
 10
231.8723882021201
 20
79.32013748524773
 30
0.0
 10
232.7488937941638
 20
77.87530223679096
 30
0.0
 10
233.4549248482135
 20
76.33038467949261
 30
0.0
 10
233.9555561848518
 20
74.73031492006007
 30
0.0
 10
234.1975710228868
 20
73.14446637033262
 30
0.0
 10
234.2565792279474
 20
71.66461086360255
 30
0.0
 10
234.1712279736335
 20
70.30525879284544
 30
0.0
 10
233.9604645740317
 20
69.05456241309888
 30
0.0
 10
233.6873368597626
 20
67.8498976736341
 30
0.0
 10
233.3564806288107
 20
66.66163625362559
 30
0.0
 10
232.9018834611782
 20
65.35573002073559
 30
0.0
 10
232.2635501110065
 20
63.94328078100727
 30
0.0
 10
231.3688859453237
 20
62.45232562530389
 30
0.0
 10
230.4003074929446
 20
61.10997292444831
 30
0.0
 10
229.6403323306698
 20
60.3395452983953
 30
0.0
 10
229.3050356064418
 20
59.99963700652813
 30
0.0
  0
SPLINE
  5
13F
330
1F
100
AcDbEntity
  8
0
  6
Continuous
 62
     7
370
    15
100
AcDbSpline
210
0.0
220
0.0
230
1.0
 70
     8
 71
     3
 72
    15
 73
    11
 74
     0
 42
0.000000001
 43
0.00000001
 40
0.0
 40
0.0
 40
0.0
 40
0.0
 40
0.1309737211045594
 40
0.2624938940378657
 40
0.3981914299279077
 40
0.5362761265351023
 40
0.6738452279588605
 40
0.8165603905091721
 40
0.9612394861777032
 40
0.9999999999999999
 40
0.9999999999999999
 40
0.9999999999999999
 40
0.9999999999999999
 10
213.0552486026509
 20
68.48368968594629
 30
0.0
 10
213.1689669736217
 20
68.36029568867336
 30
0.0
 10
213.3968781741895
 20
68.11299286661175
 30
0.0
 10
213.5785194612721
 20
67.68156484630273
 30
0.0
 10
213.6217237180767
 20
67.260786208612
 30
0.0
 10
213.4974437544338
 20
66.90292782976795
 30
0.0
 10
213.236737608133
 20
66.64853254994046
 30
0.0
 10
212.8597604334414
 20
66.54222190441524
 30
0.0
 10
212.516204752924
 20
66.55851725955995
 30
0.0
 10
212.3233298732621
 20
66.65449537846126
 30
0.0
 10
212.2825757010314
 20
66.67477541075438
 30
0.0
  0
SPLINE
  5
140
330
1F
100
AcDbEntity
  8
0
  6
Continuous
 62
     7
370
    15
100
AcDbSpline
210
0.0
220
0.0
230
1.0
 70
     8
 71
     3
 72
    27
 73
    23
 74
     0
 42
0.000000001
 43
0.00000001
 40
0.0
 40
0.0
 40
0.0
 40
0.0
 40
0.0173104426268839
 40
0.0564364935691701
 40
0.0978712622382335
 40
0.1398358045071489
 40
0.1979614455340812
 40
0.2564443795778634
 40
0.3145474026843879
 40
0.3807654074692197
 40
0.449198078814274
 40
0.4948653307979943
 40
0.5409446179442118
 40
0.5875703744853108
 40
0.6449082832876375
 40
0.6957383338420513
 40
0.7415102722625058
 40
0.7891777301442475
 40
0.8528690628842598
 40
0.9178077643738795
 40
0.9832086768164614
 40
0.9999999999999999
 40
0.9999999999999999
 40
0.9999999999999999
 40
0.9999999999999999
 10
210.9708099129751
 20
69.06409831567967
 30
0.0
 10
210.9799143099064
 20
69.13337446852258
 30
0.0
 10
211.0095969846908
 20
69.35923253805242
 30
0.0
 10
211.1683304792888
 20
69.70989870906254
 30
0.0
 10
211.3917661001927
 20
70.12029390980092
 30
0.0
 10
211.7582432062042
 20
70.51259629372453
 30
0.0
 10
212.2638669535366
 20
70.84100031574333
 30
0.0
 10
212.9272437067361
 20
71.02624646780653
 30
0.0
 10
213.6789004695181
 20
71.04430339007968
 30
0.0
 10
214.4914145844007
 20
70.87335950223216
 30
0.0
 10
215.2150829525385
 20
70.52725122824182
 30
0.0
 10
215.7902044642549
 20
70.11151474427697
 30
0.0
 10
216.2251930594542
 20
69.6907607301222
 30
0.0
 10
216.6223013497925
 20
69.18827668973292
 30
0.0
 10
216.8927953482477
 20
68.62057616766245
 30
0.0
 10
217.0733203022114
 20
68.06491465359174
 30
0.0
 10
217.1289002715662
 20
67.57313795977052
 30
0.0
 10
217.1288851126336
 20
67.04915803006823
 30
0.0
 10
217.0100884348429
 20
66.51178516418975
 30
0.0
 10
216.7402127060355
 20
66.00960794078287
 30
0.0
 10
216.4619604333809
 20
65.68220924110184
 30
0.0
 10
216.2506182207943
 20
65.56741571382454
 30
0.0
 10
216.2074424224134
 20
65.54396416513254
 30
0.0
  0
SPLINE
  5
141
330
1F
100
AcDbEntity
  8
0
  6
Continuous
 62
     7
370
    15
100
AcDbSpline
210
0.0
220
0.0
230
1.0
 70
     8
 71
     3
 72
    34
 73
    30
 74
     0
 42
0.000000001
 43
0.00000001
 40
0.0
 40
0.0
 40
0.0
 40
0.0
 40
0.0080786070263803
 40
0.027231975303293
 40
0.0461902236055971
 40
0.0655128632457264
 40
0.104386702546662
 40
0.1434630798552307
 40
0.1828595483034336
 40
0.2227875608938884
 40
0.263090231700626
 40
0.3035747813533834
 40
0.3444698654867057
 40
0.3859531598997345
 40
0.4275766519258851
 40
0.4694927158794076
 40
0.511817938163651
 40
0.5546467230808232
 40
0.5963926800816868
 40
0.6365295325567654
 40
0.672320754688616
 40
0.7055810267483739
 40
0.7393640459555235
 40
0.7738127989004512
 40
0.8079189483003031
 40
0.8549272154257815
 40
0.9045749866701294
 40
0.9574433797914117
 40
1.0
 40
1.0
 40
1.0
 40
1.0
 10
210.6422713244788
 20
73.8247702787473
 30
0.0
 10
210.6966076725224
 20
73.89829726276919
 30
0.0
 10
210.8797687154052
 20
74.14614754270876
 30
0.0
 10
211.3094829178436
 20
74.47545619549913
 30
0.0
 10
211.8338977200872
 20
74.87727769304576
 30
0.0
 10
212.5752354709038
 20
75.37309996059795
 30
0.0
 10
213.612575263762
 20
75.85413708322143
 30
0.0
 10
214.9742923201224
 20
76.2167818540862
 30
0.0
 10
216.4256315088432
 20
76.36689497240013
 30
0.0
 10
217.9389167133649
 20
76.29079346785976
 30
0.0
 10
219.476892493449
 20
75.98562786819643
 30
0.0
 10
221.0025947282553
 20
75.46821141952513
 30
0.0
 10
222.4812301569706
 20
74.74464331974617
 30
0.0
 10
223.8760580292438
 20
73.83368974880992
 30
0.0
 10
225.1517124549478
 20
72.76021603186604
 30
0.0
 10
226.2728586024297
 20
71.55344186619442
 30
0.0
 10
227.2230379018393
 20
70.24608167082924
 30
0.0
 10
227.9651384120805
 20
68.88095971647837
 30
0.0
 10
228.4383938957956
 20
67.52010867921835
 30
0.0
 10
228.7216217734778
 20
66.25849111812312
 30
0.0
 10
228.8764216092017
 20
65.13314043679674
 30
0.0
 10
228.9129889525963
 20
64.12360159830955
 30
0.0
 10
228.874715716766
 20
63.14787429482552
 30
0.0
 10
228.7748867158246
 20
62.18479576743628
 30
0.0
 10
228.5865369870009
 20
61.13842438755101
 30
0.0
 10
228.2515487867487
 20
60.02177661383831
 30
0.0
 10
227.6821942074102
 20
58.84780256305376
 30
0.0
 10
226.9964640335784
 20
57.77979164252446
 30
0.0
 10
226.4266145204485
 20
57.19490565269151
 30
0.0
 10
226.1724791689292
 20
56.93406449515767
 30
0.0
  0
LINE
  5
142
330
1F
100
AcDbEntity
  8
0
  6
Continuous
 62
     7
370
    15
100
AcDbLine
 10
213.0552486027
 20
68.4836896859
 30
0.0
 11
213.6342395257
 21
69.0488025766
 31
0.0
  0
LWPOLYLINE
  5
143
330
1F
100
AcDbEntity
  8
0
  6
Continuous
 62
     7
370
    15
100
AcDbPolyline
 90
       21
 70
   128
 43
0.0
 10
212.5775445257
 20
65.4051303928
 10
212.3014413926
 20
65.0002810139
 10
211.9878573986
 20
64.4592445079
 10
211.6953993199
 20
63.8621042946
 10
211.4285497228
 20
63.2180128669
 10
211.1913986668
 20
62.5368423489
 10
210.9875810157
 20
61.8290331835
 10
210.8202207254
 20
61.10543411
 10
210.691882962
 20
60.3771358826
 10
210.6045347853
 20
59.6553012806
 10
210.559514999
 20
58.9509940139
 10
210.5575136308
 20
58.2750091475
 10
210.5985613561
 20
57.6377076426
 10
210.6820290279
 20
57.0488575528
 10
210.8066373196
 20
56.5174843066
 10
210.9704763339
 20
56.0517323729
 10
211.171034876
 20
55.6587404289
 10
211.4052389431
 20
55.3445319444
 10
211.6694988406
 20
55.1139228587
 10
211.9597642016
 20
54.9704477652
 10
212.0627517675
 20
54.9421343143
  0
SPLINE
  5
144
330
1F
100
AcDbEntity
  8
0
  6
Continuous
 62
     7
370
    15
100
AcDbSpline
210
0.0
220
0.0
230
1.0
 70
     8
 71
     3
 72
    15
 73
    11
 74
     0
 42
0.000000001
 43
0.00000001
 40
0.0
 40
0.0
 40
0.0
 40
0.0
 40
0.1183067619798851
 40
0.2664060370131708
 40
0.4149820008101399
 40
0.571714566351571
 40
0.7259700180643439
 40
0.8162154404846572
 40
0.9055627854274948
 40
1.0
 40
1.0
 40
1.0
 40
1.0
 10
214.2529008324547
 20
64.98129611912655
 30
0.0
 10
214.5536828186189
 20
64.7966218718483
 30
0.0
 10
215.2309909927077
 20
64.38076792121653
 30
0.0
 10
216.2912989110703
 20
63.99508268474364
 30
0.0
 10
217.4074653347233
 20
63.71398666894429
 30
0.0
 10
218.4924312849364
 20
63.69228823037545
 30
0.0
 10
219.3781101662203
 20
63.8263829596378
 30
0.0
 10
219.9817849890107
 20
64.01639314092719
 30
0.0
 10
220.3865357373876
 20
64.28250310286978
 30
0.0
 10
220.626374739918
 20
64.55060758148694
 30
0.0
 10
220.7496153832263
 20
64.6883723656548
 30
0.0
  0
LWPOLYLINE
  5
145
330
1F
100
AcDbEntity
  8
0
  6
Continuous
 62
     7
370
    15
100
AcDbPolyline
 90
       19
 70
   128
 43
0.0
 10
213.2482687948
 20
69.0602190982
 10
212.9994118053
 20
68.9895149233
 10
212.7953233637
 20
68.8571991331
 10
212.6147337707
 20
68.685022338
 10
212.4838901428
 20
68.4697857308
 10
212.4412605614
 20
68.3869988736
 10
212.40448643
 20
68.3273986562
 10
212.3546316461
 20
68.2762966235
 10
212.3186048525
 20
68.2001944917
 10
212.2876038078
 20
68.0359564847
 10
212.3022168214
 20
67.9279019451
 10
212.3546445901
 20
67.8253915794
 10
212.4136998003
 20
67.7502154861
 10
212.4780853488
 20
67.7108979319
 10
212.5424087291
 20
67.7164342162
 10
212.5779154671
 20
67.7556440358
 10
212.5563106162
 20
67.8838671969
 10
212.4280641691
 20
68.0497919605
 10
212.4280641691
 20
68.0497919605
  0
LINE
  5
146
330
1F
100
AcDbEntity
  8
0
  6
Continuous
 62
     7
370
    15
100
AcDbLine
 10
212.4280641691
 20
68.0497919605
 30
0.0
 11
213.0552486027
 21
68.4836896859
 31
0.0
  0
SPLINE
  5
147
330
1F
100
AcDbEntity
  8
0
  6
Continuous
 62
     7
370
    15
100
AcDbSpline
210
0.0
220
0.0
230
1.0
 70
     8
 71
     3
 72
    12
 73
     8
 74
     0
 42
0.000000001
 43
0.00000001
 40
0.0
 40
0.0
 40
0.0
 40
0.0
 40
0.0533953399785564
 40
0.376446410141026
 40
0.6827224714542747
 40
0.9880166528757476
 40
1.0
 40
1.0
 40
1.0
 40
1.0
 10
221.2989781923621
 20
66.33630187120737
 30
0.0
 10
221.216247599221
 20
66.30064450987196
 30
0.0
 10
220.6329825650565
 20
66.0492539264389
 30
0.0
 10
219.4927461681101
 20
65.76884225037584
 30
0.0
 10
217.8775894108688
 20
65.5570538996623
 30
0.0
 10
216.7757442653176
 20
65.48459659863684
 30
0.0
 10
216.2121262937981
 20
65.54362608115252
 30
0.0
 10
216.1908388429373
 20
65.5458555828219
 30
0.0
  0
LINE
  5
148
330
1F
100
AcDbEntity
  8
0
  6
Continuous
 62
     7
370
    15
100
AcDbLine
 10
213.4775262243
 20
69.0740990992
 30
0.0
 11
212.4280641691
 21
68.0497919605
 31
0.0
  0
SPLINE
  5
149
330
1F
100
AcDbEntity
  8
0
  6
Continuous
 62
     7
370
    15
100
AcDbSpline
210
0.0
220
0.0
230
1.0
 70
     8
 71
     3
 72
    10
 73
     6
 74
     0
 42
0.000000001
 43
0.00000001
 40
0.0
 40
0.0
 40
0.0
 40
0.0
 40
0.4574144216794344
 40
0.9750106795991621
 40
1.0
 40
1.0
 40
1.0
 40
1.0
 10
200.6349432471346
 20
85.35217004213128
 30
0.0
 10
200.7475598322432
 20
85.47835129565426
 30
0.0
 10
200.9876099224387
 20
85.74731542078706
 30
0.0
 10
201.1764206292161
 20
86.0519868160889
 30
0.0
 10
201.213891186316
 20
86.23321824929046
 30
0.0
 10
201.2156169302251
 20
86.24156504384588
 30
0.0
  0
SPLINE
  5
14A
330
1F
100
AcDbEntity
  8
0
  6
Continuous
 62
     7
370
    15
100
AcDbSpline
210
0.0
220
0.0
230
1.0
 70
     8
 71
     3
 72
    23
 73
    19
 74
     0
 42
0.000000001
 43
0.00000001
 40
0.0
 40
0.0
 40
0.0
 40
0.0
 40
0.056305124272059
 40
0.1228761153161174
 40
0.1812322655192854
 40
0.2437735314911529
 40
0.3098746310636193
 40
0.3785857644219501
 40
0.4486817329105335
 40
0.5187777013991179
 40
0.587488834757448
 40
0.6535899343299151
 40
0.7161312003017821
 40
0.7744873505049495
 40
0.841058341549008
 40
0.9005626437434413
 40
0.9533501716882479
 40
1.0
 40
1.0
 40
1.0
 40
1.0
 10
189.6184314410256
 20
89.4130540150691
 30
0.0
 10
189.5683526340232
 20
89.23102628320459
 30
0.0
 10
189.4590643704118
 20
88.83378250014785
 30
0.0
 10
189.5283516757472
 20
88.20302198314641
 30
0.0
 10
189.7707929613848
 20
87.5447607873745
 30
0.0
 10
190.1886448042994
 20
86.89566072610891
 30
0.0
 10
190.8073404367897
 20
86.2429355485623
 30
0.0
 10
191.6212996103742
 20
85.62413989612305
 30
0.0
 10
192.5989241933677
 20
85.07929205330386
 30
0.0
 10
193.6874501804525
 20
84.64265920220882
 30
0.0
 10
194.821326195508
 20
84.33619402138314
 30
0.0
 10
195.9347563921444
 20
84.16606227255089
 30
0.0
 10
196.9731353327732
 20
84.12358477364926
 30
0.0
 10
197.9661099318862
 20
84.19436988654337
 30
0.0
 10
198.8671797196229
 20
84.37723929184327
 30
0.0
 10
199.63220319693
 20
84.66099187885322
 30
0.0
 10
200.217626566928
 20
84.98572997393332
 30
0.0
 10
200.5016820610778
 20
85.23515521760375
 30
0.0
 10
200.6349432471346
 20
85.35217004213128
 30
0.0
  0
SPLINE
  5
14B
330
1F
100
AcDbEntity
  8
0
  6
Continuous
 62
     8
370
    15
100
AcDbSpline
210
0.0
220
0.0
230
1.0
 70
     8
 71
     3
 72
    26
 73
    22
 74
     0
 42
0.000000001
 43
0.00000001
 40
0.0
 40
0.0
 40
0.0
 40
0.0
 40
0.0319740017529455
 40
0.0886596265722518
 40
0.1485265312870116
 40
0.2107194031193229
 40
0.2741440386897119
 40
0.3375686742601009
 40
0.3997615460924129
 40
0.4596284508071714
 40
0.5163140756264794
 40
0.5692474525804924
 40
0.6296787652871889
 40
0.6837300113979156
 40
0.7316990140274245
 40
0.7740979882231157
 40
0.8164969624188069
 40
0.8644659650483159
 40
0.9185172111590426
 40
0.978948523865739
 40
1.0
 40
1.0
 40
1.0
 40
1.0
 10
268.6126534594171
 20
76.08499074303758
 30
0.0
 10
268.61512007986
 20
76.07938092809351
 30
0.0
 10
268.6219596881473
 20
76.06382566222709
 30
0.0
 10
268.7848884338592
 20
76.17650005258959
 30
0.0
 10
269.1033407926501
 20
76.42596165632212
 30
0.0
 10
269.5864867432757
 20
76.82809032593521
 30
0.0
 10
270.2114509792232
 20
77.36453262563195
 30
0.0
 10
270.9478309946299
 20
78.00968871658068
 30
0.0
 10
271.7496062706454
 20
78.72290067925732
 30
0.0
 10
272.5676573229612
 20
79.45967023073014
 30
0.0
 10
273.3577708913779
 20
80.17903914999464
 30
0.0
 10
274.1396619851946
 20
80.89809979758697
 30
0.0
 10
274.8765190694719
 20
81.58316409344144
 30
0.0
 10
275.5339278429799
 20
82.20196377263777
 30
0.0
 10
276.0571555445421
 20
82.7009962944954
 30
0.0
 10
276.4781893578477
 20
83.10849273999155
 30
0.0
 10
276.8351507738577
 20
83.46035809997825
 30
0.0
 10
277.1440633899017
 20
83.77343430734727
 30
0.0
 10
277.3723270410219
 20
84.01946787382316
 30
0.0
 10
277.4778514738815
 20
84.14880802851646
 30
0.0
 10
277.4540641341341
 20
84.14711221404089
 30
0.0
 10
277.4479185588278
 20
84.14667409209554
 30
0.0
  0
LWPOLYLINE
  5
14C
330
1F
100
AcDbEntity
  8
0
  6
Continuous
 62
     8
370
    15
100
AcDbPolyline
 90
       23
 70
   128
 43
0.0
 10
265.2953589435
 20
51.9124561244
 10
264.961642071
 20
51.5361137425
 10
264.6537670445
 20
51.0845122424
 10
264.3764009355
 20
50.5644974425
 10
264.1337483315
 20
49.9839522371
 10
263.9294875986
 20
49.3516770998
 10
263.7667151214
 20
48.6772566772
 10
263.6478983647
 20
47.9709144953
 10
263.5748384693
 20
47.2433579816
 10
263.5486429489
 20
46.5056161513
 10
263.5697089007
 20
45.7688724184
 10
263.6377169865
 20
45.0442950671
 10
263.7516362731
 20
44.3428679513
 10
263.90973986
 20
43.6752239911
 10
264.1096310582
 20
43.0514839885
 10
264.3482797208
 20
42.4811032059
 10
264.6220681774
 20
41.9727280347
 10
264.9268460739
 20
41.5340649243
 10
265.2579932883
 20
41.1717635603
 10
265.6104899663
 20
40.891316062
 10
265.9789926175
 20
40.6969737277
 10
266.3579151175
 20
40.591682589
 10
266.5918428423
 20
40.571921139
  0
ARC
  5
14D
330
1F
100
AcDbEntity
  8
0
  6
Continuous
 62
     8
370
    15
100
AcDbCircle
 10
266.801916253
 20
50.5212534361
 30
0.0
 40
2.050648640537645
100
AcDbArc
 50
91.7044958954
 51
137.2796384148
  0
SPLINE
  5
14E
330
1F
100
AcDbEntity
  8
0
  6
Continuous
 62
     8
370
    15
100
AcDbSpline
210
0.0
220
0.0
230
1.0
 70
     8
 71
     3
 72
    26
 73
    22
 74
     0
 42
0.000000001
 43
0.00000001
 40
0.0
 40
0.0
 40
0.0
 40
0.0
 40
0.0344779900343732
 40
0.0885483051938232
 40
0.1490009378094832
 40
0.2019529894327572
 40
0.2586586126983426
 40
0.3185466382013367
 40
0.3807614514131455
 40
0.4442084629240172
 40
0.5076554744348886
 40
0.569870287646698
 40
0.6297583131496917
 40
0.6864639364152773
 40
0.7394159880385511
 40
0.7998686206542112
 40
0.8539389358136612
 40
0.9019248617023767
 40
0.9443387940750378
 40
0.986752726447699
 40
1.0
 40
1.0
 40
1.0
 40
1.0
 10
207.367368758919
 20
93.50391627410536
 30
0.0
 10
207.2454641008056
 20
93.43861541780677
 30
0.0
 10
206.9323817296925
 20
93.27090610101712
 30
0.0
 10
206.3223544643745
 20
93.15893106396929
 30
0.0
 10
205.5878791909173
 20
93.18947759031927
 30
0.0
 10
204.8053989524576
 20
93.40158190129162
 30
0.0
 10
204.0154468236827
 20
93.7747862946104
 30
0.0
 10
203.1973552751732
 20
94.33912810314173
 30
0.0
 10
202.3955659765672
 20
95.08877225830918
 30
0.0
 10
201.6592876373302
 20
95.99564197886596
 30
0.0
 10
201.0339321253994
 20
97.01076184596283
 30
0.0
 10
200.552204390087
 20
98.07283638138321
 30
0.0
 10
200.2287593942046
 20
99.11982841595491
 30
0.0
 10
200.0599964095809
 20
100.0998128552818
 30
0.0
 10
200.0258782596688
 20
101.0406058015354
 30
0.0
 10
200.1309126493869
 20
101.8975517781283
 30
0.0
 10
200.3657101892092
 20
102.6306571697684
 30
0.0
 10
200.6721756263647
 20
103.1903207655514
 30
0.0
 10
201.0328791713663
 20
103.6086587863667
 30
0.0
 10
201.3341229765531
 20
103.8738235976307
 30
0.0
 10
201.537533459464
 20
103.9663968609167
 30
0.0
 10
201.5859448128609
 20
103.9884291421437
 30
0.0
  0
LWPOLYLINE
  5
14F
330
1F
100
AcDbEntity
  8
0
  6
Continuous
 62
     8
370
    15
100
AcDbPolyline
 90
       21
 70
   128
 43
0.0
 10
211.7813306682
 20
65.8815260311
 10
211.4886132249
 20
65.5336618591
 10
211.1089023968
 20
65.0414621609
 10
210.7251458615
 20
64.4992659806
 10
210.3431609769
 20
63.9152924595
 10
209.9687382445
 20
63.2983940411
 10
209.6075535312
 20
62.6579222765
 10
209.2650820292
 20
62.0035860647
 10
208.9465152572
 20
61.3453044758
 10
208.6566823629
 20
60.6930563876
 10
208.3999769175
 20
60.0567292163
 10
208.1802903139
 20
59.4459690331
 10
208.000952777
 20
58.8700343399
 10
207.864682881
 20
58.3376557196
 10
207.7735463388
 20
57.8569034892
 10
207.7289246873
 20
57.4350653627
 10
207.7314943454
 20
57.078535976
 10
207.7812163596
 20
56.7927199512
 10
207.8773369949
 20
56.5819499678
 10
208.0183991605
 20
56.449421084
 10
208.0279436416
 20
56.4441696053
  0
ENDSEC
  0
SECTION
  2
OBJECTS
  0
DICTIONARY
  5
C
330
0
100
AcDbDictionary
281
     1
  3
ACAD_GROUP
350
D
  3
ACAD_LAYOUT
350
1A
  3
ACAD_MLINESTYLE
350
17
  3
ACAD_PLOTSETTINGS
350
19
  3
ACAD_PLOTSTYLENAME
350
E
  3
ACAD_SCALELIST
350
47
  0
DICTIONARY
  5
D
102
{ACAD_REACTORS
330
C
102
}
330
C
100
AcDbDictionary
281
     1
  0
DICTIONARY
  5
1A
102
{ACAD_REACTORS
330
C
102
}
330
C
100
AcDbDictionary
281
     1
  3
Layout1
350
1E
  3
Layout2
350
26
  3
Model
350
22
  0
DICTIONARY
  5
17
102
{ACAD_REACTORS
330
C
102
}
330
C
100
AcDbDictionary
281
     1
  3
Standard
350
18
  0
DICTIONARY
  5
19
102
{ACAD_REACTORS
330
C
102
}
330
C
100
AcDbDictionary
281
     1
  0
ACDBDICTIONARYWDFLT
  5
E
102
{ACAD_REACTORS
330
C
102
}
330
C
100
AcDbDictionary
281
     1
  3
Normal
350
F
100
AcDbDictionaryWithDefault
340
F
  0
DICTIONARY
  5
47
102
{ACAD_REACTORS
330
C
102
}
330
C
100
AcDbDictionary
281
     1
  3
A0
350
48
  3
A1
350
49
  3
A2
350
4A
  3
A3
350
4B
  3
A4
350
4C
  3
A5
350
4D
  3
A6
350
4E
  3
A7
350
4F
  3
A8
350
50
  3
A9
350
51
  3
B0
350
52
  3
B1
350
53
  3
B2
350
54
  3
B3
350
55
  3
B4
350
56
  3
B5
350
57
  3
B6
350
58
  3
B7
350
59
  3
B8
350
5A
  3
B9
350
5B
  3
C0
350
5C
  3
C1
350
5D
  3
C2
350
5E
  3
C3
350
5F
  3
C4
350
60
  3
C5
350
61
  3
C6
350
62
  3
C7
350
63
  3
C8
350
64
  3
C9
350
65
  3
D0
350
66
  3
D1
350
67
  3
D2
350
68
  0
LAYOUT
  5
1E
102
{ACAD_REACTORS
330
1A
102
}
330
1A
100
AcDbPlotSettings
  1

  2
none_device
  4

  6

 40
0.0
 41
0.0
 42
0.0
 43
0.0
 44
0.0
 45
0.0
 46
0.0
 47
0.0
 48
0.0
 49
0.0
140
0.0
141
0.0
142
1.0
143
1.0
 70
   688
 72
     1
 73
     0
 74
     5
  7

 75
    16
147
1.0
148
0.0
149
0.0
100
AcDbLayout
  1
Layout1
 70
     1
 71
     1
 10
0.0
 20
0.0
 11
420.0
 21
297.0
 12
0.0
 22
0.0
 32
0.0
 14
1.0000000000E+20
 24
1.0000000000E+20
 34
1.0000000000E+20
 15
-1.0000000000E+20
 25
-1.0000000000E+20
 35
-1.0000000000E+20
146
0.0
 13
0.0
 23
0.0
 33
0.0
 16
1.0
 26
0.0
 36
0.0
 17
0.0
 27
1.0
 37
0.0
 76
     0
330
1B
  0
LAYOUT
  5
26
102
{ACAD_REACTORS
330
1A
102
}
330
1A
100
AcDbPlotSettings
  1

  2
none_device
  4

  6

 40
0.0
 41
0.0
 42
0.0
 43
0.0
 44
0.0
 45
0.0
 46
0.0
 47
0.0
 48
0.0
 49
0.0
140
0.0
141
0.0
142
1.0
143
1.0
 70
   688
 72
     1
 73
     0
 74
     5
  7

 75
    16
147
1.0
148
0.0
149
0.0
100
AcDbLayout
  1
Layout2
 70
     1
 71
     2
 10
0.0
 20
0.0
 11
0.0
 21
0.0
 12
0.0
 22
0.0
 32
0.0
 14
0.0
 24
0.0
 34
0.0
 15
0.0
 25
0.0
 35
0.0
146
0.0
 13
0.0
 23
0.0
 33
0.0
 16
1.0
 26
0.0
 36
0.0
 17
0.0
 27
1.0
 37
0.0
 76
     0
330
23
  0
LAYOUT
  5
22
102
{ACAD_REACTORS
330
1A
102
}
330
1A
100
AcDbPlotSettings
  1

  2
none_device
  4
Letter_(8.50_x_11.00_Inches)
  6

 40
6.35
 41
6.35
 42
6.35000508
 43
6.35000508
 44
215.9
 45
279.4
 46
0.0
 47
0.0
 48
0.0
 49
0.0
140
0.0
141
0.0
142
1.0
143
1.0
 70
  1712
 72
     1
 73
     0
 74
     0
  7

 75
     0
147
1.0
148
0.0
149
0.0
100
AcDbLayout
  1
Model
 70
     1
 71
     0
 10
0.0
 20
0.0
 11
297.0
 21
210.0
 12
0.0
 22
0.0
 32
0.0
 14
0.0
 24
0.0
 34
0.0
 15
297.0
 25
210.0
 35
0.0
146
0.0
 13
0.0
 23
0.0
 33
0.0
 16
1.0
 26
0.0
 36
0.0
 17
0.0
 27
1.0
 37
0.0
 76
     0
330
1F
331
29
  0
MLINESTYLE
  5
18
102
{ACAD_REACTORS
330
17
102
}
330
17
100
AcDbMlineStyle
  2
Standard
 70
     0
  3

 62
   256
 51
90.0
 52
90.0
 71
     2
 49
0.5
 62
   256
  6
BYLAYER
 49
-0.5
 62
   256
  6
BYLAYER
  0
ACDBPLACEHOLDER
  5
F
102
{ACAD_REACTORS
330
E
102
}
330
E
  0
SCALE
  5
48
102
{ACAD_REACTORS
330
47
102
}
330
47
100
AcDbScale
 70
     0
300
1:1
140
1.0
141
1.0
290
     1
  0
SCALE
  5
49
102
{ACAD_REACTORS
330
47
102
}
330
47
100
AcDbScale
 70
     0
300
1:2
140
1.0
141
2.0
290
     0
  0
SCALE
  5
4A
102
{ACAD_REACTORS
330
47
102
}
330
47
100
AcDbScale
 70
     0
300
1:4
140
1.0
141
4.0
290
     0
  0
SCALE
  5
4B
102
{ACAD_REACTORS
330
47
102
}
330
47
100
AcDbScale
 70
     0
300
1:5
140
1.0
141
5.0
290
     0
  0
SCALE
  5
4C
102
{ACAD_REACTORS
330
47
102
}
330
47
100
AcDbScale
 70
     0
300
1:8
140
1.0
141
8.0
290
     0
  0
SCALE
  5
4D
102
{ACAD_REACTORS
330
47
102
}
330
47
100
AcDbScale
 70
     0
300
1:10
140
1.0
141
10.0
290
     0
  0
SCALE
  5
4E
102
{ACAD_REACTORS
330
47
102
}
330
47
100
AcDbScale
 70
     0
300
1:16
140
1.0
141
16.0
290
     0
  0
SCALE
  5
4F
102
{ACAD_REACTORS
330
47
102
}
330
47
100
AcDbScale
 70
     0
300
1:20
140
1.0
141
20.0
290
     0
  0
SCALE
  5
50
102
{ACAD_REACTORS
330
47
102
}
330
47
100
AcDbScale
 70
     0
300
1:30
140
1.0
141
30.0
290
     0
  0
SCALE
  5
51
102
{ACAD_REACTORS
330
47
102
}
330
47
100
AcDbScale
 70
     0
300
1:40
140
1.0
141
40.0
290
     0
  0
SCALE
  5
52
102
{ACAD_REACTORS
330
47
102
}
330
47
100
AcDbScale
 70
     0
300
1:50
140
1.0
141
50.0
290
     0
  0
SCALE
  5
53
102
{ACAD_REACTORS
330
47
102
}
330
47
100
AcDbScale
 70
     0
300
1:100
140
1.0
141
100.0
290
     0
  0
SCALE
  5
54
102
{ACAD_REACTORS
330
47
102
}
330
47
100
AcDbScale
 70
     0
300
2:1
140
2.0
141
1.0
290
     0
  0
SCALE
  5
55
102
{ACAD_REACTORS
330
47
102
}
330
47
100
AcDbScale
 70
     0
300
4:1
140
4.0
141
1.0
290
     0
  0
SCALE
  5
56
102
{ACAD_REACTORS
330
47
102
}
330
47
100
AcDbScale
 70
     0
300
8:1
140
8.0
141
1.0
290
     0
  0
SCALE
  5
57
102
{ACAD_REACTORS
330
47
102
}
330
47
100
AcDbScale
 70
     0
300
10:1
140
10.0
141
1.0
290
     0
  0
SCALE
  5
58
102
{ACAD_REACTORS
330
47
102
}
330
47
100
AcDbScale
 70
     0
300
100:1
140
100.0
141
1.0
290
     0
  0
SCALE
  5
59
102
{ACAD_REACTORS
330
47
102
}
330
47
100
AcDbScale
 70
     0
300
1/128" = 1'-0"
140
0.0078125
141
12.0
290
     0
  0
SCALE
  5
5A
102
{ACAD_REACTORS
330
47
102
}
330
47
100
AcDbScale
 70
     0
300
1/64" = 1'-0"
140
0.015625
141
12.0
290
     0
  0
SCALE
  5
5B
102
{ACAD_REACTORS
330
47
102
}
330
47
100
AcDbScale
 70
     0
300
1/32" = 1'-0"
140
0.03125
141
12.0
290
     0
  0
SCALE
  5
5C
102
{ACAD_REACTORS
330
47
102
}
330
47
100
AcDbScale
 70
     0
300
1/16" = 1'-0"
140
0.0625
141
12.0
290
     0
  0
SCALE
  5
5D
102
{ACAD_REACTORS
330
47
102
}
330
47
100
AcDbScale
 70
     0
300
3/32" = 1'-0"
140
0.09375
141
12.0
290
     0
  0
SCALE
  5
5E
102
{ACAD_REACTORS
330
47
102
}
330
47
100
AcDbScale
 70
     0
300
1/8" = 1'-0"
140
0.125
141
12.0
290
     0
  0
SCALE
  5
5F
102
{ACAD_REACTORS
330
47
102
}
330
47
100
AcDbScale
 70
     0
300
3/16" = 1'-0"
140
0.1875
141
12.0
290
     0
  0
SCALE
  5
60
102
{ACAD_REACTORS
330
47
102
}
330
47
100
AcDbScale
 70
     0
300
1/4" = 1'-0"
140
0.25
141
12.0
290
     0
  0
SCALE
  5
61
102
{ACAD_REACTORS
330
47
102
}
330
47
100
AcDbScale
 70
     0
300
3/8" = 1'-0"
140
0.375
141
12.0
290
     0
  0
SCALE
  5
62
102
{ACAD_REACTORS
330
47
102
}
330
47
100
AcDbScale
 70
     0
300
1/2" = 1'-0"
140
0.5
141
12.0
290
     0
  0
SCALE
  5
63
102
{ACAD_REACTORS
330
47
102
}
330
47
100
AcDbScale
 70
     0
300
3/4" = 1'-0"
140
0.75
141
12.0
290
     0
  0
SCALE
  5
64
102
{ACAD_REACTORS
330
47
102
}
330
47
100
AcDbScale
 70
     0
300
1" = 1'-0"
140
1.0
141
12.0
290
     0
  0
SCALE
  5
65
102
{ACAD_REACTORS
330
47
102
}
330
47
100
AcDbScale
 70
     0
300
1-1/2" = 1'-0"
140
1.5
141
12.0
290
     0
  0
SCALE
  5
66
102
{ACAD_REACTORS
330
47
102
}
330
47
100
AcDbScale
 70
     0
300
3" = 1'-0"
140
3.0
141
12.0
290
     0
  0
SCALE
  5
67
102
{ACAD_REACTORS
330
47
102
}
330
47
100
AcDbScale
 70
     0
300
6" = 1'-0"
140
6.0
141
12.0
290
     0
  0
SCALE
  5
68
102
{ACAD_REACTORS
330
47
102
}
330
47
100
AcDbScale
 70
     0
300
1'-0" = 1'-0"
140
12.0
141
12.0
290
     0
  0
ENDSEC
  0
EOF
