  0
SECTION
  2
HEADER
  9
$ACADVER
  1
AC1015
  9
$ACADMAINTVER
 70
     6
  9
$DWGCODEPAGE
  3
ANSI_1252
  9
$INSBASE
 10
0.0
 20
0.0
 30
0.0
  9
$EXTMIN
 10
0.0
 20
0.0
 30
0.0
  9
$EXTMAX
 10
594.0
 20
420.0
 30
0.0
  9
$LIMMIN
 10
0.0
 20
0.0
  9
$LIMMAX
 10
594.0
 20
420.0
  9
$ORTHOMODE
 70
     0
  9
$REGENMODE
 70
     1
  9
$FILLMODE
 70
     1
  9
$QTEXTMODE
 70
     0
  9
$MIRRTEXT
 70
     1
  9
$LTSCALE
 40
2.0
  9
$ATTMODE
 70
     1
  9
$TEXTSIZE
 40
7.0
  9
$TRACEWID
 40
1.0
  9
$TEXTSTYLE
  7
Standard
  9
$CLAYER
  8
0
  9
$CELTYPE
  6
ByLayer
  9
$CECOLOR
 62
   256
  9
$CELTSCALE
 40
1.0
  9
$DISPSILH
 70
     0
  9
$DIMSCALE
 40
1.0
  9
$DIMASZ
 40
6.604
  9
$DIMEXO
 40
2.0
  9
$DIMDLI
 40
3.75
  9
$DIMRND
 40
0.0
  9
$DIMDLE
 40
0.0
  9
$DIMEXE
 40
2.0
  9
$DIMTP
 40
0.0
  9
$DIMTM
 40
0.0
  9
$DIMTXT
 40
7.0
  9
$DIMCEN
 40
2.5
  9
$DIMTSZ
 40
0.0
  9
$DIMTOL
 70
     0
  9
$DIMLIM
 70
     0
  9
$DIMTIH
 70
     1
  9
$DIMTOH
 70
     1
  9
$DIMSE1
 70
     0
  9
$DIMSE2
 70
     0
  9
$DIMTAD
 70
     1
  9
$DIMZIN
 70
     0
  9
$DIMBLK
  1

  9
$DIMASO
 70
     1
  9
$DIMSHO
 70
     1
  9
$DIMPOST
  1

  9
$DIMAPOST
  1

  9
$DIMALT
 70
     0
  9
$DIMALTD
 70
     3
  9
$DIMALTF
 40
0.0393700787
  9
$DIMLFAC
 40
1.0
  9
$DIMTOFL
 70
     1
  9
$DIMTVP
 40
0.0
  9
$DIMTIX
 70
     0
  9
$DIMSOXD
 70
     0
  9
$DIMSAH
 70
     0
  9
$DIMBLK1
  1

  9
$DIMBLK2
  1

  9
$DIMSTYLE
  2
ISO-25
  9
$DIMCLRD
 70
     0
  9
$DIMCLRE
 70
     0
  9
$DIMCLRT
 70
     0
  9
$DIMTFAC
 40
1.0
  9
$DIMGAP
 40
3.048
  9
$DIMJUST
 70
     0
  9
$DIMSD1
 70
     0
  9
$DIMSD2
 70
     0
  9
$DIMTOLJ
 70
     0
  9
$DIMTZIN
 70
     0
  9
$DIMALTZ
 70
     0
  9
$DIMALTTZ
 70
     0
  9
$DIMUPT
 70
     0
  9
$DIMDEC
 70
     2
  9
$DIMTDEC
 70
     2
  9
$DIMALTU
 70
     2
  9
$DIMALTTD
 70
     3
  9
$DIMTXSTY
  7
Standard
  9
$DIMAUNIT
 70
     0
  9
$DIMADEC
 70
     2
  9
$DIMALTRND
 40
0.0
  9
$DIMAZIN
 70
     0
  9
$DIMDSEP
 70
    44
  9
$DIMATFIT
 70
     3
  9
$DIMFRAC
 70
     0
  9
$DIMLDRBLK
  1

  9
$DIMLUNIT
 70
     2
  9
$DIMLWD
 70
    -2
  9
$DIMLWE
 70
    -2
  9
$DIMTMOVE
 70
     0
  9
$LUNITS
 70
     2
  9
$LUPREC
 70
     2
  9
$SKETCHINC
 40
1.0
  9
$FILLETRAD
 40
10.0
  9
$AUNITS
 70
     0
  9
$AUPREC
 70
     2
  9
$MENU
  1
.
  9
$ELEVATION
 40
0.0
  9
$PELEVATION
 40
0.0
  9
$THICKNESS
 40
0.0
  9
$LIMCHECK
 70
     0
  9
$CHAMFERA
 40
0.0
  9
$CHAMFERB
 40
0.0
  9
$CHAMFERC
 40
0.0
  9
$CHAMFERD
 40
0.0
  9
$SKPOLY
 70
     0
  9
$TDCREATE
 40
2456903.495238009
  9
$TDUCREATE
 40
2456903.411904676
  9
$TDUPDATE
 40
2456903.495240162
  9
$TDUUPDATE
 40
2456903.411906829
  9
$TDINDWG
 40
0.0000000116
  9
$TDUSRTIMER
 40
0.0000000116
  9
$USRTIMER
 70
     1
  9
$ANGBASE
 50
0.0
  9
$ANGDIR
 70
     0
  9
$PDMODE
 70
     0
  9
$PDSIZE
 40
-1.0
  9
$PLINEWID
 40
0.0
  9
$SPLFRAME
 70
     0
  9
$SPLINETYPE
 70
     6
  9
$SPLINESEGS
 70
     8
  9
$HANDSEED
  5
24F
  9
$SURFTAB1
 70
     6
  9
$SURFTAB2
 70
     6
  9
$SURFTYPE
 70
     6
  9
$SURFU
 70
     6
  9
$SURFV
 70
     6
  9
$UCSBASE
  2

  9
$UCSNAME
  2

  9
$UCSORG
 10
0.0
 20
0.0
 30
0.0
  9
$UCSXDIR
 10
1.0
 20
0.0
 30
0.0
  9
$UCSYDIR
 10
0.0
 20
1.0
 30
0.0
  9
$UCSORTHOREF
  2

  9
$UCSORTHOVIEW
 70
     0
  9
$UCSORGTOP
 10
0.0
 20
0.0
 30
0.0
  9
$UCSORGBOTTOM
 10
0.0
 20
0.0
 30
0.0
  9
$UCSORGLEFT
 10
0.0
 20
0.0
 30
0.0
  9
$UCSORGRIGHT
 10
0.0
 20
0.0
 30
0.0
  9
$UCSORGFRONT
 10
0.0
 20
0.0
 30
0.0
  9
$UCSORGBACK
 10
0.0
 20
0.0
 30
0.0
  9
$PUCSBASE
  2

  9
$PUCSNAME
  2

  9
$PUCSORG
 10
0.0
 20
0.0
 30
0.0
  9
$PUCSXDIR
 10
1.0
 20
0.0
 30
0.0
  9
$PUCSYDIR
 10
0.0
 20
1.0
 30
0.0
  9
$PUCSORTHOREF
  2

  9
$PUCSORTHOVIEW
 70
     0
  9
$PUCSORGTOP
 10
0.0
 20
0.0
 30
0.0
  9
$PUCSORGBOTTOM
 10
0.0
 20
0.0
 30
0.0
  9
$PUCSORGLEFT
 10
0.0
 20
0.0
 30
0.0
  9
$PUCSORGRIGHT
 10
0.0
 20
0.0
 30
0.0
  9
$PUCSORGFRONT
 10
0.0
 20
0.0
 30
0.0
  9
$PUCSORGBACK
 10
0.0
 20
0.0
 30
0.0
  9
$USERI1
 70
     0
  9
$USERI2
 70
     0
  9
$USERI3
 70
     0
  9
$USERI4
 70
     0
  9
$USERI5
 70
     0
  9
$USERR1
 40
0.0
  9
$USERR2
 40
0.0
  9
$USERR3
 40
0.0
  9
$USERR4
 40
0.0
  9
$USERR5
 40
0.0
  9
$WORLDVIEW
 70
     1
  9
$SHADEDGE
 70
     3
  9
$SHADEDIF
 70
    70
  9
$TILEMODE
 70
     1
  9
$MAXACTVP
 70
    64
  9
$PINSBASE
 10
0.0
 20
0.0
 30
0.0
  9
$PLIMCHECK
 70
     0
  9
$PEXTMIN
 10
1.0000000000E+20
 20
1.0000000000E+20
 30
1.0000000000E+20
  9
$PEXTMAX
 10
-1.0000000000E+20
 20
-1.0000000000E+20
 30
-1.0000000000E+20
  9
$PLIMMIN
 10
0.0
 20
0.0
  9
$PLIMMAX
 10
420.0
 20
297.0
  9
$UNITMODE
 70
     0
  9
$VISRETAIN
 70
     1
  9
$PLINEGEN
 70
     0
  9
$PSLTSCALE
 70
     1
  9
$TREEDEPTH
 70
  3020
  9
$CMLSTYLE
  2
Standard
  9
$CMLJUST
 70
     0
  9
$CMLSCALE
 40
20.0
  9
$PROXYGRAPHICS
 70
     1
  9
$MEASUREMENT
 70
     1
  9
$CELWEIGHT
370
    -1
  9
$ENDCAPS
280
     0
  9
$JOINSTYLE
280
     0
  9
$LWDISPLAY
290
     1
  9
$INSUNITS
 70
     4
  9
$HYPERLINKBASE
  1

  9
$STYLESHEET
  1

  9
$XEDIT
290
     1
  9
$CEPSNTYPE
380
     0
  9
$PSTYLEMODE
290
     1
  9
$FINGERPRINTGUID
  2
{30A52419-4EE1-4DCA-BD31-E9203736E6D0}
  9
$VERSIONGUID
  2
{FAEB1C32-E019-11D5-929B-00C0DF256EC4}
  9
$EXTNAMES
290
     1
  9
$PSVPSCALE
 40
0.0
  9
$OLESTARTUP
290
     0
  0
ENDSEC
  0
SECTION
  2
CLASSES
  0
CLASS
  1
ACDBDICTIONARYWDFLT
  2
AcDbDictionaryWithDefault
  3
ObjectDBX Classes
 90
        0
280
     0
281
     0
  0
CLASS
  1
VISUALSTYLE
  2
AcDbVisualStyle
  3
ObjectDBX Classes
 90
     4095
280
     0
281
     0
  0
CLASS
  1
MATERIAL
  2
AcDbMaterial
  3
ObjectDBX Classes
 90
     1153
280
     0
281
     0
  0
CLASS
  1
SCALE
  2
AcDbScale
  3
ObjectDBX Classes
 90
     1153
280
     0
281
     0
  0
CLASS
  1
SUN
  2
AcDbSun
  3
SCENEOE
 90
     1153
280
     0
281
     0
  0
CLASS
  1
ACDBPLACEHOLDER
  2
AcDbPlaceHolder
  3
ObjectDBX Classes
 90
        0
280
     0
281
     0
  0
CLASS
  1
LAYOUT
  2
AcDbLayout
  3
ObjectDBX Classes
 90
        0
280
     0
281
     0
  0
ENDSEC
  0
SECTION
  2
TABLES
  0
TABLE
  2
VPORT
  5
8
330
0
100
AcDbSymbolTable
 70
     1
  0
VPORT
  5
29
330
8
100
AcDbSymbolTableRecord
100
AcDbViewportTableRecord
  2
*Active
 70
     0
 10
0.0
 20
0.0
 11
1.0
 21
1.0
 12
297.0
 22
210.0
 13
0.0
 23
0.0
 14
10.0
 24
10.0
 15
10.0
 25
10.0
 16
0.0
 26
0.0
 36
1.0
 17
0.0
 27
0.0
 37
0.0
 40
420.0
 41
1.4142857143
 42
50.0
 43
0.0
 44
0.0
 50
0.0
 51
0.0
 71
     0
 72
  2000
 73
     1
 74
     3
 75
     0
 76
     0
 77
     0
 78
     0
281
     0
 65
     1
110
0.0
120
0.0
130
0.0
111
1.0
121
0.0
131
0.0
112
0.0
122
1.0
132
0.0
 79
     0
146
0.0
  0
ENDTAB
  0
TABLE
  2
LTYPE
  5
5
330
0
100
AcDbSymbolTable
 70
     6
  0
LTYPE
  5
14
330
5
100
AcDbSymbolTableRecord
100
AcDbLinetypeTableRecord
  2
ByBlock
 70
     0
  3

 72
    65
 73
     0
 40
0.0
  0
LTYPE
  5
15
330
5
100
AcDbSymbolTableRecord
100
AcDbLinetypeTableRecord
  2
ByLayer
 70
     0
  3

 72
    65
 73
     0
 40
0.0
  0
LTYPE
  5
16
330
5
100
AcDbSymbolTableRecord
100
AcDbLinetypeTableRecord
  2
Continuous
 70
     0
  3
Solid line
 72
    65
 73
     0
 40
0.0
  0
LTYPE
  5
6A
330
5
100
AcDbSymbolTableRecord
100
AcDbLinetypeTableRecord
  2
HIDDEN
 70
     0
  3
Hidden __ __ __ __ __ __ __ __ __ __ __ __ __ __
 72
    65
 73
     2
 40
1.905
 49
1.27
 74
     0
 49
-0.635
 74
     0
  0
LTYPE
  5
6B
330
5
100
AcDbSymbolTableRecord
100
AcDbLinetypeTableRecord
  2
PHANTOM
 70
     0
  3
Phantom ______  __  __  ______  __  __  ______
 72
    65
 73
     6
 40
12.7
 49
6.35
 74
     0
 49
-1.27
 74
     0
 49
1.27
 74
     0
 49
-1.27
 74
     0
 49
1.27
 74
     0
 49
-1.27
 74
     0
  0
LTYPE
  5
6C
330
5
100
AcDbSymbolTableRecord
100
AcDbLinetypeTableRecord
  2
CENTER
 70
     0
  3
Center ____ _ ____ _ ____ _ ____ _ ____ _ ____
 72
    65
 73
     4
 40
10.16
 49
6.35
 74
     0
 49
-1.27
 74
     0
 49
1.27
 74
     0
 49
-1.27
 74
     0
  0
LTYPE
  5
6D
330
5
100
AcDbSymbolTableRecord
100
AcDbLinetypeTableRecord
  2
CENTERX2
 70
     0
  3
Center (2x) ________  __  ________  __  _____
 72
    65
 73
     4
 40
20.32
 49
12.7
 74
     0
 49
-2.54
 74
     0
 49
2.54
 74
     0
 49
-2.54
 74
     0
  0
LTYPE
  5
6E
330
5
100
AcDbSymbolTableRecord
100
AcDbLinetypeTableRecord
  2
DOT2
 70
     0
  3
Dot (.5x) ........................................
 72
    65
 73
     2
 40
0.635
 49
0.0
 74
     0
 49
-0.635
 74
     0
  0
ENDTAB
  0
TABLE
  2
LAYER
  5
2
330
0
100
AcDbSymbolTable
 70
     2
  0
LAYER
  5
10
330
2
100
AcDbSymbolTableRecord
100
AcDbLayerTableRecord
  2
0
 70
     0
 62
     7
  6
Continuous
370
    -3
390
F
  0
LAYER
  5
6F
330
2
100
AcDbSymbolTableRecord
100
AcDbLayerTableRecord
  2
FORMAT
 70
     0
 62
     7
  6
Continuous
370
    -3
390
F
  0
ENDTAB
  0
TABLE
  2
STYLE
  5
3
330
0
100
AcDbSymbolTable
 70
     3
  0
STYLE
  5
11
330
3
100
AcDbSymbolTableRecord
100
AcDbTextStyleTableRecord
  2
Standard
 70
     0
 40
0.0
 41
1.0
 50
0.0
 71
     0
 42
7.0
  3
txt
  4

  0
STYLE
  5
8C
330
3
100
AcDbSymbolTableRecord
100
AcDbTextStyleTableRecord
  2
SLDTEXTSTYLE0
 70
     0
 40
0.0
 41
0.75
 50
0.0
 71
     0
 42
7.0
  3
TXT
  4

  0
STYLE
  5
94
330
3
100
AcDbSymbolTableRecord
100
AcDbTextStyleTableRecord
  2
SLDTEXTSTYLE1
 70
     0
 40
0.0
 41
0.6923076923
 50
0.0
 71
     0
 42
7.0
  3
TXT
  4

  0
ENDTAB
  0
TABLE
  2
VIEW
  5
6
330
0
100
AcDbSymbolTable
 70
     0
  0
ENDTAB
  0
TABLE
  2
UCS
  5
7
330
0
100
AcDbSymbolTable
 70
     0
  0
ENDTAB
  0
TABLE
  2
APPID
  5
9
330
0
100
AcDbSymbolTable
 70
     1
  0
APPID
  5
12
330
9
100
AcDbSymbolTableRecord
100
AcDbRegAppTableRecord
  2
ACAD
 70
     0
  0
ENDTAB
  0
TABLE
  2
DIMSTYLE
  5
A
330
0
100
AcDbSymbolTable
 70
     1
100
AcDbDimStyleTable
  0
DIMSTYLE
105
27
330
A
100
AcDbSymbolTableRecord
100
AcDbDimStyleTableRecord
  2
ISO-25
 70
     0
 41
2.5
 42
0.625
 43
3.75
 44
1.25
 73
     0
 74
     0
 77
     1
 78
     8
140
2.5
141
2.5
143
0.0393700787
147
0.625
171
     3
172
     1
178
     0
271
     2
272
     2
274
     3
278
    44
283
     0
284
     8
340
11
  0
ENDTAB
  0
TABLE
  2
BLOCK_RECORD
  5
1
330
0
100
AcDbSymbolTable
 70
     1
  0
BLOCK_RECORD
  5
1F
330
1
100
AcDbSymbolTableRecord
100
AcDbBlockTableRecord
  2
*Model_Space
340
22
  0
BLOCK_RECORD
  5
1B
330
1
100
AcDbSymbolTableRecord
100
AcDbBlockTableRecord
  2
*Paper_Space
340
1E
  0
BLOCK_RECORD
  5
23
330
1
100
AcDbSymbolTableRecord
100
AcDbBlockTableRecord
  2
*Paper_Space0
340
26
  0
ENDTAB
  0
ENDSEC
  0
SECTION
  2
BLOCKS
  0
BLOCK
  5
20
330
1F
100
AcDbEntity
  8
0
100
AcDbBlockBegin
  2
*Model_Space
 70
     0
 10
0.0
 20
0.0
 30
0.0
  3
*Model_Space
  1
*Model_Space
  0
ENDBLK
  5
21
330
1F
100
AcDbEntity
  8
0
100
AcDbBlockEnd
  0
BLOCK
  5
1C
330
1B
100
AcDbEntity
 67
     1
  8
0
100
AcDbBlockBegin
  2
*Paper_Space
 70
     0
 10
0.0
 20
0.0
 30
0.0
  3
*Paper_Space
  1
*Paper_Space
  0
ENDBLK
  5
1D
330
1B
100
AcDbEntity
 67
     1
  8
0
100
AcDbBlockEnd
  0
BLOCK
  5
24
330
23
100
AcDbEntity
  8
0
100
AcDbBlockBegin
  2
*Paper_Space0
 70
     0
 10
0.0
 20
0.0
 30
0.0
  3
*Paper_Space0
  1
*Paper_Space0
  0
ENDBLK
  5
25
330
23
100
AcDbEntity
  8
0
100
AcDbBlockEnd
  0
ENDSEC
  0
SECTION
  2
ENTITIES
  0
LINE
  5
70
330
1F
100
AcDbEntity
  8
0
  6
Continuous
 62
     7
370
     0
100
AcDbLine
 10
584.0
 20
410.0
 30
0.0
 11
584.0
 21
10.0
 31
0.0
  0
LINE
  5
71
330
1F
100
AcDbEntity
  8
0
  6
Continuous
 62
     7
370
     0
100
AcDbLine
 10
318.8
 20
69.5
 30
0.0
 11
348.26
 21
69.5
 31
0.0
  0
LINE
  5
72
330
1F
100
AcDbEntity
  8
0
  6
Continuous
 62
     7
370
     0
100
AcDbLine
 10
407.2
 20
69.5
 30
0.0
 11
584.0
 21
69.5
 31
0.0
  0
LINE
  5
73
330
1F
100
AcDbEntity
  8
0
  6
Continuous
 62
     7
370
     0
100
AcDbLine
 10
318.8
 20
18.5
 30
0.0
 11
584.0
 21
18.5
 31
0.0
  0
LINE
  5
74
330
1F
100
AcDbEntity
  8
0
  6
Continuous
 62
     7
370
     0
100
AcDbLine
 10
318.8
 20
69.5
 30
0.0
 11
318.8
 21
56.75
 31
0.0
  0
LINE
  5
75
330
1F
100
AcDbEntity
  8
0
  6
Continuous
 62
     7
370
     0
100
AcDbLine
 10
584.0
 20
44.0
 30
0.0
 11
558.0
 21
44.0
 31
0.0
  0
LINE
  5
76
330
1F
100
AcDbEntity
  8
0
  6
Continuous
 62
     7
370
     0
100
AcDbLine
 10
377.72
 20
44.0
 30
0.0
 11
407.2
 21
44.0
 31
0.0
  0
LINE
  5
77
330
1F
100
AcDbEntity
  8
0
  6
Continuous
 62
     7
370
     0
100
AcDbLine
 10
407.2
 20
69.5
 30
0.0
 11
407.2
 21
10.0
 31
0.0
  0
LINE
  5
78
330
1F
100
AcDbEntity
  8
0
  6
Continuous
 62
     7
370
     0
100
AcDbLine
 10
495.6
 20
10.0
 30
0.0
 11
495.6
 21
18.5
 31
0.0
  0
LINE
  5
79
330
1F
100
AcDbEntity
  8
0
  6
Continuous
 62
     7
370
     0
100
AcDbLine
 10
348.26
 20
69.5
 30
0.0
 11
377.72
 21
69.5
 31
0.0
  0
LINE
  5
7A
330
1F
100
AcDbEntity
  8
0
  6
Continuous
 62
     7
370
     0
100
AcDbLine
 10
558.0
 20
18.5
 30
0.0
 11
558.0
 21
30.9899387204
 31
0.0
  0
LINE
  5
7B
330
1F
100
AcDbEntity
  8
0
  6
Continuous
 62
     7
370
     0
100
AcDbLine
 10
377.72
 20
69.5
 30
0.0
 11
407.2
 21
69.5
 31
0.0
  0
LINE
  5
7C
330
1F
100
AcDbEntity
  8
0
  6
Continuous
 62
     7
370
     0
100
AcDbLine
 10
584.0
 20
30.9899387204
 30
0.0
 11
558.0
 21
30.9899387204
 31
0.0
  0
LINE
  5
7D
330
1F
100
AcDbEntity
  8
0
  6
Continuous
 62
     7
370
     0
100
AcDbLine
 10
407.2
 20
44.0
 30
0.0
 11
558.0
 21
44.0
 31
0.0
  0
LINE
  5
7E
330
1F
100
AcDbEntity
  8
0
  6
Continuous
 62
     7
370
     0
100
AcDbLine
 10
377.72
 20
69.5
 30
0.0
 11
377.72
 21
44.0
 31
0.0
  0
LINE
  5
7F
330
1F
100
AcDbEntity
  8
0
  6
Continuous
 62
     7
370
     0
100
AcDbLine
 10
377.72
 20
44.0
 30
0.0
 11
348.26
 21
44.0
 31
0.0
  0
LINE
  5
80
330
1F
100
AcDbEntity
  8
0
  6
Continuous
 62
     7
370
     0
100
AcDbLine
 10
584.0
 20
410.0
 30
0.0
 11
10.0
 21
410.0
 31
0.0
  0
LINE
  5
81
330
1F
100
AcDbEntity
  8
0
  6
Continuous
 62
     7
370
     0
100
AcDbLine
 10
10.0
 20
410.0
 30
0.0
 11
10.0
 21
10.0
 31
0.0
  0
LINE
  5
82
330
1F
100
AcDbEntity
  8
0
  6
Continuous
 62
     7
370
     0
100
AcDbLine
 10
10.0
 20
10.0
 30
0.0
 11
584.0
 21
10.0
 31
0.0
  0
LINE
  5
83
330
1F
100
AcDbEntity
  8
0
  6
Continuous
 62
     7
370
     0
100
AcDbLine
 10
348.26
 20
44.0
 30
0.0
 11
348.26
 21
69.5
 31
0.0
  0
LINE
  5
84
330
1F
100
AcDbEntity
  8
0
  6
Continuous
 62
     7
370
     0
100
AcDbLine
 10
348.26
 20
44.0
 30
0.0
 11
318.8
 21
44.0
 31
0.0
  0
LINE
  5
85
330
1F
100
AcDbEntity
  8
0
  6
Continuous
 62
     7
370
     0
100
AcDbLine
 10
558.0
 20
30.9899387204
 30
0.0
 11
558.0
 21
44.0
 31
0.0
  0
LINE
  5
86
330
1F
100
AcDbEntity
  8
0
  6
Continuous
 62
     7
370
     0
100
AcDbLine
 10
318.8
 20
56.75
 30
0.0
 11
348.26
 21
56.75
 31
0.0
  0
LINE
  5
87
330
1F
100
AcDbEntity
  8
0
  6
Continuous
 62
     7
370
     0
100
AcDbLine
 10
348.26
 20
56.75
 30
0.0
 11
377.72
 21
56.75
 31
0.0
  0
LINE
  5
88
330
1F
100
AcDbEntity
  8
0
  6
Continuous
 62
     7
370
     0
100
AcDbLine
 10
377.72
 20
56.75
 30
0.0
 11
407.2
 21
56.75
 31
0.0
  0
LINE
  5
89
330
1F
100
AcDbEntity
  8
0
  6
Continuous
 62
     7
370
     0
100
AcDbLine
 10
318.8
 20
44.0
 30
0.0
 11
318.8
 21
56.75
 31
0.0
  0
LINE
  5
8A
330
1F
100
AcDbEntity
  8
0
  6
Continuous
 62
     7
370
     0
100
AcDbLine
 10
318.8
 20
44.0
 30
0.0
 11
318.8
 21
18.5
 31
0.0
  0
LINE
  5
8B
330
1F
100
AcDbEntity
  8
0
  6
Continuous
 62
     7
370
     0
100
AcDbLine
 10
318.8
 20
10.0
 30
0.0
 11
318.8
 21
18.5
 31
0.0
  0
MTEXT
  5
8D
330
1F
100
AcDbEntity
  8
0
  6
Continuous
 62
     7
370
     0
100
AcDbMText
 10
560.5538745599
 20
38.8648898954
 30
0.0
 40
3.0
 41
0.0
 71
     1
 72
     1
  1
Blattformat
  7
SLDTEXTSTYLE0
 73
     1
 44
1.0
  0
MTEXT
  5
8E
330
1F
100
AcDbEntity
  8
0
  6
Continuous
 62
     7
370
     0
100
AcDbMText
 10
324.7284817854
 20
51.7498609387
 30
0.0
 40
3.0
 41
0.0
 71
     1
 72
     1
  1
Ch. Höfig
  7
SLDTEXTSTYLE0
 73
     1
 44
1.0
  0
MTEXT
  5
8F
330
1F
100
AcDbEntity
  8
0
  6
Continuous
 62
     7
370
     0
100
AcDbMText
 10
333.5523956518
 20
64.4071316317
 30
0.0
 40
3.0
 41
0.0
 71
     2
 72
     1
  1
Name
  7
SLDTEXTSTYLE0
 73
     1
 44
1.0
  0
MTEXT
  5
90
330
1F
100
AcDbEntity
  8
0
  6
Continuous
 62
     7
370
     0
100
AcDbMText
 10
320.8917246175
 20
41.9721125785
 30
0.0
 40
3.0
 41
0.0
 71
     1
 72
     1
  1
Werkstoff:
  7
SLDTEXTSTYLE0
 73
     1
 44
1.0
  0
MTEXT
  5
91
330
1F
100
AcDbEntity
  8
0
  6
Continuous
 62
     7
370
     0
100
AcDbMText
 10
409.7299718068
 20
64.4922029259
 30
0.0
 40
3.0
 41
0.0
 71
     1
 72
     1
  1
Artikelnummer
  7
SLDTEXTSTYLE0
 73
     1
 44
1.0
  0
MTEXT
  5
92
330
1F
100
AcDbEntity
  8
0
  6
Continuous
 62
     7
370
     0
100
AcDbMText
 10
409.747932235
 20
39.7372756541
 30
0.0
 40
3.0
 41
0.0
 71
     1
 72
     1
  1
Hersteller
  7
SLDTEXTSTYLE0
 73
     1
 44
1.0
  0
MTEXT
  5
93
330
1F
100
AcDbEntity
  8
0
  6
Continuous
 62
     7
370
     0
100
AcDbMText
 10
409.747932235
 20
15.8001745491
 30
0.0
 40
3.0
 41
0.0
 71
     1
 72
     1
  1
Massstab: 1:2
  7
SLDTEXTSTYLE0
 73
     1
 44
1.0
  0
MTEXT
  5
95
330
1F
100
AcDbEntity
  8
0
  6
Continuous
 62
     7
370
     0
100
AcDbMText
 10
498.5565888556
 20
15.8001745491
 30
0.0
 40
3.0
 41
0.0
 71
     1
 72
     1
  1
Blatt 1 von 1
  7
SLDTEXTSTYLE1
 73
     1
 44
1.0
  0
MTEXT
  5
96
330
1F
100
AcDbEntity
  8
0
  6
Continuous
 62
     7
370
     0
100
AcDbMText
 10
566.0364025039
 20
28.428987176
 30
0.0
 40
5.8208333333
 41
0.0
 71
     1
 72
     1
  1
A4
  7
SLDTEXTSTYLE0
 73
     1
 44
1.0
  0
MTEXT
  5
97
330
1F
100
AcDbEntity
  8
0
  6
Continuous
 62
     7
370
     0
100
AcDbMText
 10
489.5714421635
 20
36.5754387473
 30
0.0
 40
10.5833333333
 41
0.0
 71
     2
 72
     1
  1
Feldmann GmbH
  7
SLDTEXTSTYLE0
 73
     1
 44
1.0
  0
MTEXT
  5
98
330
1F
100
AcDbEntity
  8
0
  6
Continuous
 62
     7
370
     0
100
AcDbMText
 10
392.5086979932
 20
64.4071316317
 30
0.0
 40
3.0
 41
0.0
 71
     2
 72
     1
  1
Datum
  7
SLDTEXTSTYLE0
 73
     1
 44
1.0
  0
MTEXT
  5
99
330
1F
100
AcDbEntity
  8
0
  6
Continuous
 62
     7
370
     0
100
AcDbMText
 10
360.0535019007
 20
51.7498609387
 30
0.0
 40
3.0
 41
0.0
 71
     1
 72
     1
  1
CH
  7
SLDTEXTSTYLE0
 73
     1
 44
1.0
  0
MTEXT
  5
9A
330
1F
100
AcDbEntity
  8
0
  6
Continuous
 62
     7
370
     0
100
AcDbMText
 10
382.7945986128
 20
51.7539341659
 30
0.0
 40
3.0
 41
0.0
 71
     1
 72
     1
  1
02.09.2014
  7
SLDTEXTSTYLE0
 73
     1
 44
1.0
  0
MTEXT
  5
9B
330
1F
100
AcDbEntity
  8
0
  6
Continuous
 62
     7
370
     0
100
AcDbMText
 10
363.1590609504
 20
15.8248727389
 30
0.0
 40
3.0
 41
0.0
 71
     2
 72
     1
  1
Gewicht 0.226 kg
  7
SLDTEXTSTYLE0
 73
     1
 44
1.0
  0
MTEXT
  5
9C
330
1F
100
AcDbEntity
  8
0
  6
Continuous
 62
     7
370
     0
100
AcDbMText
 10
363.0376521084
 20
31.1954403689
 30
0.0
 40
4.7625
 41
0.0
 71
     2
 72
     1
  1
1.0037 (S235JR)
  7
SLDTEXTSTYLE0
 73
     1
 44
1.0
  0
MTEXT
  5
9D
330
1F
100
AcDbEntity
  8
0
  6
Continuous
 62
     7
370
     0
100
AcDbMText
 10
461.4062714451
 20
58.7524392389
 30
0.0
 40
8.4666666667
 41
0.0
 71
     2
 72
     1
  1
1386-12
  7
SLDTEXTSTYLE0
 73
     1
 44
1.0
  0
MTEXT
  5
9E
330
1F
100
AcDbEntity
  8
0
  6
Continuous
 62
     7
370
     0
100
AcDbMText
 10
363.5060035649
 20
64.1180780199
 30
0.0
 40
3.0
 41
0.0
 71
     2
 72
     1
  1
Signatur
  7
SLDTEXTSTYLE0
 73
     1
 44
1.0
  0
ARC
  5
9F
330
1F
100
AcDbEntity
  8
0
  6
Continuous
 62
     7
370
    15
100
AcDbCircle
 10
116.7800219539
 20
250.745115258
 30
0.0
 40
10.0
100
AcDbArc
 50
270.0
 51
0.0
  0
ARC
  5
A0
330
1F
100
AcDbEntity
  8
0
  6
Continuous
 62
     7
370
    15
100
AcDbCircle
 10
104.7800219539
 20
250.745115258
 30
0.0
 40
10.0
100
AcDbArc
 50
180.0
 51
270.0
  0
LINE
  5
A1
330
1F
100
AcDbEntity
  8
0
  6
Continuous
 62
     7
370
    15
100
AcDbLine
 10
94.7800219539
 20
253.7326162268
 30
0.0
 11
94.7800219539
 21
250.745115258
 31
0.0
  0
LINE
  5
A2
330
1F
100
AcDbEntity
  8
0
  6
Continuous
 62
     7
370
    15
100
AcDbLine
 10
126.7800219539
 20
250.745115258
 30
0.0
 11
126.7800219539
 21
253.7326162268
 31
0.0
  0
ARC
  5
A3
330
1F
100
AcDbEntity
  8
0
  6
Continuous
 62
     7
370
    15
100
AcDbCircle
 10
99.7800219539
 20
253.7326162268
 30
0.0
 40
5.000000000000009
100
AcDbArc
 50
123.5409854124
 51
180.0
  0
ARC
  5
A4
330
1F
100
AcDbEntity
  8
0
  6
Continuous
 62
     7
370
    15
100
AcDbCircle
 10
121.7800219539
 20
253.7326162268
 30
0.0
 40
5.000000000000017
100
AcDbArc
 50
0.0
 51
56.4590145876
  0
ARC
  5
A5
330
1F
100
AcDbEntity
  8
0
  6
Continuous
 62
     7
370
    15
100
AcDbCircle
 10
130.9450667449
 20
267.5579906867
 30
0.0
 40
11.58731518288764
100
AcDbArc
 50
194.0491832702
 51
236.4590145876
  0
ARC
  5
A6
330
1F
100
AcDbEntity
  8
0
  6
Continuous
 62
     7
370
    15
100
AcDbCircle
 10
90.6149771629
 20
267.5579906867
 30
0.0
 40
11.58731518288765
100
AcDbArc
 50
303.5409854124
 51
345.9508167298
  0
ARC
  5
A7
330
1F
100
AcDbEntity
  8
0
  6
Continuous
 62
     7
370
    15
100
AcDbCircle
 10
110.7800219539
 20
360.945115258
 30
0.0
 40
5.000000000000014
100
AcDbArc
 50
0.0
 51
180.0
  0
ARC
  5
A8
330
1F
100
AcDbEntity
  8
0
  6
Continuous
 62
     7
370
    15
100
AcDbCircle
 10
124.3078725396
 20
267.5095756971
 30
0.0
 40
5.000000000000007
100
AcDbArc
 50
150.2084201327
 51
184.0456802764
  0
ARC
  5
A9
330
1F
100
AcDbEntity
  8
0
  6
Continuous
 62
     7
370
    15
100
AcDbCircle
 10
97.2521713682
 20
267.5095756971
 30
0.0
 40
4.999999999999993
100
AcDbArc
 50
355.9543197236
 51
29.7915798673
  0
LINE
  5
AA
330
1F
100
AcDbEntity
  8
0
  6
Continuous
 62
     7
370
    15
100
AcDbLine
 10
116.7800219539
 20
240.745115258
 30
0.0
 11
104.7800219539
 21
240.745115258
 31
0.0
  0
SPLINE
  5
AB
330
1F
100
AcDbEntity
  8
0
  6
Continuous
 62
     7
370
    15
100
AcDbSpline
210
0.0
220
0.0
230
1.0
 70
     8
 71
     3
 72
    18
 73
    14
 74
     0
 42
0.000000001
 43
0.00000001
 40
0.0
 40
0.0
 40
0.0
 40
0.0
 40
0.2500000000000007
 40
0.2500000000000007
 40
0.5000000000000014
 40
0.5000000000000014
 40
0.7500000000000022
 40
0.7500000000000022
 40
0.8750000000000011
 40
0.8750000000000011
 40
0.9375000000000006
 40
0.9375000000000006
 40
1.0
 40
1.0
 40
1.0
 40
1.0
 10
101.8941481562313
 20
263.8323166989491
 30
0.0
 10
101.8429864375011
 20
263.8323166989487
 30
0.0
 10
101.8027402704816
 20
263.8459847114313
 30
0.0
 10
101.7466604829657
 20
263.905176453854
 30
0.0
 10
101.7304586455625
 20
263.9510955955541
 30
0.0
 10
101.7239526199177
 20
264.0840737889744
 30
0.0
 10
101.7335061105435
 20
264.17069003935
 30
0.0
 10
101.7673314260257
 20
264.3459327848436
 30
0.0
 10
101.781872657545
 20
264.4120744648693
 30
0.0
 10
101.8081817988917
 20
264.5250454512098
 30
0.0
 10
101.8177803794962
 20
264.5653615752786
 30
0.0
 10
101.8383141131122
 20
264.6507184290876
 30
0.0
 10
101.8494850242031
 20
264.6969550545905
 30
0.0
 10
101.8613610320066
 20
264.7451104229461
 30
0.0
  0
LINE
  5
AC
330
1F
100
AcDbEntity
  8
0
  6
Continuous
 62
     7
370
    15
100
AcDbLine
 10
119.6658957516
 20
263.8323166989
 30
0.0
 11
101.8941481562
 21
263.8323166989
 31
0.0
  0
SPLINE
  5
AD
330
1F
100
AcDbEntity
  8
0
  6
Continuous
 62
     7
370
    15
100
AcDbSpline
210
0.0
220
0.0
230
1.0
 70
     8
 71
     3
 72
    18
 73
    14
 74
     0
 42
0.000000001
 43
0.00000001
 40
0.0
 40
0.0
 40
0.0
 40
0.0
 40
0.249999999999999
 40
0.249999999999999
 40
0.4999999999999982
 40
0.4999999999999982
 40
0.7499999999999974
 40
0.7499999999999974
 40
0.8749999999999972
 40
0.8749999999999972
 40
0.9374999999999986
 40
0.9374999999999986
 40
1.0
 40
1.0
 40
1.0
 40
1.0
 10
119.6658957515642
 20
263.8323166989491
 30
0.0
 10
119.7170594011684
 20
263.8323166989491
 30
0.0
 10
119.7570281918843
 20
263.8457479570901
 30
0.0
 10
119.8135020695234
 20
263.9052478560661
 30
0.0
 10
119.82957005858
 20
263.9510083094633
 30
0.0
 10
119.8360987605616
 20
264.0840033249107
 30
0.0
 10
119.826473446721
 20
264.1709281701484
 30
0.0
 10
119.7928785262434
 20
264.3451198837763
 30
0.0
 10
119.7783340283818
 20
264.4113579618071
 30
0.0
 10
119.751972111637
 20
264.524581774663
 30
0.0
 10
119.7423899515478
 20
264.5648347213021
 30
0.0
 10
119.7216988998667
 20
264.6508481739908
 30
0.0
 10
119.7104886873299
 20
264.6972141091255
 30
0.0
 10
119.6986816230528
 20
264.7451152579582
 30
0.0
  0
LINE
  5
AE
330
1F
100
AcDbEntity
  8
0
  6
Continuous
 62
     7
370
    15
100
AcDbLine
 10
102.9184499487
 20
265.0907488905
 30
0.0
 11
118.6415939591
 21
265.0907488905
 31
0.0
  0
ARC
  5
AF
330
1F
100
AcDbEntity
  8
0
  6
Continuous
 62
     7
370
    15
100
AcDbCircle
 10
117.5327916248
 20
263.1421567404
 30
0.0
 40
2.241975464597369
100
AcDbArc
 50
17.9288445896
 51
60.3589376485
  0
ARC
  5
B0
330
1F
100
AcDbEntity
  8
0
  6
Continuous
 62
     7
370
    15
100
AcDbCircle
 10
104.027252283
 20
263.1421567404
 30
0.0
 40
2.241975464602404
100
AcDbArc
 50
119.6410623514
 51
162.0711554103
  0
SPLINE
  5
B1
330
1F
100
AcDbEntity
  8
0
  6
Continuous
 62
     7
370
    15
100
AcDbSpline
210
0.0
220
0.0
230
1.0
 70
     8
 71
     3
 72
    14
 73
    10
 74
     0
 42
0.000000001
 43
0.00000001
 40
0.0
 40
0.0
 40
0.0
 40
0.0
 40
0.25
 40
0.25
 40
0.5
 40
0.5
 40
0.75
 40
0.75
 40
1.0
 40
1.0
 40
1.0
 40
1.0
 10
104.4097845127014
 20
266.0977295655426
 30
0.0
 10
104.6194323131419
 20
266.3099110795206
 30
0.0
 10
104.8110200784344
 20
266.5389086196601
 30
0.0
 10
105.1555582368487
 20
267.0328796576774
 30
0.0
 10
105.3062549517922
 20
267.2955744528685
 30
0.0
 10
105.5543551154663
 20
267.837325361168
 30
0.0
 10
105.6533528781511
 20
268.1185412686302
 30
0.0
 10
105.7965473677931
 20
268.7035924485706
 30
0.0
 10
105.8395898601348
 20
269.0050672576472
 30
0.0
 10
105.8514534027366
 20
269.3080453813666
 30
0.0
  0
LINE
  5
B2
330
1F
100
AcDbEntity
  8
0
  6
Continuous
 62
     7
370
    15
100
AcDbLine
 10
105.8514534027
 20
269.3080453814
 30
0.0
 11
115.7085905051
 21
269.3080453814
 31
0.0
  0
SPLINE
  5
B3
330
1F
100
AcDbEntity
  8
0
  6
Continuous
 62
     7
370
    15
100
AcDbSpline
210
0.0
220
0.0
230
1.0
 70
     8
 71
     3
 72
    14
 73
    10
 74
     0
 42
0.000000001
 43
0.00000001
 40
0.0
 40
0.0
 40
0.0
 40
0.0
 40
0.25
 40
0.25
 40
0.5
 40
0.5
 40
0.75
 40
0.75
 40
1.0
 40
1.0
 40
1.0
 40
1.0
 10
115.708590505057
 20
269.3080453813666
 30
0.0
 10
115.7204449179565
 20
269.0053004173499
 30
0.0
 10
115.7626946639934
 20
268.7091983819702
 30
0.0
 10
115.9035032585127
 20
268.1293007184959
 30
0.0
 10
116.0033196758104
 20
267.8429561826593
 30
0.0
 10
116.253604723301
 20
267.2955237600032
 30
0.0
 10
116.4025173019628
 20
267.036276361244
 30
0.0
 10
116.7445834020463
 20
266.5447109886222
 30
0.0
 10
116.939618276534
 20
266.3109164024557
 30
0.0
 10
117.150259395092
 20
266.0977295655429
 30
0.0
  0
SPLINE
  5
B4
330
1F
100
AcDbEntity
  8
0
  6
Continuous
 62
     7
370
    15
100
AcDbSpline
210
0.0
220
0.0
230
1.0
 70
     8
 71
     3
 72
    12
 73
     8
 74
     0
 42
0.000000001
 43
0.00000001
 40
0.0
 40
0.0
 40
0.0
 40
0.0
 40
0.2500000000000001
 40
0.2500000000000001
 40
0.5000000000000001
 40
0.5000000000000001
 40
1.0
 40
1.0
 40
1.0
 40
1.0
 10
118.6415939591169
 20
265.0907488904844
 30
0.0
 10
118.5171248296573
 20
265.145294438
 30
0.0
 10
118.3894237914116
 20
265.2066625469673
 30
0.0
 10
118.1307274123283
 20
265.3453844826128
 30
0.0
 10
117.9993976315255
 20
265.423107136729
 30
0.0
 10
117.6170541918978
 20
265.6755643556964
 30
0.0
 10
117.3715240863018
 20
265.8737907640284
 30
0.0
 10
117.1502593950922
 20
266.0977295655426
 30
0.0
  0
SPLINE
  5
B5
330
1F
100
AcDbEntity
  8
0
  6
Continuous
 62
     7
370
    15
100
AcDbSpline
210
0.0
220
0.0
230
1.0
 70
     8
 71
     3
 72
    12
 73
     8
 74
     0
 42
0.000000001
 43
0.00000001
 40
0.0
 40
0.0
 40
0.0
 40
0.0
 40
0.5
 40
0.5
 40
0.75
 40
0.75
 40
1.0
 40
1.0
 40
1.0
 40
1.0
 10
104.4097845127014
 20
266.0977295655426
 30
0.0
 10
104.1877400804883
 20
265.8730015994091
 30
0.0
 10
103.9462190645472
 20
265.6779307005935
 30
0.0
 10
103.5628143431093
 20
265.4244233899984
 30
0.0
 10
103.4306036206881
 20
265.3461130980789
 30
0.0
 10
103.1714128883251
 20
265.207049551214
 30
0.0
 10
103.0433597818044
 20
265.145487565589
 30
0.0
 10
102.9184499486842
 20
265.0907488904876
 30
0.0
  0
SPLINE
  5
B6
330
1F
100
AcDbEntity
  8
0
  6
Continuous
 62
     7
370
    15
100
AcDbSpline
210
0.0
220
0.0
230
1.0
 70
     8
 71
     3
 72
    14
 73
    10
 74
     0
 42
0.000000001
 43
0.00000001
 40
0.0
 40
0.0
 40
0.0
 40
0.0
 40
0.25
 40
0.25
 40
0.5
 40
0.5
 40
0.75
 40
0.75
 40
1.0
 40
1.0
 40
1.0
 40
1.0
 10
112.1106932277091
 20
346.4624296988122
 30
0.0
 10
111.9187238988178
 20
346.3701742037385
 30
0.0
 10
111.7055161964189
 20
346.3043014781779
 30
0.0
 10
111.2554179571677
 20
346.2167208923194
 30
0.0
 10
111.0175841504294
 20
346.1951496101165
 30
0.0
 10
110.5428252123861
 20
346.195127416436
 30
0.0
 10
110.3055242005224
 20
346.2165763156162
 30
0.0
 10
109.8544509330067
 20
346.3042862670541
 30
0.0
 10
109.6413116760926
 20
346.3701782083062
 30
0.0
 10
109.4493506800804
 20
346.4624296988142
 30
0.0
  0
SPLINE
  5
B7
330
1F
100
AcDbEntity
  8
0
  6
Continuous
 62
     7
370
    15
100
AcDbSpline
210
0.0
220
0.0
230
1.0
 70
     8
 71
     3
 72
    14
 73
    10
 74
     0
 42
0.000000001
 43
0.00000001
 40
0.0
 40
0.0
 40
0.0
 40
0.0
 40
0.4999999999999998
 40
0.4999999999999998
 40
0.7499999999999999
 40
0.7499999999999999
 40
0.8749999999999999
 40
0.8749999999999999
 40
1.0
 40
1.0
 40
1.0
 40
1.0
 10
115.708590505057
 20
269.3080453813666
 30
0.0
 10
115.2048957998408
 20
282.171696807958
 30
0.0
 10
114.6890560653111
 20
295.0348871372693
 30
0.0
 10
113.8483301749581
 20
314.3265930974009
 30
0.0
 10
113.5572844730932
 20
320.756673438119
 30
0.0
 10
113.0768670663604
 20
330.3998120472242
 30
0.0
 10
112.9093823547644
 20
333.6138595746507
 30
0.0
 10
112.5440980261479
 20
340.040584441564
 30
0.0
 10
112.3491995626587
 20
343.253345315985
 30
0.0
 10
112.1106932277132
 20
346.4624296988171
 30
0.0
  0
SPLINE
  5
B8
330
1F
100
AcDbEntity
  8
0
  6
Continuous
 62
     7
370
    15
100
AcDbSpline
210
0.0
220
0.0
230
1.0
 70
     8
 71
     3
 72
    14
 73
    10
 74
     0
 42
0.000000001
 43
0.00000001
 40
0.0
 40
0.0
 40
0.0
 40
0.0
 40
0.1250000000000002
 40
0.1250000000000002
 40
0.2500000000000004
 40
0.2500000000000004
 40
0.5000000000000003
 40
0.5000000000000003
 40
1.0
 40
1.0
 40
1.0
 40
1.0
 10
109.44935068008
 20
346.4624296988133
 30
0.0
 10
109.2107954303561
 20
343.2526871714015
 30
0.0
 10
109.0159304943336
 20
340.040314681211
 30
0.0
 10
108.6506750710847
 20
333.614096447747
 30
0.0
 10
108.483190279739
 20
330.4000757944908
 30
0.0
 10
108.0027595685367
 20
320.7566881080655
 30
0.0
 10
107.7117088805529
 20
314.326486192173
 30
0.0
 10
106.8709781777047
 20
295.034656489191
 30
0.0
 10
106.3551443402969
 20
282.1716005873505
 30
0.0
 10
105.8514534027366
 20
269.3080453813666
 30
0.0
  0
LINE
  5
B9
330
1F
100
AcDbEntity
  8
0
  6
Continuous
 62
     7
370
    15
100
AcDbLine
 10
115.7800219539
 20
360.945115258
 30
0.0
 11
114.6099524163
 21
360.945115258
 31
0.0
  0
ARC
  5
BA
330
1F
100
AcDbEntity
  8
0
  6
Continuous
 62
     7
370
    15
100
AcDbCircle
 10
110.7800219539
 20
360.945115258
 30
0.0
 40
3.829930462415578
100
AcDbArc
 50
343.9803761236
 51
0.0
  0
SPLINE
  5
BB
330
1F
100
AcDbEntity
  8
0
  6
Continuous
 62
     7
370
    15
100
AcDbSpline
210
0.0
220
0.0
230
1.0
 70
     8
 71
     3
 72
    28
 73
    24
 74
     0
 42
0.000000001
 43
0.00000001
 40
0.0
 40
0.0
 40
0.0
 40
0.0
 40
0.0624999999999999
 40
0.0624999999999999
 40
0.1249999999999999
 40
0.1249999999999999
 40
0.1874999999999999
 40
0.1874999999999999
 40
0.2499999999999999
 40
0.2499999999999999
 40
0.3749999999999998
 40
0.3749999999999998
 40
0.4999999999999998
 40
0.4999999999999998
 40
0.6249999999999998
 40
0.6249999999999998
 40
0.7499999999999998
 40
0.7499999999999998
 40
0.8749999999999999
 40
0.8749999999999999
 40
0.9375
 40
0.9375
 40
1.0
 40
1.0
 40
1.0
 40
1.0
 10
107.0988182871524
 20
359.8881824734939
 30
0.0
 10
107.1604298437121
 20
360.0235474064227
 30
0.0
 10
107.2471599624955
 20
360.1419473065633
 30
0.0
 10
107.4558851474173
 20
360.3434754923297
 30
0.0
 10
107.5779324423181
 20
360.4270038926488
 30
0.0
 10
107.8430299477477
 20
360.5652243153907
 30
0.0
 10
107.9885800150451
 20
360.6212510456106
 30
0.0
 10
108.29506878696
 20
360.7124729383996
 30
0.0
 10
108.4547632738671
 20
360.7475424437127
 30
0.0
 10
108.9510041925074
 20
360.8321592106688
 30
0.0
 10
109.3082162043682
 20
360.8616782785937
 30
0.0
 10
110.0352105156578
 20
360.8969737509032
 30
0.0
 10
110.4116860838651
 20
360.9031813365342
 30
0.0
 10
111.1572812208561
 20
360.9030686709681
 30
0.0
 10
111.5269085094889
 20
360.8969878497127
 30
0.0
 10
112.2594784881664
 20
360.8611904548491
 30
0.0
 10
112.608519722764
 20
360.832134274282
 30
0.0
 10
113.2676799845797
 20
360.7199638331708
 30
0.0
 10
113.5826162035661
 20
360.6351617581028
 30
0.0
 10
113.9820098146517
 20
360.4271250441269
 30
0.0
 10
114.1049360892855
 20
360.3427702481853
 30
0.0
 10
114.3125239277509
 20
360.1422495374426
 30
0.0
 10
114.399657248127
 20
360.023452528031
 30
0.0
 10
114.4612256206421
 20
359.888182473492
 30
0.0
  0
ARC
  5
BC
330
1F
100
AcDbEntity
  8
0
  6
Continuous
 62
     7
370
    15
100
AcDbCircle
 10
110.7800219539
 20
360.945115258
 30
0.0
 40
3.829930462415637
100
AcDbArc
 50
180.0
 51
196.0196238763
  0
LINE
  5
BD
330
1F
100
AcDbEntity
  8
0
  6
Continuous
 62
     7
370
    15
100
AcDbLine
 10
106.9500914915
 20
360.945115258
 30
0.0
 11
105.7800219539
 21
360.945115258
 31
0.0
  0
SPLINE
  5
BE
330
1F
100
AcDbEntity
  8
0
  6
Continuous
 62
     7
370
    15
100
AcDbSpline
210
0.0
220
0.0
230
1.0
 70
     8
 71
     3
 72
    14
 73
    10
 74
     0
 42
0.000000001
 43
0.00000001
 40
0.0
 40
0.0
 40
0.0
 40
0.0
 40
0.2500000000000002
 40
0.2500000000000002
 40
0.5000000000000001
 40
0.5000000000000001
 40
0.75
 40
0.75
 40
1.0
 40
1.0
 40
1.0
 40
1.0
 10
107.0988182871515
 20
359.888182473492
 30
0.0
 10
107.0370636455373
 20
359.7525031726116
 30
0.0
 10
106.9723423081917
 20
359.609429770344
 30
0.0
 10
106.8408186898608
 20
359.3083344999803
 30
0.0
 10
106.7735376359162
 20
359.1492397921987
 30
0.0
 10
106.6410984007869
 20
358.8197465043519
 30
0.0
 10
106.5764558696227
 20
358.6507729618701
 30
0.0
 10
106.4518577411481
 20
358.3037484500256
 30
0.0
 10
106.3912022366053
 20
358.1230652705955
 30
0.0
 10
106.335924745239
 20
357.9451152579584
 30
0.0
  0
SPLINE
  5
BF
330
1F
100
AcDbEntity
  8
0
  6
Continuous
 62
     7
370
    15
100
AcDbSpline
210
0.0
220
0.0
230
1.0
 70
     8
 71
     3
 72
    14
 73
    10
 74
     0
 42
0.000000001
 43
0.00000001
 40
0.0
 40
0.0
 40
0.0
 40
0.0
 40
0.2499999999999998
 40
0.2499999999999998
 40
0.4999999999999999
 40
0.4999999999999999
 40
0.7499999999999999
 40
0.7499999999999999
 40
1.0
 40
1.0
 40
1.0
 40
1.0
 10
114.4612256206421
 20
359.888182473492
 30
0.0
 10
114.5229802622563
 20
359.7525031726115
 30
0.0
 10
114.5877015996011
 20
359.6094297703457
 30
0.0
 10
114.7192252179321
 20
359.3083344999818
 30
0.0
 10
114.7865062718768
 20
359.1492397922
 30
0.0
 10
114.9189455070063
 20
358.8197465043529
 30
0.0
 10
114.9835880381706
 20
358.6507729618709
 30
0.0
 10
115.1081861666453
 20
358.303748450026
 30
0.0
 10
115.1688416711882
 20
358.1230652705957
 30
0.0
 10
115.2241191625546
 20
357.9451152579584
 30
0.0
  0
LINE
  5
C0
330
1F
100
AcDbEntity
  8
0
  6
Continuous
 62
     7
370
    15
100
AcDbLine
 10
115.2241191626
 20
357.945115258
 30
0.0
 11
106.3359247452
 21
357.945115258
 31
0.0
  0
ARC
  5
C1
330
1F
100
AcDbEntity
  8
0
  6
Continuous
 62
     7
370
    15
100
AcDbCircle
 10
110.7800219539
 20
360.945115258
 30
0.0
 40
5.361902647381821
100
AcDbArc
 50
201.1713027261
 51
214.0214258935
  0
SPLINE
  5
C2
330
1F
100
AcDbEntity
  8
0
  6
Continuous
 62
     7
370
    15
100
AcDbSpline
210
0.0
220
0.0
230
1.0
 70
    24
 71
     3
 72
     8
 73
     4
 74
     0
 42
0.000000001
 43
0.00000001
 40
0.0
 40
0.0
 40
0.0
 40
0.0
 40
0.0002619778064636
 40
0.0002619778064636
 40
0.0002619778064636
 40
0.0002619778064636
 10
105.7800219538968
 20
359.0086235848547
 30
0.0
 10
105.7800219538968
 20
359.0959495203425
 30
0.0
 10
105.7800219538968
 20
359.1832767067961
 30
0.0
 10
105.7800219538968
 20
359.2705939161667
 30
0.0
  0
SPLINE
  5
C3
330
1F
100
AcDbEntity
  8
0
  6
Continuous
 62
     7
370
    15
100
AcDbSpline
210
0.0
220
0.0
230
1.0
 70
     8
 71
     3
 72
    18
 73
    14
 74
     0
 42
0.000000001
 43
0.00000001
 40
0.0
 40
0.0
 40
0.0
 40
0.0
 40
0.249999999999993
 40
0.249999999999993
 40
0.499999999999986
 40
0.499999999999986
 40
0.6249999999999895
 40
0.6249999999999895
 40
0.749999999999993
 40
0.749999999999993
 40
0.8749999999999964
 40
0.8749999999999964
 40
1.0
 40
1.0
 40
1.0
 40
1.0
 10
105.7800219538968
 20
359.2705939161667
 30
0.0
 10
105.7800219538968
 20
359.4753891263717
 30
0.0
 10
105.8063169012032
 20
359.6759820514583
 30
0.0
 10
105.9135221295728
 20
360.0679075010088
 30
0.0
 10
105.9936855781383
 20
360.2553261469868
 30
0.0
 10
106.1586217825391
 20
360.5060529053526
 30
0.0
 10
106.2204019089771
 20
360.58313260341
 30
0.0
 10
106.3560117310624
 20
360.7185786798998
 30
0.0
 10
106.4309402294449
 20
360.7773426766898
 30
0.0
 10
106.5825023845664
 20
360.86685664268
 30
0.0
 10
106.6614661694982
 20
360.8990161513395
 30
0.0
 10
106.8122024989482
 20
360.9378819425299
 30
0.0
 10
106.8839343730289
 20
360.9451152579584
 30
0.0
 10
106.9500914914812
 20
360.9451152579584
 30
0.0
  0
SPLINE
  5
C4
330
1F
100
AcDbEntity
  8
0
  6
Continuous
 62
     7
370
    15
100
AcDbSpline
210
0.0
220
0.0
230
1.0
 70
    24
 71
     3
 72
     8
 73
     4
 74
     0
 42
0.000000001
 43
0.00000001
 40
0.0
 40
0.0
 40
0.0
 40
0.0
 40
0.0002619778064636
 40
0.0002619778064636
 40
0.0002619778064636
 40
0.0002619778064636
 10
115.7800219538968
 20
359.2705939161667
 30
0.0
 10
115.7800219538968
 20
359.1832767067961
 30
0.0
 10
115.7800219538968
 20
359.0959495203425
 30
0.0
 10
115.7800219538968
 20
359.0086235848547
 30
0.0
  0
ARC
  5
C5
330
1F
100
AcDbEntity
  8
0
  6
Continuous
 62
     7
370
    15
100
AcDbCircle
 10
110.7800219539
 20
360.945115258
 30
0.0
 40
5.361902647381807
100
AcDbArc
 50
325.9785741065
 51
338.8286972739
  0
SPLINE
  5
C6
330
1F
100
AcDbEntity
  8
0
  6
Continuous
 62
     7
370
    15
100
AcDbSpline
210
0.0
220
0.0
230
1.0
 70
     8
 71
     3
 72
    18
 73
    14
 74
     0
 42
0.000000001
 43
0.00000001
 40
0.0
 40
0.0
 40
0.0
 40
0.0
 40
0.1249999999999965
 40
0.1249999999999965
 40
0.249999999999993
 40
0.249999999999993
 40
0.3749999999999895
 40
0.3749999999999895
 40
0.499999999999986
 40
0.499999999999986
 40
0.749999999999993
 40
0.749999999999993
 40
1.0
 40
1.0
 40
1.0
 40
1.0
 10
114.6099524163124
 20
360.9451152579584
 30
0.0
 10
114.6760890519816
 20
360.9451152579584
 30
0.0
 10
114.7472731558691
 20
360.9379665412566
 30
0.0
 10
114.8979000719206
 20
360.8992522898301
 30
0.0
 10
114.976934861954
 20
360.8671554103406
 30
0.0
 10
115.1287369876931
 20
360.7776183988632
 30
0.0
 10
115.2037443785895
 20
360.718850288655
 30
0.0
 10
115.3397204472429
 20
360.5830700672421
 30
0.0
 10
115.4021577294361
 20
360.5050272178905
 30
0.0
 10
115.5662622614564
 20
360.2552859433371
 30
0.0
 10
115.6471417321393
 20
360.0660228938312
 30
0.0
 10
115.7536800890356
 20
359.6757696702517
 30
0.0
 10
115.7800219538968
 20
359.4755362260252
 30
0.0
 10
115.7800219538968
 20
359.2705939161667
 30
0.0
  0
SPLINE
  5
C7
330
1F
100
AcDbEntity
  8
0
  6
Continuous
 62
     7
370
    15
100
AcDbSpline
210
0.0
220
0.0
230
1.0
 70
    24
 71
     3
 72
    10
 73
     6
 74
     0
 42
0.000000001
 43
0.00000001
 40
0.0
 40
0.0
 40
0.0
 40
0.0
 40
0.5000000000000001
 40
0.5000000000000001
 40
1.0
 40
1.0
 40
1.0
 40
1.0
 10
115.7800219538968
 20
359.2705939161667
 30
0.0
 10
115.7800219538968
 20
359.4658173693831
 30
0.0
 10
115.7800219538968
 20
359.7289721046824
 30
0.0
 10
115.7800219538968
 20
360.3084166157997
 30
0.0
 10
115.7800219538968
 20
360.6257396875192
 30
0.0
 10
115.7800219538968
 20
360.9451152579584
 30
0.0
  0
SPLINE
  5
C8
330
1F
100
AcDbEntity
  8
0
  6
Continuous
 62
     7
370
    15
100
AcDbSpline
210
0.0
220
0.0
230
1.0
 70
    24
 71
     3
 72
    10
 73
     6
 74
     0
 42
0.000000001
 43
0.00000001
 40
0.0
 40
0.0
 40
0.0
 40
0.0
 40
0.5
 40
0.5
 40
1.0
 40
1.0
 40
1.0
 40
1.0
 10
105.7800219538968
 20
359.2705939161667
 30
0.0
 10
105.7800219538968
 20
359.465817369383
 30
0.0
 10
105.7800219538968
 20
359.7289721046824
 30
0.0
 10
105.7800219538968
 20
360.3084166157997
 30
0.0
 10
105.7800219538968
 20
360.6257396875192
 30
0.0
 10
105.7800219538968
 20
360.9451152579584
 30
0.0
  0
SPLINE
  5
C9
330
1F
100
AcDbEntity
  8
0
  6
Continuous
 62
     7
370
    15
100
AcDbSpline
210
0.0
220
0.0
230
1.0
 70
     8
 71
     3
 72
    12
 73
     8
 74
     0
 42
0.000000001
 43
0.00000001
 40
0.0
 40
0.0
 40
0.0
 40
0.0
 40
0.499977839558493
 40
0.7499400157918955
 40
0.8748189618207814
 40
0.9375311308585094
 40
1.0
 40
1.0
 40
1.0
 40
1.0
 10
120.1346977183471
 20
270.279562343178
 30
0.0
 10
120.1240494679751
 20
270.2614877502139
 30
0.0
 10
120.1080776619861
 20
270.2343768275679
 30
0.0
 10
120.0910589770662
 20
270.2053623903409
 30
0.0
 10
120.0834418248915
 20
270.1923355929611
 30
0.0
 10
120.0794761197703
 20
270.1855388188552
 30
0.0
 10
120.0777263897578
 20
270.1825330227331
 30
0.0
 10
120.0768532251254
 20
270.1810330456811
 30
0.0
  0
SPLINE
  5
CA
330
1F
100
AcDbEntity
  8
0
  6
Continuous
 62
     7
370
    15
100
AcDbSpline
210
0.0
220
0.0
230
1.0
 70
     8
 71
     3
 72
    17
 73
    13
 74
     0
 42
0.000000001
 43
0.00000001
 40
0.0
 40
0.0
 40
0.0
 40
0.0
 40
0.0258160818098612
 40
0.0735061456815721
 40
0.1447621012918836
 40
0.2374508900624348
 40
0.348069943208964
 40
0.4722081966645544
 40
0.6047765667712963
 40
0.7402918773788153
 40
0.873402401019815
 40
1.0
 40
1.0
 40
1.0
 40
1.0
 10
120.0768532251255
 20
270.1810330456813
 30
0.0
 10
120.0760108382316
 20
270.1795951673481
 30
0.0
 10
120.0736123095085
 20
270.1755010954821
 30
0.0
 10
120.067916390554
 20
270.1658399209082
 30
0.0
 10
120.0601522728604
 20
270.152724224707
 30
0.0
 10
120.0499167997295
 20
270.1355426495302
 30
0.0
 10
120.0377424323212
 20
270.115257054441
 30
0.0
 10
120.0239463802187
 20
270.092448364552
 30
0.0
 10
120.0090413302287
 20
270.0679887747588
 30
0.0
 10
119.993620784278
 20
270.0428172827494
 30
0.0
 10
119.9782315422935
 20
270.0177759142997
 30
0.0
 10
119.9684033514333
 20
270.0016625051527
 30
0.0
 10
119.9636124910141
 20
269.9938078455108
 30
0.0
  0
SPLINE
  5
CB
330
1F
100
AcDbEntity
  8
0
  6
Continuous
 62
     7
370
    15
100
AcDbSpline
210
0.0
220
0.0
230
1.0
 70
     8
 71
     3
 72
    12
 73
     8
 74
     0
 42
0.000000001
 43
0.00000001
 40
0.0
 40
0.0
 40
0.0
 40
0.0
 40
0.2499999999999991
 40
0.2499999999999991
 40
0.4999999999999982
 40
0.4999999999999982
 40
1.0
 40
1.0
 40
1.0
 40
1.0
 10
119.9636124910141
 20
269.9938078455109
 30
0.0
 10
119.8402527378324
 20
269.7786557133746
 30
0.0
 10
119.733965811392
 20
269.5564056894949
 30
0.0
 10
119.5547765631078
 20
269.0980223200841
 30
0.0
 10
119.4815357609452
 20
268.8601173785132
 30
0.0
 10
119.3170434668338
 20
268.1392761004587
 30
0.0
 10
119.2790310692557
 20
267.6516504199789
 30
0.0
 10
119.3141048770222
 20
267.1568167940698
 30
0.0
  0
LINE
  5
CC
330
1F
100
AcDbEntity
  8
0
  6
Continuous
 62
     7
370
    15
100
AcDbLine
 10
119.314104877
 20
267.1568167941
 30
0.0
 11
117.0613802767
 21
266.9973697699
 31
0.0
  0
SPLINE
  5
CD
330
1F
100
AcDbEntity
  8
0
  6
Continuous
 62
     7
370
    15
100
AcDbSpline
210
0.0
220
0.0
230
1.0
 70
     8
 71
     3
 72
    26
 73
    22
 74
     0
 42
0.000000001
 43
0.00000001
 40
0.0
 40
0.0
 40
0.0
 40
0.0
 40
0.1250000000000004
 40
0.1250000000000004
 40
0.1875000000000011
 40
0.1875000000000011
 40
0.2500000000000017
 40
0.2500000000000017
 40
0.3750000000000029
 40
0.3750000000000029
 40
0.5000000000000042
 40
0.5000000000000042
 40
0.6250000000000039
 40
0.6250000000000039
 40
0.6875000000000037
 40
0.6875000000000037
 40
0.7500000000000036
 40
0.7500000000000036
 40
0.8750000000000018
 40
0.8750000000000018
 40
1.0
 40
1.0
 40
1.0
 40
1.0
 10
117.0613802766953
 20
266.9973697699065
 30
0.0
 10
117.0286071224365
 20
267.4604006180303
 30
0.0
 10
117.0403946082981
 20
267.919048678677
 30
0.0
 10
117.1221508926491
 20
268.6007186305768
 30
0.0
 10
117.1601568159293
 20
268.8268842488685
 30
0.0
 10
117.2580993485931
 20
269.2770584801627
 30
0.0
 10
117.3184427941628
 20
269.5021056233912
 30
0.0
 10
117.5293799038023
 20
270.1610156826784
 30
0.0
 10
117.7098272317097
 20
270.5817675221933
 30
0.0
 10
118.1489497198062
 20
271.3868873429311
 30
0.0
 10
118.4109149930761
 20
271.7743943904762
 30
0.0
 10
118.9953493645883
 20
272.4827673276429
 30
0.0
 10
119.3185790687637
 20
272.8067299580711
 30
0.0
 10
119.8502533994487
 20
273.2470350586565
 30
0.0
 10
120.0364033342149
 20
273.386819895724
 30
0.0
 10
120.4185411039545
 20
273.646123180632
 30
0.0
 10
120.6145414910211
 20
273.7658467492769
 30
0.0
 10
121.2169711151037
 20
274.0959701510151
 30
0.0
 10
121.6376985221581
 20
274.2775849847689
 30
0.0
 10
122.5185790582063
 20
274.561443000034
 30
0.0
 10
122.9721838823072
 20
274.6611644698676
 30
0.0
 10
123.4330041038973
 20
274.7169456982678
 30
0.0
  0
SPLINE
  5
CE
330
1F
100
AcDbEntity
  8
0
  6
Continuous
 62
     7
370
    15
100
AcDbSpline
210
0.0
220
0.0
230
1.0
 70
     8
 71
     3
 72
    20
 73
    16
 74
     0
 42
0.000000001
 43
0.00000001
 40
0.0
 40
0.0
 40
0.0
 40
0.0
 40
0.2500000000000006
 40
0.2500000000000006
 40
0.3750000000000006
 40
0.3750000000000006
 40
0.5000000000000007
 40
0.5000000000000007
 40
0.7500000000000008
 40
0.7500000000000008
 40
0.8750000000000007
 40
0.8750000000000007
 40
0.9375000000000004
 40
0.9375000000000004
 40
1.0
 40
1.0
 40
1.0
 40
1.0
 10
123.4330041038973
 20
274.7169456982678
 30
0.0
 10
123.0887931202146
 20
274.34428000216
 30
0.0
 10
122.763482159374
 20
273.9703217596889
 30
0.0
 10
122.298448730703
 20
273.4050226390113
 30
0.0
 10
122.1466262515931
 20
273.2149984635378
 30
0.0
 10
121.8542937065746
 20
272.8387112430599
 30
0.0
 10
121.7136509957741
 20
272.6523568471154
 30
0.0
 10
121.3056960212251
 20
272.0969420764109
 30
0.0
 10
121.0522345519072
 20
271.7314968519889
 30
0.0
 10
120.6924687039662
 20
271.1847156123257
 30
0.0
 10
120.5759564728486
 20
271.0026453559919
 30
0.0
 10
120.4059670121181
 20
270.7296970135664
 30
0.0
 10
120.3500900880487
 20
270.6387199827402
 30
0.0
 10
120.2402744547835
 20
270.4574587992307
 30
0.0
 10
120.1858527694304
 20
270.3663375937372
 30
0.0
 10
120.1346977183464
 20
270.2795623431768
 30
0.0
  0
SPLINE
  5
CF
330
1F
100
AcDbEntity
  8
0
  6
Continuous
 62
     7
370
    15
100
AcDbSpline
210
0.0
220
0.0
230
1.0
 70
     8
 71
     3
 72
    13
 73
     9
 74
     0
 42
0.000000001
 43
0.00000001
 40
0.0
 40
0.0
 40
0.0
 40
0.0
 40
0.062463035452767
 40
0.1251693480800478
 40
0.2500366322207612
 40
0.4999754655969521
 40
0.7499515592634598
 40
1.0
 40
1.0
 40
1.0
 40
1.0
 10
101.4831906826678
 20
270.1810330456818
 30
0.0
 10
101.4823175264667
 20
270.1825330098195
 30
0.0
 10
101.4805678133499
 20
270.1855387800623
 30
0.0
 10
101.4766019390808
 20
270.1923358132539
 30
0.0
 10
101.468986614939
 20
270.2053598106153
 30
0.0
 10
101.4568161615293
 20
270.2261061338846
 30
0.0
 10
101.4413643754786
 20
270.2523806470591
 30
0.0
 10
101.4306860997924
 20
270.2705009038844
 30
0.0
 10
101.4253461894452
 20
270.2795623431802
 30
0.0
  0
SPLINE
  5
D0
330
1F
100
AcDbEntity
  8
0
  6
Continuous
 62
     7
370
    15
100
AcDbSpline
210
0.0
220
0.0
230
1.0
 70
     8
 71
     3
 72
    26
 73
    22
 74
     0
 42
0.000000001
 43
0.00000001
 40
0.0
 40
0.0
 40
0.0
 40
0.0
 40
0.1249999999999987
 40
0.1249999999999987
 40
0.2499999999999974
 40
0.2499999999999974
 40
0.3124999999999974
 40
0.3124999999999974
 40
0.3749999999999975
 40
0.3749999999999975
 40
0.4999999999999979
 40
0.4999999999999979
 40
0.6249999999999981
 40
0.6249999999999981
 40
0.7499999999999984
 40
0.7499999999999984
 40
0.812499999999999
 40
0.812499999999999
 40
0.8749999999999996
 40
0.8749999999999996
 40
1.0
 40
1.0
 40
1.0
 40
1.0
 10
98.1270398038962
 20
274.7169456982678
 30
0.0
 10
98.58786002548632
 20
274.6611644698676
 30
0.0
 10
99.04146484958723
 20
274.561443000034
 30
0.0
 10
99.92234538563544
 20
274.2775849847689
 30
0.0
 10
100.3430727926898
 20
274.0959701510151
 30
0.0
 10
100.9455024167725
 20
273.7658467492769
 30
0.0
 10
101.141502803839
 20
273.646123180632
 30
0.0
 10
101.5236405735787
 20
273.386819895724
 30
0.0
 10
101.7097905083449
 20
273.2470350586565
 30
0.0
 10
102.2414648390298
 20
272.8067299580711
 30
0.0
 10
102.5646945432053
 20
272.4827673276429
 30
0.0
 10
103.1491289147174
 20
271.7743943904762
 30
0.0
 10
103.4110941879874
 20
271.3868873429311
 30
0.0
 10
103.8502166760839
 20
270.5817675221933
 30
0.0
 10
104.0306640039913
 20
270.1610156826784
 30
0.0
 10
104.2416011136308
 20
269.5021056233912
 30
0.0
 10
104.3019445592005
 20
269.2770584801627
 30
0.0
 10
104.3998870918642
 20
268.8268842488685
 30
0.0
 10
104.4378930151445
 20
268.6007186305768
 30
0.0
 10
104.5196492994955
 20
267.919048678677
 30
0.0
 10
104.5314367853571
 20
267.4604006180303
 30
0.0
 10
104.4986636310983
 20
266.9973697699065
 30
0.0
  0
LINE
  5
D1
330
1F
100
AcDbEntity
  8
0
  6
Continuous
 62
     7
370
    15
100
AcDbLine
 10
102.2459390308
 20
267.1568167941
 30
0.0
 11
104.4986636311
 21
266.9973697699
 31
0.0
  0
SPLINE
  5
D2
330
1F
100
AcDbEntity
  8
0
  6
Continuous
 62
     7
370
    15
100
AcDbSpline
210
0.0
220
0.0
230
1.0
 70
     8
 71
     3
 72
    12
 73
     8
 74
     0
 42
0.000000001
 43
0.00000001
 40
0.0
 40
0.0
 40
0.0
 40
0.0
 40
0.5000000000000018
 40
0.5000000000000018
 40
0.7500000000000009
 40
0.7500000000000009
 40
1.0
 40
1.0
 40
1.0
 40
1.0
 10
102.2459390307714
 20
267.1568167940698
 30
0.0
 10
102.2810128385378
 20
267.6516504199789
 30
0.0
 10
102.2430004409598
 20
268.1392761004587
 30
0.0
 10
102.0785081468484
 20
268.8601173785132
 30
0.0
 10
102.0052673446858
 20
269.0980223200841
 30
0.0
 10
101.8260780964016
 20
269.5564056894949
 30
0.0
 10
101.7197911699611
 20
269.7786557133746
 30
0.0
 10
101.5964314167794
 20
269.9938078455109
 30
0.0
  0
SPLINE
  5
D3
330
1F
100
AcDbEntity
  8
0
  6
Continuous
 62
     7
370
    15
100
AcDbSpline
210
0.0
220
0.0
230
1.0
 70
     8
 71
     3
 72
    16
 73
    12
 74
     0
 42
0.000000001
 43
0.00000001
 40
0.0
 40
0.0
 40
0.0
 40
0.0
 40
0.1411098745711032
 40
0.2898040949442137
 40
0.4400592102493852
 40
0.5844025237418887
 40
0.7154725367139593
 40
0.8267199022077288
 40
0.9128184051254424
 40
0.9702268048713135
 40
1.0
 40
1.0
 40
1.0
 40
1.0
 10
101.5964314167795
 20
269.9938078455108
 30
0.0
 10
101.5910806244956
 20
270.0025767176035
 30
0.0
 10
101.5800914465959
 20
270.0205857694024
 30
0.0
 10
101.5629579366133
 20
270.0484595869657
 30
0.0
 10
101.5459826258557
 20
270.0762030306885
 30
0.0
 10
101.5298824466618
 20
270.1026945239192
 30
0.0
 10
101.5154574235134
 20
270.1266354997425
 30
0.0
 10
101.5032187765131
 20
270.1471217499089
 30
0.0
 10
101.4938802990357
 20
270.1628712867296
 30
0.0
 10
101.4871105645053
 20
270.1743449744814
 30
0.0
 10
101.4841885674644
 20
270.1793304625821
 30
0.0
 10
101.4831906826678
 20
270.1810330456818
 30
0.0
  0
SPLINE
  5
D4
330
1F
100
AcDbEntity
  8
0
  6
Continuous
 62
     7
370
    15
100
AcDbSpline
210
0.0
220
0.0
230
1.0
 70
     8
 71
     3
 72
    18
 73
    14
 74
     0
 42
0.000000001
 43
0.00000001
 40
0.0
 40
0.0
 40
0.0
 40
0.0
 40
0.0625000000000006
 40
0.0625000000000006
 40
0.1250000000000011
 40
0.1250000000000011
 40
0.2500000000000006
 40
0.2500000000000006
 40
0.5000000000000004
 40
0.5000000000000004
 40
0.7500000000000002
 40
0.7500000000000002
 40
1.0
 40
1.0
 40
1.0
 40
1.0
 10
101.4253461894452
 20
270.2795623431802
 30
0.0
 10
101.3742134955698
 20
270.3662996687977
 30
0.0
 10
101.3197482273108
 20
270.4574948682133
 30
0.0
 10
101.2098388468104
 20
270.6389087213192
 30
0.0
 10
101.1539014595987
 20
270.7299823224248
 30
0.0
 10
100.9837023900819
 20
271.003256360563
 30
0.0
 10
100.8670119608313
 20
271.1855935691408
 30
0.0
 10
100.5065639238135
 20
271.7333456223083
 30
0.0
 10
100.252457668419
 20
272.0996635380943
 30
0.0
 10
99.7064163331544
 20
272.8427798877905
 30
0.0
 10
99.41226349876199
 20
273.2219942831309
 30
0.0
 10
98.79545282129203
 20
273.9715431588488
 30
0.0
 10
98.47124743055616
 20
274.344283636696
 30
0.0
 10
98.1270398038962
 20
274.7169456982678
 30
0.0
  0
SPLINE
  5
D5
330
1F
100
AcDbEntity
  8
0
  6
Continuous
 62
     7
370
    15
100
AcDbSpline
210
0.0
220
0.0
230
1.0
 70
     8
 71
     3
 72
    14
 73
    10
 74
     0
 42
0.000000001
 43
0.00000001
 40
0.0
 40
0.0
 40
0.0
 40
0.0
 40
0.25
 40
0.25
 40
0.5
 40
0.5
 40
0.75
 40
0.75
 40
1.0
 40
1.0
 40
1.0
 40
1.0
 10
109.4493506800804
 20
346.4624296988142
 30
0.0
 10
109.458790120369
 20
346.5894366415004
 30
0.0
 10
109.4847521550802
 20
346.7119188209707
 30
0.0
 10
109.5652982655127
 20
346.9490449460911
 30
0.0
 10
109.6209071104156
 20
347.0646333900804
 30
0.0
 10
109.751604693674
 20
347.2790400900455
 30
0.0
 10
109.8268364767588
 20
347.3791723617292
 30
0.0
 10
109.9911776374191
 20
347.5695077700078
 30
0.0
 10
110.0813745225549
 20
347.6606106382355
 30
0.0
 10
110.173469210381
 20
347.7451152579584
 30
0.0
  0
SPLINE
  5
D6
330
1F
100
AcDbEntity
  8
0
  6
Continuous
 62
     7
370
    15
100
AcDbSpline
210
0.0
220
0.0
230
1.0
 70
     8
 71
     3
 72
    22
 73
    18
 74
     0
 42
0.000000001
 43
0.00000001
 40
0.0
 40
0.0
 40
0.0
 40
0.0
 40
0.125
 40
0.125
 40
0.25
 40
0.25
 40
0.375
 40
0.375
 40
0.5
 40
0.5
 40
0.625
 40
0.625
 40
0.75
 40
0.75
 40
0.875
 40
0.875
 40
1.0
 40
1.0
 40
1.0
 40
1.0
 10
110.173469210381
 20
347.7451152579584
 30
0.0
 10
110.1646068522395
 20
347.6472017117251
 30
0.0
 10
110.1669017961978
 20
347.5506271566638
 30
0.0
 10
110.1995178818186
 20
347.3604469695504
 30
0.0
 10
110.2306820442632
 20
347.2677703631588
 30
0.0
 10
110.3356154047873
 20
347.1072402860427
 30
0.0
 10
110.4088565134809
 20
347.04234014099
 30
0.0
 10
110.5823583319817
 20
346.9565285527746
 30
0.0
 10
110.6811049335788
 20
346.9352689106232
 30
0.0
 10
110.8783609080653
 20
346.9351859844446
 30
0.0
 10
110.9771213267215
 20
346.9563187612738
 30
0.0
 10
111.1510973508148
 20
347.0422265885791
 30
0.0
 10
111.2240517208743
 20
347.1069963170426
 30
0.0
 10
111.3285661303105
 20
347.2662242977805
 30
0.0
 10
111.3597936468442
 20
347.357846558761
 30
0.0
 10
111.3929612879371
 20
347.5479484922578
 30
0.0
 10
111.3954379312526
 20
347.6471920367888
 30
0.0
 10
111.3865746974126
 20
347.7451152579584
 30
0.0
  0
SPLINE
  5
D7
330
1F
100
AcDbEntity
  8
0
  6
Continuous
 62
     7
370
    15
100
AcDbSpline
210
0.0
220
0.0
230
1.0
 70
     8
 71
     3
 72
    14
 73
    10
 74
     0
 42
0.000000001
 43
0.00000001
 40
0.0
 40
0.0
 40
0.0
 40
0.0
 40
0.25
 40
0.25
 40
0.5
 40
0.5
 40
0.75
 40
0.75
 40
1.0
 40
1.0
 40
1.0
 40
1.0
 10
112.1106932277091
 20
346.4624296988122
 30
0.0
 10
112.1012577723313
 20
346.5893830248273
 30
0.0
 10
112.075301833894
 20
346.7119328259474
 30
0.0
 10
111.994622266265
 20
346.9493644173803
 30
0.0
 10
111.9389787212031
 20
347.0649123171909
 30
0.0
 10
111.8084329234174
 20
347.2790307787163
 30
0.0
 10
111.7332363676034
 20
347.3791389522969
 30
0.0
 10
111.5688353823065
 20
347.5695434396118
 30
0.0
 10
111.4787508816807
 20
347.660535811978
 30
0.0
 10
111.3865746974126
 20
347.7451152579584
 30
0.0
  0
LINE
  5
D8
330
1F
100
AcDbEntity
  8
0
  6
Continuous
 62
     7
370
    15
100
AcDbLine
 10
110.1734692104
 20
347.745115258
 30
0.0
 11
111.3865746974
 21
347.745115258
 31
0.0
  0
SPLINE
  5
D9
330
1F
100
AcDbEntity
  8
0
  6
Continuous
 62
     7
370
    15
100
AcDbSpline
210
0.0
220
0.0
230
1.0
 70
     8
 71
     3
 72
    14
 73
    10
 74
     0
 42
0.000000001
 43
0.00000001
 40
0.0
 40
0.0
 40
0.0
 40
0.0
 40
0.2500000000000001
 40
0.2500000000000001
 40
0.5000000000000001
 40
0.5000000000000001
 40
0.7500000000000002
 40
0.7500000000000002
 40
1.0
 40
1.0
 40
1.0
 40
1.0
 10
102.9184499486842
 20
265.0907488904876
 30
0.0
 10
102.7740132797383
 20
265.0274530578325
 30
0.0
 10
102.6353113153873
 20
264.974078631019
 30
0.0
 10
102.3861737229204
 20
264.88661350495
 30
0.0
 10
102.2725407681428
 20
264.8513451794632
 30
0.0
 10
102.0825672037956
 20
264.7966467046508
 30
0.0
 10
102.007335058194
 20
264.7773913206022
 30
0.0
 10
101.8994027130471
 20
264.7514759224185
 30
0.0
 10
101.8679151883698
 20
264.7451152579611
 30
0.0
 10
101.861362284749
 20
264.7451152579611
 30
0.0
  0
SPLINE
  5
DA
330
1F
100
AcDbEntity
  8
0
  6
Continuous
 62
     7
370
    15
100
AcDbSpline
210
0.0
220
0.0
230
1.0
 70
     8
 71
     3
 72
     8
 73
     4
 74
     0
 42
0.000000001
 43
0.00000001
 40
0.0
 40
0.0
 40
0.0
 40
0.0
 40
1.0
 40
1.0
 40
1.0
 40
1.0
 10
101.8613622847407
 20
264.7451152579583
 30
0.0
 10
102.0596227400719
 20
265.5363502834242
 30
0.0
 10
102.1882995600372
 20
266.3431511656426
 30
0.0
 10
102.2459390307711
 20
267.1568167940699
 30
0.0
  0
SPLINE
  5
DB
330
1F
100
AcDbEntity
  8
0
  6
Continuous
 62
     7
370
    15
100
AcDbSpline
210
0.0
220
0.0
230
1.0
 70
     8
 71
     3
 72
     8
 73
     4
 74
     0
 42
0.000000001
 43
0.00000001
 40
0.0
 40
0.0
 40
0.0
 40
0.0
 40
1.0
 40
1.0
 40
1.0
 40
1.0
 10
104.4986636310983
 20
266.9973697699065
 30
0.0
 10
104.4774602006459
 20
266.6978001188459
 30
0.0
 10
104.4478976430374
 20
266.3979224025541
 30
0.0
 10
104.4097845127014
 20
266.0977295655426
 30
0.0
  0
SPLINE
  5
DC
330
1F
100
AcDbEntity
  8
0
  6
Continuous
 62
     7
370
    15
100
AcDbSpline
210
0.0
220
0.0
230
1.0
 70
     8
 71
     3
 72
     8
 73
     4
 74
     0
 42
0.000000001
 43
0.00000001
 40
0.0
 40
0.0
 40
0.0
 40
0.0
 40
1.0
 40
1.0
 40
1.0
 40
1.0
 10
117.1502593950922
 20
266.0977295655426
 30
0.0
 10
117.1121462647561
 20
266.3979224025541
 30
0.0
 10
117.0825837071476
 20
266.6978001188459
 30
0.0
 10
117.0613802766953
 20
266.9973697699065
 30
0.0
  0
SPLINE
  5
DD
330
1F
100
AcDbEntity
  8
0
  6
Continuous
 62
     7
370
    15
100
AcDbSpline
210
0.0
220
0.0
230
1.0
 70
     8
 71
     3
 72
     8
 73
     4
 74
     0
 42
0.000000001
 43
0.00000001
 40
0.0
 40
0.0
 40
0.0
 40
0.0
 40
1.0
 40
1.0
 40
1.0
 40
1.0
 10
119.3141048770222
 20
267.1568167940698
 30
0.0
 10
119.371744347756
 20
266.3431511656425
 30
0.0
 10
119.5004211677217
 20
265.5363502834242
 30
0.0
 10
119.6986816230528
 20
264.7451152579583
 30
0.0
  0
SPLINE
  5
DE
330
1F
100
AcDbEntity
  8
0
  6
Continuous
 62
     7
370
    15
100
AcDbSpline
210
0.0
220
0.0
230
1.0
 70
     8
 71
     3
 72
    14
 73
    10
 74
     0
 42
0.000000001
 43
0.00000001
 40
0.0
 40
0.0
 40
0.0
 40
0.0
 40
0.25
 40
0.25
 40
0.5
 40
0.5
 40
0.75
 40
0.75
 40
1.0
 40
1.0
 40
1.0
 40
1.0
 10
119.6986816230528
 20
264.7451152579583
 30
0.0
 10
119.6921375037812
 20
264.7451152579583
 30
0.0
 10
119.6614875427233
 20
264.7512947050433
 30
0.0
 10
119.5545382148714
 20
264.7769306208983
 30
0.0
 10
119.4778686724576
 20
264.7965539016822
 30
0.0
 10
119.2893714032647
 20
264.8507874401474
 30
0.0
 10
119.1751431886968
 20
264.886180977953
 30
0.0
 10
118.9246218499571
 20
264.97410318769
 30
0.0
 10
118.7861741208273
 20
265.0273901756399
 30
0.0
 10
118.6415939591169
 20
265.0907488904844
 30
0.0
  0
ARC
  5
DF
330
1F
100
AcDbEntity
  8
0
  6
Continuous
 62
     7
370
    15
100
AcDbCircle
 10
83.2800219539
 20
284.745115258
 30
0.0
 40
2.000000000000042
100
AcDbArc
 50
144.8492039706
 51
265.4741566746
  0
ARC
  5
E0
330
1F
100
AcDbEntity
  8
0
  6
Continuous
 62
     7
370
    15
100
AcDbCircle
 10
-28.4747849965
 20
363.4358170955
 30
0.0
 40
134.6797842850865
100
AcDbArc
 50
324.8492039706
 51
355.4471475627
  0
ARC
  5
E1
330
1F
100
AcDbEntity
  8
0
  6
Continuous
 62
     7
370
    15
100
AcDbCircle
 10
138.2800219539
 20
284.745115258
 30
0.0
 40
1.999999999999975
100
AcDbArc
 50
274.5258433254
 51
35.1507960294
  0
ARC
  5
E2
330
1F
100
AcDbEntity
  8
0
  6
Continuous
 62
     7
370
    15
100
AcDbCircle
 10
250.0348289043
 20
363.4358170955
 30
0.0
 40
134.6797842850865
100
AcDbArc
 50
184.5528524373
 51
215.1507960294
  0
LINE
  5
E3
330
1F
100
AcDbEntity
  8
0
  6
Continuous
 62
     7
370
    15
100
AcDbLine
 10
115.7800219539
 20
359.0086235849
 30
0.0
 11
115.7800219539
 21
352.745115258
 31
0.0
  0
LINE
  5
E4
330
1F
100
AcDbEntity
  8
0
  6
Continuous
 62
     7
370
    15
100
AcDbLine
 10
105.7800219539
 20
359.0086235849
 30
0.0
 11
105.7800219539
 21
352.745115258
 31
0.0
  0
ARC
  5
E5
330
1F
100
AcDbEntity
  8
0
  6
Continuous
 62
     7
370
    15
100
AcDbCircle
 10
79.0275633131
 20
257.0758006737
 30
0.0
 40
25.99999999999999
100
AcDbArc
 50
42.7269737126
 51
80.9389838452
  0
ARC
  5
E6
330
1F
100
AcDbEntity
  8
0
  6
Continuous
 62
     7
370
    15
100
AcDbCircle
 10
142.5324805947
 20
257.0758006737
 30
0.0
 40
26.00000000000004
100
AcDbArc
 50
99.0610161548
 51
137.2730262874
  0
LINE
  5
E7
330
1F
100
AcDbEntity
  8
0
  6
Continuous
 62
     7
370
    15
100
AcDbLine
 10
119.9686801455
 20
269.9938078455
 30
0.0
 11
119.963612491
 21
269.9938078455
 31
0.0
  0
LINE
  5
E8
330
1F
100
AcDbEntity
  8
0
  6
Continuous
 62
     7
370
    15
100
AcDbLine
 10
101.5964314168
 20
269.9938078455
 30
0.0
 11
101.5913637623
 21
269.9938078455
 31
0.0
  0
SPLINE
  5
E9
330
1F
100
AcDbEntity
  8
0
  6
Continuous
 62
     7
370
    15
100
AcDbSpline
210
0.0
220
0.0
230
1.0
 70
     8
 71
     3
 72
     8
 73
     4
 74
     0
 42
0.000000001
 43
0.00000001
 40
0.0
 40
0.0
 40
0.0
 40
0.0
 40
1.0
 40
1.0
 40
1.0
 40
1.0
 10
120.1346977183466
 20
270.2795623431772
 30
0.0
 10
120.0804332306712
 20
270.1875124983471
 30
0.0
 10
120.0250373414338
 20
270.0922465988873
 30
0.0
 10
119.9686801455365
 20
269.9938078455108
 30
0.0
  0
SPLINE
  5
EA
330
1F
100
AcDbEntity
  8
0
  6
Continuous
 62
     7
370
    15
100
AcDbSpline
210
0.0
220
0.0
230
1.0
 70
     8
 71
     3
 72
     8
 73
     4
 74
     0
 42
0.000000001
 43
0.00000001
 40
0.0
 40
0.0
 40
0.0
 40
0.0
 40
1.0
 40
1.0
 40
1.0
 40
1.0
 10
101.4253461894452
 20
270.2795623431802
 30
0.0
 10
101.4796106771211
 20
270.1875124983492
 30
0.0
 10
101.5350065663607
 20
270.0922465988856
 30
0.0
 10
101.591363762257
 20
269.9938078455108
 30
0.0
  0
LINE
  5
EB
330
1F
100
AcDbEntity
  8
0
  6
Continuous
 62
     8
370
    15
100
AcDbLine
 10
94.7800219539
 20
250.745115258
 30
0.0
 11
126.7800219539
 21
250.745115258
 31
0.0
  0
LINE
  5
EC
330
1F
100
AcDbEntity
  8
0
  6
Continuous
 62
     8
370
    15
100
AcDbLine
 10
110.7800219539
 20
253.7326162268
 30
0.0
 11
94.7800219539
 21
253.7326162268
 31
0.0
  0
LINE
  5
ED
330
1F
100
AcDbEntity
  8
0
  6
Continuous
 62
     8
370
    15
100
AcDbLine
 10
126.7800219539
 20
253.7326162268
 30
0.0
 11
110.7800219539
 21
253.7326162268
 31
0.0
  0
LINE
  5
EE
330
1F
100
AcDbEntity
  8
0
  6
Continuous
 62
     8
370
    15
100
AcDbLine
 10
110.7800219539
 20
257.9000701841
 30
0.0
 11
124.5426886935
 21
257.9000701841
 31
0.0
  0
LINE
  5
EF
330
1F
100
AcDbEntity
  8
0
  6
Continuous
 62
     8
370
    15
100
AcDbLine
 10
97.0173552143
 20
257.9000701841
 30
0.0
 11
110.7800219539
 21
257.9000701841
 31
0.0
  0
LINE
  5
F0
330
1F
100
AcDbEntity
  8
0
  6
Continuous
 62
     8
370
    15
100
AcDbLine
 10
101.8613622847
 20
264.745115258
 30
0.0
 11
101.8556891052
 21
264.745115258
 31
0.0
  0
LINE
  5
F1
330
1F
100
AcDbEntity
  8
0
  6
Continuous
 62
     8
370
    15
100
AcDbLine
 10
119.7043548026
 20
264.745115258
 30
0.0
 11
119.6986816231
 21
264.745115258
 31
0.0
  0
LINE
  5
F2
330
1F
100
AcDbEntity
  8
0
  6
Continuous
 62
     8
370
    15
100
AcDbLine
 10
119.3203319477
 20
267.1568167941
 30
0.0
 11
119.314104877
 21
267.1568167941
 31
0.0
  0
LINE
  5
F3
330
1F
100
AcDbEntity
  8
0
  6
Continuous
 62
     8
370
    15
100
AcDbLine
 10
102.2459390308
 20
267.1568167941
 30
0.0
 11
102.2397119601
 21
267.1568167941
 31
0.0
  0
ARC
  5
F4
330
1F
100
AcDbEntity
  8
0
  6
Continuous
 62
     7
370
    15
100
AcDbCircle
 10
254.207025247
 20
356.0133918771
 30
0.0
 40
5.0
100
AcDbArc
 50
261.1138739286
 51
270.0
  0
ARC
  5
F5
330
1F
100
AcDbEntity
  8
0
  6
Continuous
 62
     7
370
    15
100
AcDbCircle
 10
254.207025247
 20
356.0133918771
 30
0.0
 40
5.000000000000005
100
AcDbArc
 50
220.0052008849
 51
261.1138739286
  0
ARC
  5
F6
330
1F
100
AcDbEntity
  8
0
  6
Continuous
 62
     7
370
    15
100
AcDbCircle
 10
254.207025247
 20
356.0133918771
 30
0.0
 40
5.000000000000019
100
AcDbArc
 50
85.9013230404
 51
139.9947991151
  0
ARC
  5
F7
330
1F
100
AcDbEntity
  8
0
  6
Continuous
 62
     7
370
    15
100
AcDbCircle
 10
254.207025247
 20
356.0133918771
 30
0.0
 40
5.000000000000019
100
AcDbArc
 50
40.0052008849
 51
85.9013230404
  0
ARC
  5
F8
330
1F
100
AcDbEntity
  8
0
  6
Continuous
 62
     7
370
    15
100
AcDbCircle
 10
254.207025247
 20
356.0133918771
 30
0.0
 40
5.000000000000005
100
AcDbArc
 50
271.1771770034
 51
319.9947991151
  0
ARC
  5
F9
330
1F
100
AcDbEntity
  8
0
  6
Continuous
 62
     7
370
    15
100
AcDbCircle
 10
254.207025247
 20
356.0133918771
 30
0.0
 40
5.000000000000002
100
AcDbArc
 50
270.0
 51
271.1771770034
  0
LINE
  5
FA
330
1F
100
AcDbEntity
  8
0
  6
Continuous
 62
     7
370
    15
100
AcDbLine
 10
224.707025247
 20
358.5133918771
 30
0.0
 11
224.707025247
 21
353.5133918771
 31
0.0
  0
LINE
  5
FB
330
1F
100
AcDbEntity
  8
0
  6
Continuous
 62
     7
370
    15
100
AcDbLine
 10
283.707025247
 20
353.5133918771
 30
0.0
 11
283.707025247
 21
358.5133918771
 31
0.0
  0
ARC
  5
FC
330
1F
100
AcDbEntity
  8
0
  6
Continuous
 62
     7
370
    15
100
AcDbCircle
 10
254.207025247
 20
356.0133918771
 30
0.0
 40
5.000000000000005
100
AcDbArc
 50
139.9947991151
 51
180.0
  0
ARC
  5
FD
330
1F
100
AcDbEntity
  8
0
  6
Continuous
 62
     7
370
    15
100
AcDbCircle
 10
254.207025247
 20
356.0133918771
 30
0.0
 40
5.000000000000005
100
AcDbArc
 50
0.0
 51
40.0052008849
  0
ARC
  5
FE
330
1F
100
AcDbEntity
  8
0
  6
Continuous
 62
     7
370
    15
100
AcDbCircle
 10
254.207025247
 20
356.0133918771
 30
0.0
 40
5.000000000000005
100
AcDbArc
 50
319.9947991151
 51
0.0
  0
ARC
  5
FF
330
1F
100
AcDbEntity
  8
0
  6
Continuous
 62
     7
370
    15
100
AcDbCircle
 10
254.207025247
 20
356.0133918771
 30
0.0
 40
5.000000000000005
100
AcDbArc
 50
180.0
 51
220.0052008849
  0
SPLINE
  5
100
330
1F
100
AcDbEntity
  8
0
  6
Continuous
 62
     7
370
    15
100
AcDbSpline
210
0.0
220
0.0
230
1.0
 70
     8
 71
     3
 72
    18
 73
    14
 74
     0
 42
0.000000001
 43
0.00000001
 40
0.0
 40
0.0
 40
0.0
 40
0.0
 40
0.1250000000000001
 40
0.1250000000000001
 40
0.2500000000000003
 40
0.2500000000000003
 40
0.3750000000000004
 40
0.3750000000000004
 40
0.5000000000000006
 40
0.5000000000000006
 40
0.7500000000000002
 40
0.7500000000000002
 40
1.0
 40
1.0
 40
1.0
 40
1.0
 10
250.3770947845657
 20
359.227677591344
 30
0.0
 10
250.3109581488965
 20
359.1488735464809
 30
0.0
 10
250.239774045009
 20
359.07641077363
 30
0.0
 10
250.0891471289575
 20
358.9439953903935
 30
0.0
 10
250.0101123389241
 20
358.8847626146998
 30
0.0
 10
249.858310213185
 20
358.7848073284017
 30
0.0
 10
249.7833028222886
 20
358.7424592165954
 30
0.0
 10
249.6473267536352
 20
358.6735527556083
 30
0.0
 10
249.584889471442
 20
358.6460780149214
 30
0.0
 10
249.4207849394216
 20
358.5798241325133
 30
0.0
 10
249.3399054687388
 20
358.5555318333404
 30
0.0
 10
249.2333671118425
 20
358.524621145449
 30
0.0
 10
249.2070252469813
 20
358.5182683792962
 30
0.0
 10
249.2070252469813
 20
358.5153709151369
 30
0.0
  0
SPLINE
  5
101
330
1F
100
AcDbEntity
  8
0
  6
Continuous
 62
     7
370
    15
100
AcDbSpline
210
0.0
220
0.0
230
1.0
 70
     8
 71
     3
 72
    18
 73
    14
 74
     0
 42
0.000000001
 43
0.00000001
 40
0.0
 40
0.0
 40
0.0
 40
0.0
 40
0.1249999999999965
 40
0.1249999999999965
 40
0.249999999999993
 40
0.249999999999993
 40
0.3749999999999895
 40
0.3749999999999895
 40
0.499999999999986
 40
0.499999999999986
 40
0.749999999999993
 40
0.749999999999993
 40
1.0
 40
1.0
 40
1.0
 40
1.0
 10
258.0369557093969
 20
352.7991061627725
 30
0.0
 10
258.1030923450661
 20
352.8779102076356
 30
0.0
 10
258.1742764489535
 20
352.9503729804865
 30
0.0
 10
258.3249033650051
 20
353.082788363723
 30
0.0
 10
258.4039381550385
 20
353.1420211394168
 30
0.0
 10
258.5557402807777
 20
353.2419764257148
 30
0.0
 10
258.630747671674
 20
353.2843245375212
 30
0.0
 10
258.7667237403274
 20
353.3532309985082
 30
0.0
 10
258.8291610225206
 20
353.3807057391951
 30
0.0
 10
258.9932655545409
 20
353.4469596216033
 30
0.0
 10
259.0741450252239
 20
353.4712519207762
 30
0.0
 10
259.1806833821202
 20
353.5021626086676
 30
0.0
 10
259.2070252469813
 20
353.5085153748203
 30
0.0
 10
259.2070252469813
 20
353.5114128389797
 30
0.0
  0
SPLINE
  5
102
330
1F
100
AcDbEntity
  8
0
  6
Continuous
 62
     7
370
    15
100
AcDbSpline
210
0.0
220
0.0
230
1.0
 70
    24
 71
     3
 72
    10
 73
     6
 74
     0
 42
0.000000001
 43
0.00000001
 40
0.0
 40
0.0
 40
0.0
 40
0.0
 40
0.5000000000000001
 40
0.5000000000000001
 40
1.0
 40
1.0
 40
1.0
 40
1.0
 10
259.2070252469813
 20
353.5114128389797
 30
0.0
 10
259.2070252469813
 20
353.9781293834627
 30
0.0
 10
259.2070252469813
 20
354.4125054961888
 30
0.0
 10
259.2070252469813
 20
355.2337086012549
 30
0.0
 10
259.2070252469813
 20
355.6222373071517
 30
0.0
 10
259.2070252469813
 20
356.0133918770583
 30
0.0
  0
SPLINE
  5
103
330
1F
100
AcDbEntity
  8
0
  6
Continuous
 62
     7
370
    15
100
AcDbSpline
210
0.0
220
0.0
230
1.0
 70
    24
 71
     3
 72
    10
 73
     6
 74
     0
 42
0.000000001
 43
0.00000001
 40
0.0
 40
0.0
 40
0.0
 40
0.0
 40
0.5000000000000001
 40
0.5000000000000001
 40
1.0
 40
1.0
 40
1.0
 40
1.0
 10
249.2070252469813
 20
358.5153709151369
 30
0.0
 10
249.2070252469813
 20
358.0486543706539
 30
0.0
 10
249.2070252469813
 20
357.6142782579278
 30
0.0
 10
249.2070252469813
 20
356.7930751528617
 30
0.0
 10
249.2070252469813
 20
356.4045464469648
 30
0.0
 10
249.2070252469813
 20
356.0133918770583
 30
0.0
  0
SPLINE
  5
104
330
1F
100
AcDbEntity
  8
0
  6
Continuous
 62
     7
370
    15
100
AcDbSpline
210
0.0
220
0.0
230
1.0
 70
     8
 71
     3
 72
    18
 73
    14
 74
     0
 42
0.000000001
 43
0.00000001
 40
0.0
 40
0.0
 40
0.0
 40
0.0
 40
0.2499999999999931
 40
0.2499999999999931
 40
0.4999999999999862
 40
0.4999999999999862
 40
0.6249999999999897
 40
0.6249999999999897
 40
0.7499999999999931
 40
0.7499999999999931
 40
0.8749999999999966
 40
0.8749999999999966
 40
1.0
 40
1.0
 40
1.0
 40
1.0
 10
259.2070252469813
 20
358.5153709151369
 30
0.0
 10
259.2070252469813
 20
358.5182662996087
 30
0.0
 10
259.1807302996748
 20
358.5246021172687
 30
0.0
 10
259.0735250713053
 20
358.5557171494198
 30
0.0
 10
258.9933616227398
 20
358.5797594812428
 30
0.0
 10
258.828425418339
 20
358.6463880140914
 30
0.0
 10
258.766645291901
 20
358.6735968222601
 30
0.0
 10
258.6310354698157
 20
358.7423090677223
 30
0.0
 10
258.5561069714332
 20
358.7845953316173
 30
0.0
 10
258.4045448163117
 20
358.8843338889329
 30
0.0
 10
258.3255810313799
 20
358.9434543325312
 30
0.0
 10
258.1748447019299
 20
359.0758570000509
 30
0.0
 10
258.1031128278491
 20
359.1488491405501
 30
0.0
 10
258.0369557093969
 20
359.227677591344
 30
0.0
  0
SPLINE
  5
105
330
1F
100
AcDbEntity
  8
0
  6
Continuous
 62
     7
370
    15
100
AcDbSpline
210
0.0
220
0.0
230
1.0
 70
    24
 71
     3
 72
    10
 73
     6
 74
     0
 42
0.000000001
 43
0.00000001
 40
0.0
 40
0.0
 40
0.0
 40
0.0
 40
0.5
 40
0.5
 40
1.0
 40
1.0
 40
1.0
 40
1.0
 10
259.2070252469813
 20
358.5153709151369
 30
0.0
 10
259.2070252469813
 20
358.0486543706539
 30
0.0
 10
259.2070252469813
 20
357.6142782579278
 30
0.0
 10
259.2070252469813
 20
356.7930751528617
 30
0.0
 10
259.2070252469813
 20
356.4045464469648
 30
0.0
 10
259.2070252469813
 20
356.0133918770583
 30
0.0
  0
SPLINE
  5
106
330
1F
100
AcDbEntity
  8
0
  6
Continuous
 62
     7
370
    15
100
AcDbSpline
210
0.0
220
0.0
230
1.0
 70
     8
 71
     3
 72
    18
 73
    14
 74
     0
 42
0.000000001
 43
0.00000001
 40
0.0
 40
0.0
 40
0.0
 40
0.0
 40
0.249999999999993
 40
0.249999999999993
 40
0.499999999999986
 40
0.499999999999986
 40
0.6249999999999895
 40
0.6249999999999895
 40
0.749999999999993
 40
0.749999999999993
 40
0.8749999999999964
 40
0.8749999999999964
 40
1.0
 40
1.0
 40
1.0
 40
1.0
 10
249.2070252469813
 20
353.5114128389797
 30
0.0
 10
249.2070252469813
 20
353.5085174545079
 30
0.0
 10
249.2333201942877
 20
353.5021816368479
 30
0.0
 10
249.3405254226573
 20
353.4710666046967
 30
0.0
 10
249.4206888712228
 20
353.4470242728737
 30
0.0
 10
249.5856250756237
 20
353.3803957400252
 30
0.0
 10
249.6474052020616
 20
353.3531869318564
 30
0.0
 10
249.7830150241469
 20
353.2844746863943
 30
0.0
 10
249.8579435225294
 20
353.2421884224993
 30
0.0
 10
250.009505677651
 20
353.1424498651837
 30
0.0
 10
250.0884694625827
 20
353.0833294215853
 30
0.0
 10
250.2392057920327
 20
352.9509267540656
 30
0.0
 10
250.3109376661135
 20
352.8779346135664
 30
0.0
 10
250.3770947845657
 20
352.7991061627725
 30
0.0
  0
SPLINE
  5
107
330
1F
100
AcDbEntity
  8
0
  6
Continuous
 62
     7
370
    15
100
AcDbSpline
210
0.0
220
0.0
230
1.0
 70
    24
 71
     3
 72
    10
 73
     6
 74
     0
 42
0.000000001
 43
0.00000001
 40
0.0
 40
0.0
 40
0.0
 40
0.0
 40
0.5
 40
0.5
 40
1.0
 40
1.0
 40
1.0
 40
1.0
 10
249.2070252469813
 20
353.5114128389797
 30
0.0
 10
249.2070252469813
 20
353.9781293834627
 30
0.0
 10
249.2070252469813
 20
354.4125054961888
 30
0.0
 10
249.2070252469813
 20
355.2337086012549
 30
0.0
 10
249.2070252469813
 20
355.6222373071517
 30
0.0
 10
249.2070252469813
 20
356.0133918770583
 30
0.0
  0
LINE
  5
108
330
1F
100
AcDbEntity
  8
0
  6
Continuous
 62
     7
370
    15
100
AcDbLine
 10
225.071746006
 20
358.5133918771
 30
0.0
 11
225.071746006
 21
353.5133918771
 31
0.0
  0
LINE
  5
109
330
1F
100
AcDbEntity
  8
0
  6
Continuous
 62
     7
370
    15
100
AcDbLine
 10
249.207025247
 20
358.5133918771
 30
0.0
 11
225.071746006
 21
358.5133918771
 31
0.0
  0
LINE
  5
10A
330
1F
100
AcDbEntity
  8
0
  6
Continuous
 62
     7
370
    15
100
AcDbLine
 10
249.207025247
 20
353.5133918771
 30
0.0
 11
225.071746006
 21
353.5133918771
 31
0.0
  0
LINE
  5
10B
330
1F
100
AcDbEntity
  8
0
  6
Continuous
 62
     7
370
    15
100
AcDbLine
 10
283.3423044879
 20
358.5133918771
 30
0.0
 11
283.3423044879
 21
353.5133918771
 31
0.0
  0
LINE
  5
10C
330
1F
100
AcDbEntity
  8
0
  6
Continuous
 62
     7
370
    15
100
AcDbLine
 10
259.207025247
 20
358.5133918771
 30
0.0
 11
283.3423044879
 21
358.5133918771
 31
0.0
  0
LINE
  5
10D
330
1F
100
AcDbEntity
  8
0
  6
Continuous
 62
     7
370
    15
100
AcDbLine
 10
259.207025247
 20
353.5133918771
 30
0.0
 11
283.3423044879
 21
353.5133918771
 31
0.0
  0
ARC
  5
10E
330
1F
100
AcDbEntity
  8
0
  6
Continuous
 62
     7
370
    15
100
AcDbCircle
 10
254.207025247
 20
356.0133918771
 30
0.0
 40
5.526372043527772
100
AcDbArc
 50
206.8962504608
 51
333.1037495392
  0
ARC
  5
10F
330
1F
100
AcDbEntity
  8
0
  6
Continuous
 62
     7
370
    15
100
AcDbCircle
 10
254.207025247
 20
356.0133918771
 30
0.0
 40
5.526372043527772
100
AcDbArc
 50
26.8962504608
 51
153.1037495392
  0
LINE
  5
110
330
1F
100
AcDbEntity
  8
0
  6
Continuous
 62
     7
370
    15
100
AcDbLine
 10
224.707025247
 20
358.5133918771
 30
0.0
 11
225.071746006
 21
358.5133918771
 31
0.0
  0
LINE
  5
111
330
1F
100
AcDbEntity
  8
0
  6
Continuous
 62
     7
370
    15
100
AcDbLine
 10
224.707025247
 20
353.5133918771
 30
0.0
 11
225.071746006
 21
353.5133918771
 31
0.0
  0
LINE
  5
112
330
1F
100
AcDbEntity
  8
0
  6
Continuous
 62
     7
370
    15
100
AcDbLine
 10
283.707025247
 20
358.5133918771
 30
0.0
 11
283.3423044879
 21
358.5133918771
 31
0.0
  0
LINE
  5
113
330
1F
100
AcDbEntity
  8
0
  6
Continuous
 62
     7
370
    15
100
AcDbLine
 10
283.707025247
 20
353.5133918771
 30
0.0
 11
283.3423044879
 21
353.5133918771
 31
0.0
  0
ARC
  5
114
330
1F
100
AcDbEntity
  8
0
  6
Continuous
 62
     7
370
    15
100
AcDbCircle
 10
254.207025247
 20
356.0133918771
 30
0.0
 40
16.0
100
AcDbArc
 50
188.9892993452
 51
270.0
  0
ARC
  5
115
330
1F
100
AcDbEntity
  8
0
  6
Continuous
 62
     7
370
    15
100
AcDbCircle
 10
254.207025247
 20
356.0133918771
 30
0.0
 40
16.00000000000003
100
AcDbArc
 50
8.9892993452
 51
171.0107006548
  0
ARC
  5
116
330
1F
100
AcDbEntity
  8
0
  6
Continuous
 62
     7
370
    15
100
AcDbCircle
 10
254.207025247
 20
356.0133918771
 30
0.0
 40
16.00000000000003
100
AcDbArc
 50
270.0
 51
351.0107006548
  0
ARC
  5
117
330
1F
100
AcDbEntity
  8
0
  6
Continuous
 62
     8
370
    15
100
AcDbCircle
 10
254.207025247
 20
356.0133918771
 30
0.0
 40
8.133316620803258
100
AcDbArc
 50
17.9012682131
 51
162.0987317869
  0
ARC
  5
118
330
1F
100
AcDbEntity
  8
0
  6
Continuous
 62
     8
370
    15
100
AcDbCircle
 10
254.207025247
 20
356.0133918771
 30
0.0
 40
8.133316620803258
100
AcDbArc
 50
197.9012682131
 51
342.0987317869
  0
ARC
  5
119
330
1F
100
AcDbEntity
  8
0
  6
Continuous
 62
     8
370
    15
100
AcDbCircle
 10
254.207025247
 20
356.0133918771
 30
0.0
 40
9.19302462674662
100
AcDbArc
 50
15.7800574191
 51
164.2199425809
  0
ARC
  5
11A
330
1F
100
AcDbEntity
  8
0
  6
Continuous
 62
     8
370
    15
100
AcDbCircle
 10
254.207025247
 20
356.0133918771
 30
0.0
 40
9.19302462674662
100
AcDbArc
 50
195.7800574191
 51
344.2199425809
  0
ARC
  5
11B
330
1F
100
AcDbEntity
  8
0
  6
Continuous
 62
     8
370
    15
100
AcDbCircle
 10
254.207025247
 20
356.0133918771
 30
0.0
 40
13.76266673960032
100
AcDbArc
 50
270.0
 51
349.5340685393
  0
ARC
  5
11C
330
1F
100
AcDbEntity
  8
0
  6
Continuous
 62
     8
370
    15
100
AcDbCircle
 10
254.207025247
 20
356.0133918771
 30
0.0
 40
13.76266673960031
100
AcDbArc
 50
10.4659314607
 51
169.5340685393
  0
ARC
  5
11D
330
1F
100
AcDbEntity
  8
0
  6
Continuous
 62
     8
370
    15
100
AcDbCircle
 10
254.207025247
 20
356.0133918771
 30
0.0
 40
13.76266673960032
100
AcDbArc
 50
190.4659314607
 51
270.0
  0
LINE
  5
11E
330
1F
100
AcDbEntity
  8
0
  6
Continuous
 62
     7
370
    15
100
AcDbLine
 10
224.707025247
 20
254.5875960483
 30
0.0
 11
224.707025247
 21
249.5875960483
 31
0.0
  0
LINE
  5
11F
330
1F
100
AcDbEntity
  8
0
  6
Continuous
 62
     7
370
    15
100
AcDbLine
 10
283.707025247
 20
249.5875960483
 30
0.0
 11
283.707025247
 21
254.5875960483
 31
0.0
  0
LINE
  5
120
330
1F
100
AcDbEntity
  8
0
  6
Continuous
 62
     7
370
    15
100
AcDbLine
 10
257.7941646701
 20
252.4371407365
 30
0.0
 11
257.7941646701
 21
252.0875960483
 31
0.0
  0
SPLINE
  5
121
330
1F
100
AcDbEntity
  8
0
  6
Continuous
 62
     7
370
    15
100
AcDbSpline
210
0.0
220
0.0
230
1.0
 70
     8
 71
     3
 72
    15
 73
    11
 74
     0
 42
0.000000001
 43
0.00000001
 40
0.0
 40
0.0
 40
0.0
 40
0.0
 40
0.0769954547170576
 40
0.1676150771831734
 40
0.2710523936342343
 40
0.3894595025720741
 40
0.5208428024655765
 40
0.6663987586080736
 40
0.8260936125153155
 40
1.0
 40
1.0
 40
1.0
 40
1.0
 10
257.8124501768691
 20
252.6965829273051
 30
0.0
 10
257.8109610835086
 20
252.6900608713889
 30
0.0
 10
257.8077194051594
 20
252.6758626968368
 30
0.0
 10
257.8042181437247
 20
252.6525625740337
 30
0.0
 10
257.8010402804032
 20
252.6256091013432
 30
0.0
 10
257.798380477592
 20
252.5950337315037
 30
0.0
 10
257.7967531326761
 20
252.560729415611
 30
0.0
 10
257.794978762467
 20
252.5228426554887
 30
0.0
 10
257.7943327780758
 20
252.4812223786398
 30
0.0
 10
257.794222275218
 20
252.4522460840682
 30
0.0
 10
257.7941646700583
 20
252.4371407364664
 30
0.0
  0
SPLINE
  5
122
330
1F
100
AcDbEntity
  8
0
  6
Continuous
 62
     7
370
    15
100
AcDbSpline
210
0.0
220
0.0
230
1.0
 70
     8
 71
     3
 72
    23
 73
    19
 74
     0
 42
0.000000001
 43
0.00000001
 40
0.0
 40
0.0
 40
0.0
 40
0.0
 40
0.0639962164179997
 40
0.1266468587927818
 40
0.1890142220497132
 40
0.250444060169657
 40
0.312351516216602
 40
0.3740547315659604
 40
0.4376386854812084
 40
0.502421798082476
 40
0.5674857558399458
 40
0.6307130141073948
 40
0.6928861079685932
 40
0.7543587414201944
 40
0.8151891657690277
 40
0.8760973581582069
 40
0.9380048142051515
 40
0.9999999999999999
 40
0.9999999999999999
 40
0.9999999999999999
 40
0.9999999999999999
 10
258.1413242921201
 20
252.9525800226576
 30
0.0
 10
258.1317728267571
 20
252.9524027600513
 30
0.0
 10
258.112870723589
 20
252.9520519619332
 30
0.0
 10
258.0848566687378
 20
252.9484408709376
 30
0.0
 10
258.0575973692909
 20
252.9427376075118
 30
0.0
 10
258.0311658543172
 20
252.9343134968283
 30
0.0
 10
258.0055087080088
 20
252.9240709550866
 30
0.0
 10
257.9805197548633
 20
252.9115028749071
 30
0.0
 10
257.9565481629812
 20
252.8963007160729
 30
0.0
 10
257.9332568574773
 20
252.8792134700716
 30
0.0
 10
257.9116085741918
 20
252.8601846762379
 30
0.0
 10
257.8911781261282
 20
252.840396054239
 30
0.0
 10
257.8732274497333
 20
252.8190190057076
 30
0.0
 10
257.8569332521781
 20
252.7968093514479
 30
0.0
 10
257.8428847870765
 20
252.7733209463298
 30
0.0
 10
257.8306172119296
 20
252.7488048678218
 30
0.0
 10
257.8202096639648
 20
252.7232223368142
 30
0.0
 10
257.8150378931985
 20
252.7054669210718
 30
0.0
 10
257.8124501768691
 20
252.6965829273051
 30
0.0
  0
SPLINE
  5
123
330
1F
100
AcDbEntity
  8
0
  6
Continuous
 62
     7
370
    15
100
AcDbSpline
210
0.0
220
0.0
230
1.0
 70
     8
 71
     3
 72
    15
 73
    11
 74
     0
 42
0.000000001
 43
0.00000001
 40
0.0
 40
0.0
 40
0.0
 40
0.0
 40
0.1355289999642202
 40
0.2601576487938138
 40
0.3784325902006463
 40
0.493142224160083
 40
0.6092536571898816
 40
0.7299621659648344
 40
0.8592514725640176
 40
1.0
 40
1.0
 40
1.0
 40
1.0
 10
258.3906962038457
 20
252.7623047488863
 30
0.0
 10
258.3866999416134
 20
252.7773254146567
 30
0.0
 10
258.3790288292568
 20
252.8061586613507
 30
0.0
 10
258.3596877813483
 20
252.8452018442621
 30
0.0
 10
258.3358308055073
 20
252.8787118178897
 30
0.0
 10
258.3062725594201
 20
252.9059994058503
 30
0.0
 10
258.2718069049099
 20
252.9272420909244
 30
0.0
 10
258.2323765454724
 20
252.9419700794225
 30
0.0
 10
258.1883895656389
 20
252.9511846679104
 30
0.0
 10
258.1574503580329
 20
252.9521019295554
 30
0.0
 10
258.1413242921201
 20
252.9525800226576
 30
0.0
  0
SPLINE
  5
124
330
1F
100
AcDbEntity
  8
0
  6
Continuous
 62
     7
370
    15
100
AcDbSpline
210
0.0
220
0.0
230
1.0
 70
     8
 71
     3
 72
    15
 73
    11
 74
     0
 42
0.000000001
 43
0.00000001
 40
0.0
 40
0.0
 40
0.0
 40
0.0
 40
0.1788504226669945
 40
0.3421104203020816
 40
0.4898267677856983
 40
0.6220572877084545
 40
0.7400790900395203
 40
0.8414823156585796
 40
0.9289075118911219
 40
1.0
 40
1.0
 40
1.0
 40
1.0
 10
258.4047415931352
 20
252.5423486524653
 30
0.0
 10
258.4046688673122
 20
252.555510726446
 30
0.0
 10
258.4045297551899
 20
252.5806875339394
 30
0.0
 10
258.4040852465795
 20
252.6167345086936
 30
0.0
 10
258.4030388940695
 20
252.6493370148088
 30
0.0
 10
258.4015081253818
 20
252.6785887488957
 30
0.0
 10
258.3993654356584
 20
252.7043826479304
 30
0.0
 10
258.397071647427
 20
252.7268492749596
 30
0.0
 10
258.3942896198989
 20
252.7457896262104
 30
0.0
 10
258.391808806503
 20
252.7571912944173
 30
0.0
 10
258.3906962038457
 20
252.7623047488863
 30
0.0
  0
LINE
  5
125
330
1F
100
AcDbEntity
  8
0
  6
Continuous
 62
     7
370
    15
100
AcDbLine
 10
258.4047415931
 20
252.0875960483
 30
0.0
 11
258.4047415931
 21
252.5423486525
 31
0.0
  0
LINE
  5
126
330
1F
100
AcDbEntity
  8
0
  6
Continuous
 62
     7
370
    15
100
AcDbLine
 10
258.5234648837
 20
252.0875960483
 30
0.0
 11
258.4047415931
 21
252.0875960483
 31
0.0
  0
LINE
  5
127
330
1F
100
AcDbEntity
  8
0
  6
Continuous
 62
     7
370
    15
100
AcDbLine
 10
258.5234648837
 20
252.5813047322
 30
0.0
 11
258.5234648837
 21
252.0875960483
 31
0.0
  0
SPLINE
  5
128
330
1F
100
AcDbEntity
  8
0
  6
Continuous
 62
     7
370
    15
100
AcDbSpline
210
0.0
220
0.0
230
1.0
 70
     8
 71
     3
 72
    23
 73
    19
 74
     0
 42
0.000000001
 43
0.00000001
 40
0.0
 40
0.0
 40
0.0
 40
0.0
 40
0.0772352601298104
 40
0.1512438108024458
 40
0.2234188286360076
 40
0.2958043357739656
 40
0.3672331708909989
 40
0.4371134667550872
 40
0.5067140232024528
 40
0.5782253602633893
 40
0.61663270842515
 40
0.6584064973910104
 40
0.7045109807395469
 40
0.7548195062037482
 40
0.8093443714114104
 40
0.8682832612646748
 40
0.9320774243056863
 40
1.0
 40
1.0
 40
1.0
 40
1.0
 10
258.1619948650369
 20
253.071303313256
 30
0.0
 10
258.1798932572491
 20
253.0706809354928
 30
0.0
 10
258.2149422884929
 20
253.0694621814614
 30
0.0
 10
258.2657898100439
 20
253.0587233651533
 30
0.0
 10
258.3136123088823
 20
253.041729119297
 30
0.0
 10
258.3577703195667
 20
253.0178445439912
 30
0.0
 10
258.3975843809394
 20
252.9881903043594
 30
0.0
 10
258.4321099582389
 20
252.9534056605051
 30
0.0
 10
258.4611442139565
 20
252.9139096764589
 30
0.0
 10
258.4805232322561
 20
252.8769405087704
 30
0.0
 10
258.4930573753701
 20
252.8441024196831
 30
0.0
 10
258.5012943217868
 20
252.8160151367608
 30
0.0
 10
258.5079581869466
 20
252.7847098018828
 30
0.0
 10
258.5139292693365
 20
252.750263815829
 30
0.0
 10
258.5179126368578
 20
252.7125388269813
 30
0.0
 10
258.5210701958192
 20
252.6716248746275
 30
0.0
 10
258.5233287104999
 20
252.6275290431221
 30
0.0
 10
258.5234185539973
 20
252.5970314655118
 30
0.0
 10
258.5234648837335
 20
252.5813047321929
 30
0.0
  0
SPLINE
  5
129
330
1F
100
AcDbEntity
  8
0
  6
Continuous
 62
     7
370
    15
100
AcDbSpline
210
0.0
220
0.0
230
1.0
 70
     8
 71
     3
 72
    15
 73
    11
 74
     0
 42
0.000000001
 43
0.00000001
 40
0.0
 40
0.0
 40
0.0
 40
0.0
 40
0.14098373018382
 40
0.2731541395726901
 40
0.398955214519329
 40
0.5199033426703329
 40
0.6380900912974571
 40
0.7565754954549524
 40
0.8768529727553287
 40
1.0
 40
1.0
 40
1.0
 40
1.0
 10
257.7941646700583
 20
252.8799680101042
 30
0.0
 10
257.8068192152298
 20
252.895807211207
 30
0.0
 10
257.8313372315536
 20
252.926495456887
 30
0.0
 10
257.8725882816081
 20
252.9665126249665
 30
0.0
 10
257.9156008536779
 20
253.0000934302452
 30
0.0
 10
257.9610735398241
 20
253.0265334861858
 30
0.0
 10
258.0085384164865
 20
253.0465301662306
 30
0.0
 10
258.0578608027068
 20
253.0609501290871
 30
0.0
 10
258.1093076567884
 20
253.069601620496
 30
0.0
 10
258.1442949824574
 20
253.070731642009
 30
0.0
 10
258.1619948650369
 20
253.071303313256
 30
0.0
  0
LINE
  5
12A
330
1F
100
AcDbEntity
  8
0
  6
Continuous
 62
     7
370
    15
100
AcDbLine
 10
257.7941646701
 20
253.0543428432
 30
0.0
 11
257.7941646701
 21
252.8799680101
 31
0.0
  0
LINE
  5
12B
330
1F
100
AcDbEntity
  8
0
  6
Continuous
 62
     7
370
    15
100
AcDbLine
 10
257.6754413795
 20
253.0543428432
 30
0.0
 11
257.7941646701
 21
253.0543428432
 31
0.0
  0
LINE
  5
12C
330
1F
100
AcDbEntity
  8
0
  6
Continuous
 62
     7
370
    15
100
AcDbLine
 10
257.6754413795
 20
252.0875960483
 30
0.0
 11
257.6754413795
 21
253.0543428432
 31
0.0
  0
LINE
  5
12D
330
1F
100
AcDbEntity
  8
0
  6
Continuous
 62
     7
370
    15
100
AcDbLine
 10
257.7941646701
 20
252.0875960483
 30
0.0
 11
257.6754413795
 21
252.0875960483
 31
0.0
  0
SPLINE
  5
12E
330
1F
100
AcDbEntity
  8
0
  6
Continuous
 62
     7
370
    15
100
AcDbSpline
210
0.0
220
0.0
230
1.0
 70
     8
 71
     3
 72
    15
 73
    11
 74
     0
 42
0.000000001
 43
0.00000001
 40
0.0
 40
0.0
 40
0.0
 40
0.0
 40
0.1298635398584133
 40
0.2546562725792845
 40
0.376579003505798
 40
0.4958209849134787
 40
0.6156516375024165
 40
0.7381460152074758
 40
0.8656460753711663
 40
1.0
 40
1.0
 40
1.0
 40
1.0
 10
255.774808700507
 20
253.071303313256
 30
0.0
 10
255.7945393980693
 20
253.070761917828
 30
0.0
 10
255.8332303647726
 20
253.0697002669456
 30
0.0
 10
255.8899027574874
 20
253.0607898066292
 30
0.0
 10
255.9435401754497
 20
253.0458755921416
 30
0.0
 10
255.9946072022898
 20
253.0255192261444
 30
0.0
 10
256.0423861810476
 20
252.9981064454352
 30
0.0
 10
256.0873364306306
 20
252.9641876318018
 30
0.0
 10
256.1289245999165
 20
252.9229404826919
 30
0.0
 10
256.1534010096298
 20
252.8915625172699
 30
0.0
 10
256.1659595418531
 20
252.8754628852378
 30
0.0
  0
SPLINE
  5
12F
330
1F
100
AcDbEntity
  8
0
  6
Continuous
 62
     7
370
    15
100
AcDbSpline
210
0.0
220
0.0
230
1.0
 70
     8
 71
     3
 72
    23
 73
    19
 74
     0
 42
0.000000001
 43
0.00000001
 40
0.0
 40
0.0
 40
0.0
 40
0.0
 40
0.0637814724965007
 40
0.1260925303724579
 40
0.1869244323723039
 40
0.2476008768692156
 40
0.3080368742790088
 40
0.3693492899539815
 40
0.4322574644027521
 40
0.4970220782641052
 40
0.5618491610224131
 40
0.6248894581378521
 40
0.6869962791359585
 40
0.7480514182236214
 40
0.809561569149526
 40
0.87161677293054
 40
0.9348787348521403
 40
1.0
 40
1.0
 40
1.0
 40
1.0
 10
255.2670546273232
 20
252.5736195191855
 30
0.0
 10
255.2675281053103
 20
252.5904258121128
 30
0.0
 10
255.2684641457485
 20
252.6236509465984
 30
0.0
 10
255.2754406905857
 20
252.6725141811499
 30
0.0
 10
255.2871635184992
 20
252.7195829407768
 30
0.0
 10
255.3036463680641
 20
252.7646828653145
 30
0.0
 10
255.3246886666151
 20
252.8079955870261
 30
0.0
 10
255.3507196454956
 20
252.8491822264786
 30
0.0
 10
255.3809033260516
 20
252.8888728232712
 30
0.0
 10
255.4157842262951
 20
252.9257945703506
 30
0.0
 10
255.4535509032159
 20
252.9597758671468
 30
0.0
 10
255.4937652442501
 20
252.9896996789627
 30
0.0
 10
255.5359258167935
 20
253.0149501208769
 30
0.0
 10
255.5801171587806
 20
253.0354762753319
 30
0.0
 10
255.6260263564401
 20
253.0517876072051
 30
0.0
 10
255.6740021573528
 20
253.0631581760958
 30
0.0
 10
255.723826387003
 20
253.0698422504202
 30
0.0
 10
255.7576513068077
 20
253.0708116127314
 30
0.0
 10
255.774808700507
 20
253.071303313256
 30
0.0
  0
SPLINE
  5
130
330
1F
100
AcDbEntity
  8
0
  6
Continuous
 62
     7
370
    15
100
AcDbSpline
210
0.0
220
0.0
230
1.0
 70
     8
 71
     3
 72
    23
 73
    19
 74
     0
 42
0.000000001
 43
0.00000001
 40
0.0
 40
0.0
 40
0.0
 40
0.0
 40
0.064627267008085
 40
0.1274478320825685
 40
0.1890254068323239
 40
0.2499582107091135
 40
0.3107034323946222
 40
0.3720844592356807
 40
0.4347016574718293
 40
0.4993453691874996
 40
0.563968307945437
 40
0.626519359032182
 40
0.688074217296585
 40
0.749265379106272
 40
0.8103091726242414
 40
0.871886747373997
 40
0.9350386014010437
 40
1.0
 40
1.0
 40
1.0
 40
1.0
 10
255.7710985976757
 20
252.0706355782132
 30
0.0
 10
255.7540261401587
 20
252.0710990408069
 30
0.0
 10
255.7203584980072
 20
252.0720130095629
 30
0.0
 10
255.6708332937123
 20
252.0791058197067
 30
0.0
 10
255.6231709623154
 20
252.0904903931155
 30
0.0
 10
255.5773411277077
 20
252.1063429638326
 30
0.0
 10
255.5336543245472
 20
252.127262351259
 30
0.0
 10
255.4918643893025
 20
252.1525776994624
 30
0.0
 10
255.4518737916877
 20
252.1824289668433
 30
0.0
 10
255.4144430692003
 20
252.216688213148
 30
0.0
 10
255.3799310155346
 20
252.2538592705555
 30
0.0
 10
255.3497364543176
 20
252.2936210199391
 30
0.0
 10
255.3241455806049
 20
252.3354273346463
 30
0.0
 10
255.3031144656826
 20
252.3792664646933
 30
0.0
 10
255.2868394861995
 20
252.4251063636995
 30
0.0
 10
255.2755165041422
 20
252.472915584571
 30
0.0
 10
255.2684313373613
 20
252.5226145752774
 30
0.0
 10
255.2675178316277
 20
252.5564585274617
 30
0.0
 10
255.2670546273232
 20
252.5736195191855
 30
0.0
  0
SPLINE
  5
131
330
1F
100
AcDbEntity
  8
0
  6
Continuous
 62
     7
370
    15
100
AcDbSpline
210
0.0
220
0.0
230
1.0
 70
     8
 71
     3
 72
    15
 73
    11
 74
     0
 42
0.000000001
 43
0.00000001
 40
0.0
 40
0.0
 40
0.0
 40
0.0
 40
0.1342794253839572
 40
0.2624376805010354
 40
0.3857880719678818
 40
0.5066656944993579
 40
0.6267843787698804
 40
0.7481804860948833
 40
0.8723881896532656
 40
1.0
 40
1.0
 40
1.0
 40
1.0
 10
256.1659595418531
 20
252.2548156830476
 30
0.0
 10
256.1525539452886
 20
252.2397025366117
 30
0.0
 10
256.1263538505378
 20
252.2101651813217
 30
0.0
 10
256.0830139306407
 20
252.1713390314825
 30
0.0
 10
256.0366941051446
 20
252.1396393912801
 30
0.0
 10
255.988183518818
 20
252.1139087312091
 30
0.0
 10
255.937106683355
 20
252.0945124728374
 30
0.0
 10
255.8837635703342
 20
252.0808480490362
 30
0.0
 10
255.8281959169297
 20
252.0719591473096
 30
0.0
 10
255.7903017888996
 20
252.0710807260903
 30
0.0
 10
255.7710985976757
 20
252.0706355782132
 30
0.0
  0
LINE
  5
132
330
1F
100
AcDbEntity
  8
0
  6
Continuous
 62
     7
370
    15
100
AcDbLine
 10
256.1659595419
 20
252.0875960483
 30
0.0
 11
256.1659595419
 21
252.254815683
 31
0.0
  0
LINE
  5
133
330
1F
100
AcDbEntity
  8
0
  6
Continuous
 62
     7
370
    15
100
AcDbLine
 10
256.2846828325
 20
252.0875960483
 30
0.0
 11
256.1659595419
 21
252.0875960483
 31
0.0
  0
LINE
  5
134
330
1F
100
AcDbEntity
  8
0
  6
Continuous
 62
     7
370
    15
100
AcDbLine
 10
256.2846828325
 20
253.0543428432
 30
0.0
 11
256.2846828325
 21
252.0875960483
 31
0.0
  0
LINE
  5
135
330
1F
100
AcDbEntity
  8
0
  6
Continuous
 62
     7
370
    15
100
AcDbLine
 10
256.1659595419
 20
253.0543428432
 30
0.0
 11
256.2846828325
 21
253.0543428432
 31
0.0
  0
LINE
  5
136
330
1F
100
AcDbEntity
  8
0
  6
Continuous
 62
     7
370
    15
100
AcDbLine
 10
256.1659595419
 20
252.8754628852
 30
0.0
 11
256.1659595419
 21
253.0543428432
 31
0.0
  0
SPLINE
  5
137
330
1F
100
AcDbEntity
  8
0
  6
Continuous
 62
     7
370
    15
100
AcDbSpline
210
0.0
220
0.0
230
1.0
 70
     8
 71
     3
 72
    15
 73
    11
 74
     0
 42
0.000000001
 43
0.00000001
 40
0.0
 40
0.0
 40
0.0
 40
0.0
 40
0.1288541562971714
 40
0.2529263890925988
 40
0.3745104744657677
 40
0.4943737874636308
 40
0.6152961820912102
 40
0.7385716223676401
 40
0.8662734877878951
 40
1.0
 40
1.0
 40
1.0
 40
1.0
 10
252.8067264355497
 20
253.071303313256
 30
0.0
 10
252.8264661383106
 20
253.0707213037766
 30
0.0
 10
252.8652129811332
 20
253.069578883848
 30
0.0
 10
252.9218870921557
 20
253.0597058758445
 30
0.0
 10
252.975689957484
 20
253.043902567771
 30
0.0
 10
253.0266195108509
 20
253.021454767944
 30
0.0
 10
253.0742287123988
 20
252.9921999296112
 30
0.0
 10
253.1191539970058
 20
252.9570178703577
 30
0.0
 10
253.160707010143
 20
252.9150241042144
 30
0.0
 10
253.1852982850661
 20
252.8834159443153
 30
0.0
 10
253.1978772768959
 20
252.8672476575401
 30
0.0
  0
SPLINE
  5
138
330
1F
100
AcDbEntity
  8
0
  6
Continuous
 62
     7
370
    15
100
AcDbSpline
210
0.0
220
0.0
230
1.0
 70
     8
 71
     3
 72
    23
 73
    19
 74
     0
 42
0.000000001
 43
0.00000001
 40
0.0
 40
0.0
 40
0.0
 40
0.0
 40
0.0637814724965007
 40
0.1260925303724579
 40
0.1869244323723039
 40
0.2476008768692156
 40
0.3080368742790089
 40
0.3693492899539814
 40
0.432257464402752
 40
0.4970220782641053
 40
0.5618491610224131
 40
0.6248894581378521
 40
0.6869962791359585
 40
0.7480514182236214
 40
0.809561569149526
 40
0.8716167729305402
 40
0.93487873485214
 40
1.0
 40
1.0
 40
1.0
 40
1.0
 10
252.2989723623659
 20
252.5736195191855
 30
0.0
 10
252.299445840353
 20
252.5904258121128
 30
0.0
 10
252.3003818807912
 20
252.6236509465984
 30
0.0
 10
252.3073584256284
 20
252.6725141811499
 30
0.0
 10
252.319081253542
 20
252.7195829407768
 30
0.0
 10
252.3355641031069
 20
252.7646828653145
 30
0.0
 10
252.3566064016578
 20
252.8079955870261
 30
0.0
 10
252.3826373805383
 20
252.8491822264786
 30
0.0
 10
252.4128210610943
 20
252.8888728232712
 30
0.0
 10
252.4477019613378
 20
252.9257945703506
 30
0.0
 10
252.4854686382586
 20
252.9597758671468
 30
0.0
 10
252.5256829792928
 20
252.9896996789627
 30
0.0
 10
252.5678435518362
 20
253.0149501208769
 30
0.0
 10
252.6120348938234
 20
253.0354762753319
 30
0.0
 10
252.6579440914829
 20
253.0517876072051
 30
0.0
 10
252.7059198923955
 20
253.0631581760958
 30
0.0
 10
252.7557441220458
 20
253.0698422504202
 30
0.0
 10
252.7895690418505
 20
253.0708116127314
 30
0.0
 10
252.8067264355497
 20
253.071303313256
 30
0.0
  0
SPLINE
  5
139
330
1F
100
AcDbEntity
  8
0
  6
Continuous
 62
     7
370
    15
100
AcDbSpline
210
0.0
220
0.0
230
1.0
 70
     8
 71
     3
 72
    23
 73
    19
 74
     0
 42
0.000000001
 43
0.00000001
 40
0.0
 40
0.0
 40
0.0
 40
0.0
 40
0.0646272670080853
 40
0.1274478320825685
 40
0.1890254068323239
 40
0.2499582107091135
 40
0.3107034323946222
 40
0.3720844592356807
 40
0.4347016574718295
 40
0.4993453691874997
 40
0.5639683079454371
 40
0.6265193590321823
 40
0.6880742172965852
 40
0.7492653791062722
 40
0.8103091726242415
 40
0.8718867473739971
 40
0.9350386014010438
 40
1.0
 40
1.0
 40
1.0
 40
1.0
 10
252.8030163327184
 20
252.0706355782132
 30
0.0
 10
252.7859438752015
 20
252.0710990408069
 30
0.0
 10
252.7522762330499
 20
252.0720130095629
 30
0.0
 10
252.702751028755
 20
252.0791058197067
 30
0.0
 10
252.6550886973581
 20
252.0904903931155
 30
0.0
 10
252.6092588627505
 20
252.1063429638326
 30
0.0
 10
252.5655720595899
 20
252.127262351259
 30
0.0
 10
252.5237821243453
 20
252.1525776994624
 30
0.0
 10
252.4837915267304
 20
252.1824289668433
 30
0.0
 10
252.446360804243
 20
252.216688213148
 30
0.0
 10
252.4118487505773
 20
252.2538592705555
 30
0.0
 10
252.3816541893603
 20
252.2936210199391
 30
0.0
 10
252.3560633156477
 20
252.3354273346463
 30
0.0
 10
252.3350322007254
 20
252.3792664646933
 30
0.0
 10
252.3187572212422
 20
252.4251063636995
 30
0.0
 10
252.3074342391849
 20
252.472915584571
 30
0.0
 10
252.300349072404
 20
252.5226145752774
 30
0.0
 10
252.2994355666704
 20
252.5564585274617
 30
0.0
 10
252.2989723623659
 20
252.5736195191855
 30
0.0
  0
SPLINE
  5
13A
330
1F
100
AcDbEntity
  8
0
  6
Continuous
 62
     7
370
    15
100
AcDbSpline
210
0.0
220
0.0
230
1.0
 70
     8
 71
     3
 72
    15
 73
    11
 74
     0
 42
0.000000001
 43
0.00000001
 40
0.0
 40
0.0
 40
0.0
 40
0.0
 40
0.1342794253839568
 40
0.2624376805010355
 40
0.3857880719678818
 40
0.5066656944993579
 40
0.6267843787698799
 40
0.7481804860948839
 40
0.872388189653266
 40
1.0
 40
1.0
 40
1.0
 40
1.0
 10
253.1978772768959
 20
252.2548156830476
 30
0.0
 10
253.1844716803313
 20
252.2397025366117
 30
0.0
 10
253.1582715855806
 20
252.2101651813217
 30
0.0
 10
253.1149316656835
 20
252.1713390314825
 30
0.0
 10
253.0686118401873
 20
252.1396393912801
 30
0.0
 10
253.0201012538608
 20
252.1139087312091
 30
0.0
 10
252.9690244183977
 20
252.0945124728374
 30
0.0
 10
252.9156813053769
 20
252.0808480490362
 30
0.0
 10
252.8601136519724
 20
252.0719591473096
 30
0.0
 10
252.8222195239424
 20
252.0710807260903
 30
0.0
 10
252.8030163327184
 20
252.0706355782132
 30
0.0
  0
LINE
  5
13B
330
1F
100
AcDbEntity
  8
0
  6
Continuous
 62
     7
370
    15
100
AcDbLine
 10
253.1978772769
 20
252.0875960483
 30
0.0
 11
253.1978772769
 21
252.254815683
 31
0.0
  0
LINE
  5
13C
330
1F
100
AcDbEntity
  8
0
  6
Continuous
 62
     7
370
    15
100
AcDbLine
 10
253.3166005675
 20
252.0875960483
 30
0.0
 11
253.1978772769
 21
252.0875960483
 31
0.0
  0
LINE
  5
13D
330
1F
100
AcDbEntity
  8
0
  6
Continuous
 62
     7
370
    15
100
AcDbLine
 10
253.3166005675
 20
253.4444336551
 30
0.0
 11
253.3166005675
 21
252.0875960483
 31
0.0
  0
LINE
  5
13E
330
1F
100
AcDbEntity
  8
0
  6
Continuous
 62
     7
370
    15
100
AcDbLine
 10
253.1978772769
 20
253.4444336551
 30
0.0
 11
253.3166005675
 21
253.4444336551
 31
0.0
  0
LINE
  5
13F
330
1F
100
AcDbEntity
  8
0
  6
Continuous
 62
     7
370
    15
100
AcDbLine
 10
253.1978772769
 20
252.8672476575
 30
0.0
 11
253.1978772769
 21
253.4444336551
 31
0.0
  0
LINE
  5
140
330
1F
100
AcDbEntity
  8
0
  6
Continuous
 62
     7
370
    15
100
AcDbLine
 10
251.7223163795
 20
252.5455287406
 30
0.0
 11
250.8573324051
 21
252.5455287406
 31
0.0
  0
SPLINE
  5
141
330
1F
100
AcDbEntity
  8
0
  6
Continuous
 62
     7
370
    15
100
AcDbSpline
210
0.0
220
0.0
230
1.0
 70
     8
 71
     3
 72
    15
 73
    11
 74
     0
 42
0.000000001
 43
0.00000001
 40
0.0
 40
0.0
 40
0.0
 40
0.0
 40
0.118521840013261
 40
0.2362547631617466
 40
0.3561744339909315
 40
0.4772496548985579
 40
0.6015398708217026
 40
0.7296183821680426
 40
0.8621582661414389
 40
1.0
 40
1.0
 40
1.0
 40
1.0
 10
251.617108463461
 20
252.8810280394846
 30
0.0
 10
251.6254719193113
 20
252.8696118048535
 30
0.0
 10
251.6421431613448
 20
252.8468553254681
 30
0.0
 10
251.6630252497509
 20
252.8097489654925
 30
0.0
 10
251.681152003212
 20
252.7709268063185
 30
0.0
 10
251.695640949786
 20
252.7297613071219
 30
0.0
 10
251.7073731422025
 20
252.6867402158066
 30
0.0
 10
251.7158612850002
 20
252.6415559801556
 30
0.0
 10
251.7208390872618
 20
252.5942220553258
 30
0.0
 10
251.7218175532238
 20
252.5619706489402
 30
0.0
 10
251.7223163794599
 20
252.5455287406064
 30
0.0
  0
SPLINE
  5
142
330
1F
100
AcDbEntity
  8
0
  6
Continuous
 62
     7
370
    15
100
AcDbSpline
210
0.0
220
0.0
230
1.0
 70
     8
 71
     3
 72
    15
 73
    11
 74
     0
 42
0.000000001
 43
0.00000001
 40
0.0
 40
0.0
 40
0.0
 40
0.0
 40
0.1320486370255607
 40
0.2590493247643343
 40
0.3819041254817491
 40
0.5025162511634209
 40
0.6227281827366148
 40
0.7447263881325086
 40
0.8701006615077177
 40
1.0
 40
1.0
 40
1.0
 40
1.0
 10
251.2278126735305
 20
253.071303313256
 30
0.0
 10
251.2476377594733
 20
253.0707940783149
 30
0.0
 10
251.2865300588758
 20
253.0697950754429
 30
0.0
 10
251.3432225228585
 20
253.0604506907354
 30
0.0
 10
251.3969714576692
 20
253.0458121507092
 30
0.0
 10
251.4473333007138
 20
253.0244844928468
 30
0.0
 10
251.495084053947
 20
252.9980474041735
 30
0.0
 10
251.5391247390176
 20
252.9646321619544
 30
0.0
 10
251.5806643014599
 20
252.9259550124411
 30
0.0
 10
251.6048176924413
 20
252.896179633235
 30
0.0
 10
251.617108463461
 20
252.8810280394846
 30
0.0
  0
SPLINE
  5
143
330
1F
100
AcDbEntity
  8
0
  6
Continuous
 62
     7
370
    15
100
AcDbSpline
210
0.0
220
0.0
230
1.0
 70
     8
 71
     3
 72
    15
 73
    11
 74
     0
 42
0.000000001
 43
0.00000001
 40
0.0
 40
0.0
 40
0.0
 40
0.0
 40
0.1288514141696357
 40
0.2532072518977744
 40
0.3746340222150048
 40
0.4953459460202969
 40
0.6163458534169397
 40
0.7396344715653412
 40
0.8668256185408372
 40
0.9999999999999999
 40
0.9999999999999999
 40
0.9999999999999999
 40
0.9999999999999999
 10
250.8499121994386
 20
252.8910983185978
 30
0.0
 10
250.861876287073
 20
252.9054355825583
 30
0.0
 10
250.885387039911
 20
252.9336098888365
 30
0.0
 10
250.9255646844988
 20
252.9702924114362
 30
0.0
 10
250.9684837977562
 20
253.0016711737379
 30
0.0
 10
251.0145760945534
 20
253.0272700300585
 30
0.0
 10
251.0637639349593
 20
253.0469595979358
 30
0.0
 10
251.1157936118962
 20
253.0609645271715
 30
0.0
 10
251.1708089339704
 20
253.0696790338405
 30
0.0
 10
251.2085225391224
 20
253.0707536551373
 30
0.0
 10
251.2278126735305
 20
253.071303313256
 30
0.0
  0
SPLINE
  5
144
330
1F
100
AcDbEntity
  8
0
  6
Continuous
 62
     7
370
    15
100
AcDbSpline
210
0.0
220
0.0
230
1.0
 70
     8
 71
     3
 72
    15
 73
    11
 74
     0
 42
0.000000001
 43
0.00000001
 40
0.0
 40
0.0
 40
0.0
 40
0.0
 40
0.1280448079611199
 40
0.2537679000244898
 40
0.3774284265813012
 40
0.5005508414825327
 40
0.623295883242476
 40
0.746578331933508
 40
0.8723475406047168
 40
1.0
 40
1.0
 40
1.0
 40
1.0
 10
250.7386091145027
 20
252.5683193722837
 30
0.0
 10
250.739009444708
 20
252.5831718825903
 30
0.0
 10
250.7398028463081
 20
252.6126075966238
 30
0.0
 10
250.7448037689241
 20
252.6561752280385
 30
0.0
 10
250.7536666654111
 20
252.6985193157502
 30
0.0
 10
250.765828549761
 20
252.7396750445955
 30
0.0
 10
250.7815339315029
 20
252.7795735059526
 30
0.0
 10
250.8007473000756
 20
252.8182389823816
 30
0.0
 10
250.8234985857279
 20
252.8556303298884
 30
0.0
 10
250.8410641499157
 20
252.8792172286411
 30
0.0
 10
250.8499121994386
 20
252.8910983185978
 30
0.0
  0
SPLINE
  5
145
330
1F
100
AcDbEntity
  8
0
  6
Continuous
 62
     7
370
    15
100
AcDbSpline
210
0.0
220
0.0
230
1.0
 70
     8
 71
     3
 72
    23
 73
    19
 74
     0
 42
0.000000001
 43
0.00000001
 40
0.0
 40
0.0
 40
0.0
 40
0.0
 40
0.0715758125636837
 40
0.1396236746773168
 40
0.2047885570889778
 40
0.2681243055045785
 40
0.3298006374717121
 40
0.3912858442338191
 40
0.4534154919141817
 40
0.5165311583006995
 40
0.5796082313837382
 40
0.641093438145845
 40
0.7012661714967215
 40
0.760600571103489
 40
0.8199388791747629
 40
0.878924388232805
 40
0.9389852475756958
 40
1.0
 40
1.0
 40
1.0
 40
1.0
 10
251.2248975927345
 20
252.0706355782132
 30
0.0
 10
251.2063230953875
 20
252.0710691832203
 30
0.0
 10
251.1700896321268
 20
252.0719150209731
 30
0.0
 10
251.1173469285067
 20
252.0792071125429
 30
0.0
 10
251.0676886421011
 20
252.091102917081
 30
0.0
 10
251.0211175316001
 20
252.1077208367718
 30
0.0
 10
250.9777477652456
 20
252.1294270275727
 30
0.0
 10
250.937492706141
 20
252.1558699360143
 30
0.0
 10
250.9001423076125
 20
252.1869143894059
 30
0.0
 10
250.8668673437087
 20
252.2228267607312
 30
0.0
 10
250.836929544822
 20
252.2612659892519
 30
0.0
 10
250.8104468322634
 20
252.3012935749508
 30
0.0
 10
250.7885628812284
 20
252.3428926394268
 30
0.0
 10
250.7698840629027
 20
252.3854315998068
 30
0.0
 10
250.7560633958122
 20
252.4294766093935
 30
0.0
 10
250.7457449843054
 20
252.4746396092638
 30
0.0
 10
250.7399635260574
 20
252.5210859866673
 30
0.0
 10
250.7390629500808
 20
252.5524924319492
 30
0.0
 10
250.7386091145027
 20
252.5683193722837
 30
0.0
  0
SPLINE
  5
146
330
1F
100
AcDbEntity
  8
0
  6
Continuous
 62
     7
370
    15
100
AcDbSpline
210
0.0
220
0.0
230
1.0
 70
     8
 71
     3
 72
    19
 73
    15
 74
     0
 42
0.000000001
 43
0.00000001
 40
0.0
 40
0.0
 40
0.0
 40
0.0
 40
0.0933789322631522
 40
0.1816784234524886
 40
0.2655306173294019
 40
0.3456729645101126
 40
0.4242267260971049
 40
0.5019411122490925
 40
0.5800376096215044
 40
0.6583110939221192
 40
0.7385476981005971
 40
0.821876836591569
 40
0.9087919275061821
 40
1.0
 40
1.0
 40
1.0
 40
1.0
 10
251.6714349692035
 20
252.3374979747143
 30
0.0
 10
251.6630244452126
 20
252.3225940897922
 30
0.0
 10
251.6466608961545
 20
252.29359703178
 30
0.0
 10
251.6186555610768
 20
252.2537362670394
 30
0.0
 10
251.5889934275366
 20
252.2182133140912
 30
0.0
 10
251.5570850243149
 20
252.1871949357957
 30
0.0
 10
251.5233306330753
 20
252.1599524593666
 30
0.0
 10
251.4872275819064
 20
252.1366096730952
 30
0.0
 10
251.4493766032826
 20
252.1163426438856
 30
0.0
 10
251.4092286794347
 20
252.0998239094752
 30
0.0
 10
251.3668221170972
 20
252.0868218641621
 30
0.0
 10
251.3218956669373
 20
252.0772239445283
 30
0.0
 10
251.2742414328367
 20
252.0716570690597
 30
0.0
 10
251.241607710037
 20
252.0709815024832
 30
0.0
 10
251.2248975927345
 20
252.0706355782132
 30
0.0
  0
LINE
  5
147
330
1F
100
AcDbEntity
  8
0
  6
Continuous
 62
     7
370
    15
100
AcDbLine
 10
251.5659620459
 20
252.3928845098
 30
0.0
 11
251.6714349692
 21
252.3374979747
 31
0.0
  0
SPLINE
  5
148
330
1F
100
AcDbEntity
  8
0
  6
Continuous
 62
     7
370
    15
100
AcDbSpline
210
0.0
220
0.0
230
1.0
 70
     8
 71
     3
 72
    19
 73
    15
 74
     0
 42
0.000000001
 43
0.00000001
 40
0.0
 40
0.0
 40
0.0
 40
0.0
 40
0.082585578681378
 40
0.1638656304704674
 40
0.2462419654968038
 40
0.3284754339642035
 40
0.4087765823988813
 40
0.4856459212053336
 40
0.5595927718824185
 40
0.6306864370722233
 40
0.7057179164413416
 40
0.7915997423912723
 40
0.889805356795773
 40
1.0
 40
1.0
 40
1.0
 40
1.0
 10
251.2100571814097
 20
252.1893588688115
 30
0.0
 10
251.2219079880643
 20
252.1895852491703
 30
0.0
 10
251.2454222618036
 20
252.1900344312288
 30
0.0
 10
251.2805121750351
 20
252.1945306561466
 30
0.0
 10
251.3151144093961
 20
252.201538474614
 30
0.0
 10
251.3487802788825
 20
252.2117067769404
 30
0.0
 10
251.380970636812
 20
252.2237322928599
 30
0.0
 10
251.4110319230337
 20
252.2377929453084
 30
0.0
 10
251.4386818567207
 20
252.253641050545
 30
0.0
 10
251.4644750930516
 20
252.2719313047562
 30
0.0
 10
251.4893573634062
 20
252.2941455431127
 30
0.0
 10
251.5141195680439
 20
252.3219190757492
 30
0.0
 10
251.5404330318232
 20
252.3549625228135
 30
0.0
 10
251.5571321474967
 20
252.3797681673627
 30
0.0
 10
251.5659620458595
 20
252.3928845098372
 30
0.0
  0
SPLINE
  5
149
330
1F
100
AcDbEntity
  8
0
  6
Continuous
 62
     7
370
    15
100
AcDbSpline
210
0.0
220
0.0
230
1.0
 70
     8
 71
     3
 72
    23
 73
    19
 74
     0
 42
0.000000001
 43
0.00000001
 40
0.0
 40
0.0
 40
0.0
 40
0.0
 40
0.0684003466196274
 40
0.1345065229349116
 40
0.1984366965883445
 40
0.2608134623948026
 40
0.3221034354366039
 40
0.3833255316859285
 40
0.4449555907183553
 40
0.5077149129426849
 40
0.5701565007621616
 40
0.6311229251954882
 40
0.691287808515082
 40
0.7508878389482685
 40
0.8110060096695373
 40
0.8723014829407617
 40
0.9349891416279014
 40
1.0
 40
1.0
 40
1.0
 40
1.0
 10
250.8573324051009
 20
252.5455287406064
 30
0.0
 10
250.85791489229
 20
252.5327910251451
 30
0.0
 10
250.8590603298546
 20
252.5077428214224
 30
0.0
 10
250.864387663221
 20
252.47108651236
 30
0.0
 10
250.8728256330983
 20
252.4361848580243
 30
0.0
 10
250.8845546562652
 20
252.403186566008
 30
0.0
 10
250.899261641107
 20
252.3719832917447
 30
0.0
 10
250.9167110606196
 20
252.3423599859998
 30
0.0
 10
250.9376558968691
 20
252.3147665348381
 30
0.0
 10
250.9609787642177
 20
252.2888453620272
 30
0.0
 10
250.9869519662178
 20
252.2657701260449
 30
0.0
 10
251.0142670227764
 20
252.2451007090952
 30
0.0
 10
251.0432824498707
 20
252.2278726910615
 30
0.0
 10
251.0737057466878
 20
252.2136781296286
 30
0.0
 10
251.1056946903925
 20
252.2027530441306
 30
0.0
 10
251.1392042963215
 20
252.195229659043
 30
0.0
 10
251.1741303223613
 20
252.1902036591707
 30
0.0
 10
251.1979371901528
 20
252.189643860376
 30
0.0
 10
251.2100571814097
 20
252.1893588688115
 30
0.0
  0
CIRCLE
  5
14A
330
1F
100
AcDbEntity
  8
0
  6
Continuous
 62
     7
370
    15
100
AcDbCircle
 10
254.207025247
 20
252.0875960483
 30
0.0
 40
6.000000000000028
  0
LINE
  5
14B
330
1F
100
AcDbEntity
  8
0
  6
Continuous
 62
     7
370
    15
100
AcDbLine
 10
250.043229841
 20
252.7320939115
 30
0.0
 11
250.043229841
 21
252.0875960483
 31
0.0
  0
LINE
  5
14C
330
1F
100
AcDbEntity
  8
0
  6
Continuous
 62
     7
370
    15
100
AcDbLine
 10
250.5690044136
 20
252.7320939115
 30
0.0
 11
250.043229841
 21
252.7320939115
 31
0.0
  0
LINE
  5
14D
330
1F
100
AcDbEntity
  8
0
  6
Continuous
 62
     7
370
    15
100
AcDbLine
 10
250.5690044136
 20
252.8677776722
 30
0.0
 11
250.5690044136
 21
252.7320939115
 31
0.0
  0
LINE
  5
14E
330
1F
100
AcDbEntity
  8
0
  6
Continuous
 62
     7
370
    15
100
AcDbLine
 10
250.043229841
 20
252.8677776722
 30
0.0
 11
250.5690044136
 21
252.8677776722
 31
0.0
  0
LINE
  5
14F
330
1F
100
AcDbEntity
  8
0
  6
Continuous
 62
     7
370
    15
100
AcDbLine
 10
250.043229841
 20
253.2748289543
 30
0.0
 11
250.043229841
 21
252.8677776722
 31
0.0
  0
LINE
  5
150
330
1F
100
AcDbEntity
  8
0
  6
Continuous
 62
     7
370
    15
100
AcDbLine
 10
250.5690044136
 20
253.2748289543
 30
0.0
 11
250.043229841
 21
253.2748289543
 31
0.0
  0
LINE
  5
151
330
1F
100
AcDbEntity
  8
0
  6
Continuous
 62
     7
370
    15
100
AcDbLine
 10
250.5690044136
 20
253.410512715
 30
0.0
 11
250.5690044136
 21
253.2748289543
 31
0.0
  0
LINE
  5
152
330
1F
100
AcDbEntity
  8
0
  6
Continuous
 62
     7
370
    15
100
AcDbLine
 10
249.9245065504
 20
253.410512715
 30
0.0
 11
250.5690044136
 21
253.410512715
 31
0.0
  0
LINE
  5
153
330
1F
100
AcDbEntity
  8
0
  6
Continuous
 62
     7
370
    15
100
AcDbLine
 10
249.9245065504
 20
252.0875960483
 30
0.0
 11
249.9245065504
 21
253.410512715
 31
0.0
  0
LINE
  5
154
330
1F
100
AcDbEntity
  8
0
  6
Continuous
 62
     7
370
    15
100
AcDbLine
 10
250.043229841
 20
252.0875960483
 30
0.0
 11
249.9245065504
 21
252.0875960483
 31
0.0
  0
LINE
  5
155
330
1F
100
AcDbEntity
  8
0
  6
Continuous
 62
     7
370
    15
100
AcDbLine
 10
252.0615257812
 20
253.4444336551
 30
0.0
 11
252.0615257812
 21
252.0875960483
 31
0.0
  0
LINE
  5
156
330
1F
100
AcDbEntity
  8
0
  6
Continuous
 62
     7
370
    15
100
AcDbLine
 10
251.9428024906
 20
253.4444336551
 30
0.0
 11
252.0615257812
 21
253.4444336551
 31
0.0
  0
LINE
  5
157
330
1F
100
AcDbEntity
  8
0
  6
Continuous
 62
     7
370
    15
100
AcDbLine
 10
251.9428024906
 20
252.0875960483
 30
0.0
 11
251.9428024906
 21
253.4444336551
 31
0.0
  0
LINE
  5
158
330
1F
100
AcDbEntity
  8
0
  6
Continuous
 62
     7
370
    15
100
AcDbLine
 10
252.0615257812
 20
252.0875960483
 30
0.0
 11
251.9428024906
 21
252.0875960483
 31
0.0
  0
LINE
  5
159
330
1F
100
AcDbEntity
  8
0
  6
Continuous
 62
     7
370
    15
100
AcDbLine
 10
253.7066913795
 20
252.494382323
 30
0.0
 11
253.7066913795
 21
252.0875960483
 31
0.0
  0
SPLINE
  5
15A
330
1F
100
AcDbEntity
  8
0
  6
Continuous
 62
     7
370
    15
100
AcDbSpline
210
0.0
220
0.0
230
1.0
 70
     8
 71
     3
 72
    23
 73
    19
 74
     0
 42
0.000000001
 43
0.00000001
 40
0.0
 40
0.0
 40
0.0
 40
0.0
 40
0.0686739183917618
 40
0.1368646806285612
 40
0.2061049032675396
 40
0.2775254520848115
 40
0.3497559345117771
 40
0.4212315145810493
 40
0.492888148512647
 40
0.5666222165247091
 40
0.6062079650046293
 40
0.6497024328398614
 40
0.6972994465661385
 40
0.7491468421890981
 40
0.8048895970275635
 40
0.8654911755215117
 40
0.9302403269771622
 40
1.0
 40
1.0
 40
1.0
 40
1.0
 10
254.0194000466608
 20
252.9525800226576
 30
0.0
 10
254.0050308275973
 20
252.9520015433336
 30
0.0
 10
253.9763934842789
 20
252.9508486545834
 30
0.0
 10
253.9343239342415
 20
252.9404716207919
 30
0.0
 10
253.8936971212098
 20
252.9242169952819
 30
0.0
 10
253.8551598341538
 20
252.9016674274577
 30
0.0
 10
253.8197564086534
 20
252.8737337335652
 30
0.0
 10
253.7887474826288
 20
252.8408879068506
 30
0.0
 10
253.7627785291358
 20
252.8035680335909
 30
0.0
 10
253.7453719002272
 20
252.7688832982745
 30
0.0
 10
253.7342235794653
 20
252.7380396136889
 30
0.0
 10
253.7268781360327
 20
252.7117179696928
 30
0.0
 10
253.7205862306494
 20
252.6825069788368
 30
0.0
 10
253.7153113973959
 20
252.6504998272981
 30
0.0
 10
253.7113301519281
 20
252.6155643318254
 30
0.0
 10
253.7089512763143
 20
252.5777939749303
 30
0.0
 10
253.7068590031089
 20
252.5370710426006
 30
0.0
 10
253.7067486245618
 20
252.5089609347693
 30
0.0
 10
253.70669137946
 20
252.4943823230049
 30
0.0
  0
SPLINE
  5
15B
330
1F
100
AcDbEntity
  8
0
  6
Continuous
 62
     7
370
    15
100
AcDbSpline
210
0.0
220
0.0
230
1.0
 70
     8
 71
     3
 72
    23
 73
    19
 74
     0
 42
0.000000001
 43
0.00000001
 40
0.0
 40
0.0
 40
0.0
 40
0.0
 40
0.0825023125334657
 40
0.1587261568314589
 40
0.2276624767356629
 40
0.2898494209590892
 40
0.3453269589521903
 40
0.3937910809625452
 40
0.4362544307123206
 40
0.4718400628811452
 40
0.5362924968382334
 40
0.5989659750684704
 40
0.6614607608870713
 40
0.7261291881442902
 40
0.7920242677856617
 40
0.8586942182094803
 40
0.9273294608854415
 40
1.0
 40
1.0
 40
1.0
 40
1.0
 10
254.249426422195
 20
252.5791846734322
 30
0.0
 10
254.2493977443816
 20
252.5930540312268
 30
0.0
 10
254.2493425711512
 20
252.619737281585
 30
0.0
 10
254.2483132741518
 20
252.6579991338882
 30
0.0
 10
254.2464488408798
 20
252.6928103789156
 30
0.0
 10
254.2440407804199
 20
252.7240836199993
 30
0.0
 10
254.2414271902833
 20
252.7519038079247
 30
0.0
 10
254.237291188518
 20
252.7761797869997
 30
0.0
 10
254.232979613894
 20
252.7970122553474
 30
0.0
 10
254.2264005732781
 20
252.8200824242602
 30
0.0
 10
254.2150002911456
 20
252.8451026653793
 30
0.0
 10
254.1976804705782
 20
252.8720024135136
 30
0.0
 10
254.1760508558146
 20
252.8956662412672
 30
0.0
 10
254.1506338341607
 20
252.9160427053712
 30
0.0
 10
254.1217012598096
 20
252.9325540721497
 30
0.0
 10
254.0898092793408
 20
252.9442084958073
 30
0.0
 10
254.0553948491141
 20
252.9512546431026
 30
0.0
 10
254.0316245848178
 20
252.9521298978663
 30
0.0
 10
254.0194000466608
 20
252.9525800226576
 30
0.0
  0
LINE
  5
15C
330
1F
100
AcDbEntity
  8
0
  6
Continuous
 62
     7
370
    15
100
AcDbLine
 10
254.2494264222
 20
252.0875960483
 30
0.0
 11
254.2494264222
 21
252.5791846734
 31
0.0
  0
LINE
  5
15D
330
1F
100
AcDbEntity
  8
0
  6
Continuous
 62
     7
370
    15
100
AcDbLine
 10
254.3681497128
 20
252.0875960483
 30
0.0
 11
254.2494264222
 21
252.0875960483
 31
0.0
  0
LINE
  5
15E
330
1F
100
AcDbEntity
  8
0
  6
Continuous
 62
     7
370
    15
100
AcDbLine
 10
254.3681497128
 20
252.463641471
 30
0.0
 11
254.3681497128
 21
252.0875960483
 31
0.0
  0
SPLINE
  5
15F
330
1F
100
AcDbEntity
  8
0
  6
Continuous
 62
     7
370
    15
100
AcDbSpline
210
0.0
220
0.0
230
1.0
 70
     8
 71
     3
 72
    23
 73
    19
 74
     0
 42
0.000000001
 43
0.00000001
 40
0.0
 40
0.0
 40
0.0
 40
0.0
 40
0.0681947041710848
 40
0.1350505877983537
 40
0.2019935769531575
 40
0.2707179199564286
 40
0.3399608383454667
 40
0.4080260561526866
 40
0.4767633523490685
 40
0.5473032407644517
 40
0.5856007828382487
 40
0.6288302423201692
 40
0.6771232981085628
 40
0.7311765018655212
 40
0.7897856972796768
 40
0.8543105113005025
 40
0.92435760694506
 40
0.9999999999999999
 40
0.9999999999999999
 40
0.9999999999999999
 40
0.9999999999999999
 10
254.6816534020294
 20
252.9525800226576
 30
0.0
 10
254.6666744036745
 20
252.9518839291495
 30
0.0
 10
254.6370104795172
 20
252.9505054080666
 30
0.0
 10
254.5935267992809
 20
252.9404846645118
 30
0.0
 10
254.5522960037043
 20
252.923409266434
 30
0.0
 10
254.5134711248271
 20
252.900392830625
 30
0.0
 10
254.4780409974441
 20
252.8719990177072
 30
0.0
 10
254.4474431424288
 20
252.8384169061031
 30
0.0
 10
254.4221874146703
 20
252.8003706802516
 30
0.0
 10
254.4050815623996
 20
252.7651660208208
 30
0.0
 10
254.3942747398949
 20
252.7335407045731
 30
0.0
 10
254.3871431813305
 20
252.7059112512621
 30
0.0
 10
254.3815623506934
 20
252.6744243647778
 30
0.0
 10
254.3764296700044
 20
252.6394492646704
 30
0.0
 10
254.3729657210954
 20
252.6006881328324
 30
0.0
 10
254.3699057023121
 20
252.5583803088826
 30
0.0
 10
254.3684552272049
 20
252.512236171809
 30
0.0
 10
254.3682541254112
 20
252.4802491979402
 30
0.0
 10
254.3681497127933
 20
252.4636414709749
 30
0.0
  0
SPLINE
  5
160
330
1F
100
AcDbEntity
  8
0
  6
Continuous
 62
     7
370
    15
100
AcDbSpline
210
0.0
220
0.0
230
1.0
 70
     8
 71
     3
 72
    23
 73
    19
 74
     0
 42
0.000000001
 43
0.00000001
 40
0.0
 40
0.0
 40
0.0
 40
0.0
 40
0.0783389356318467
 40
0.1505555202374073
 40
0.2161398837761299
 40
0.2756655425173865
 40
0.3292451513510048
 40
0.3764400961771461
 40
0.4178354192432708
 40
0.4532244401979182
 40
0.5177936461318908
 40
0.5812821809636821
 40
0.6453841932592849
 40
0.7120833447978571
 40
0.7806778212162301
 40
0.8502354798028261
 40
0.9232111249103231
 40
1.0
 40
1.0
 40
1.0
 40
1.0
 10
254.9108847555283
 20
252.6117805768777
 30
0.0
 10
254.9108554605218
 20
252.6241481929702
 30
0.0
 10
254.9107991599747
 20
252.6479168701917
 30
0.0
 10
254.9097791524307
 20
252.6820299085094
 30
0.0
 10
254.9078670093984
 20
252.7131261792507
 30
0.0
 10
254.9055968420914
 20
252.7412462732597
 30
0.0
 10
254.902528226004
 20
252.7663813595746
 30
0.0
 10
254.89847670405
 20
252.7884610700252
 30
0.0
 10
254.8942185778442
 20
252.8075860851266
 30
0.0
 10
254.8871277622352
 20
252.8287794571221
 30
0.0
 10
254.8758966971488
 20
252.8521378788663
 30
0.0
 10
254.8584803578853
 20
252.8771497673221
 30
0.0
 10
254.8368570047719
 20
252.8990748160345
 30
0.0
 10
254.8117243836505
 20
252.9182233293362
 30
0.0
 10
254.7830615891228
 20
252.933489597545
 30
0.0
 10
254.7515979558276
 20
252.9448015506692
 30
0.0
 10
254.7174466045191
 20
252.9514893489239
 30
0.0
 10
254.6937852871047
 20
252.952210345527
 30
0.0
 10
254.6816534020294
 20
252.9525800226576
 30
0.0
  0
LINE
  5
161
330
1F
100
AcDbEntity
  8
0
  6
Continuous
 62
     7
370
    15
100
AcDbLine
 10
254.9108847555
 20
252.0875960483
 30
0.0
 11
254.9108847555
 21
252.6117805769
 31
0.0
  0
LINE
  5
162
330
1F
100
AcDbEntity
  8
0
  6
Continuous
 62
     7
370
    15
100
AcDbLine
 10
255.0296080461
 20
252.0875960483
 30
0.0
 11
254.9108847555
 21
252.0875960483
 31
0.0
  0
LINE
  5
163
330
1F
100
AcDbEntity
  8
0
  6
Continuous
 62
     7
370
    15
100
AcDbLine
 10
255.0296080461
 20
252.6112505622
 30
0.0
 11
255.0296080461
 21
252.0875960483
 31
0.0
  0
SPLINE
  5
164
330
1F
100
AcDbEntity
  8
0
  6
Continuous
 62
     7
370
    15
100
AcDbSpline
210
0.0
220
0.0
230
1.0
 70
     8
 71
     3
 72
    23
 73
    19
 74
     0
 42
0.000000001
 43
0.00000001
 40
0.0
 40
0.0
 40
0.0
 40
0.0
 40
0.0755870098959682
 40
0.1479311173872509
 40
0.2186039988489571
 40
0.289261254689332
 40
0.3594989326435178
 40
0.4294664204106228
 40
0.500577814134459
 40
0.5741235861930835
 40
0.6136328091008572
 40
0.6568308839529092
 40
0.7040405881798179
 40
0.7549951271533211
 40
0.8097502066180167
 40
0.8688630034575794
 40
0.9324009641054158
 40
1.0
 40
1.0
 40
1.0
 40
1.0
 10
254.702323974946
 20
253.071303313256
 30
0.0
 10
254.7185349633915
 20
253.0706996998708
 30
0.0
 10
254.7502614417638
 20
253.0695183698689
 30
0.0
 10
254.7963716975436
 20
253.0600226027978
 30
0.0
 10
254.8395583164036
 20
253.0443062396794
 30
0.0
 10
254.8793635640383
 20
253.0222041386141
 30
0.0
 10
254.9153249000961
 20
252.9945617833714
 30
0.0
 10
254.9467026048227
 20
252.9616337960543
 30
0.0
 10
254.9728067741466
 20
252.9235404396007
 30
0.0
 10
254.9902581250617
 20
252.887990798698
 30
0.0
 10
255.0018757436751
 20
252.8565468007963
 30
0.0
 10
255.0091314173893
 20
252.829633317004
 30
0.0
 10
255.0154174719673
 20
252.7999877270606
 30
0.0
 10
255.0207470982815
 20
252.7676338751021
 30
0.0
 10
255.0246001738883
 20
252.732506254465
 30
0.0
 10
255.0274645051731
 20
252.6945887253603
 30
0.0
 10
255.0294004684875
 20
252.6538483386531
 30
0.0
 10
255.0295374396638
 20
252.6257399760347
 30
0.0
 10
255.0296080461266
 20
252.6112505621876
 30
0.0
  0
SPLINE
  5
165
330
1F
100
AcDbEntity
  8
0
  6
Continuous
 62
     7
370
    15
100
AcDbSpline
210
0.0
220
0.0
230
1.0
 70
     8
 71
     3
 72
    19
 73
    15
 74
     0
 42
0.000000001
 43
0.00000001
 40
0.0
 40
0.0
 40
0.0
 40
0.0
 40
0.0717504136809219
 40
0.1411947378246906
 40
0.2090702492870062
 40
0.2747797174550247
 40
0.3394088971953572
 40
0.402792421073949
 40
0.4652444212383358
 40
0.5271216758075803
 40
0.6476775551078939
 40
0.7650331089201865
 40
0.8816409039826004
 40
1.0
 40
1.0
 40
1.0
 40
1.0
 10
254.3477441472217
 20
252.8378318422356
 30
0.0
 10
254.3529267685767
 20
252.8471769822192
 30
0.0
 10
254.3631254395797
 20
252.8655669053181
 30
0.0
 10
254.3802485371426
 20
252.8915951438834
 30
0.0
 10
254.3981951817089
 20
252.9159340633904
 30
0.0
 10
254.4170892877648
 20
252.9386341187441
 30
0.0
 10
254.4370102518701
 20
252.9595144792076
 30
0.0
 10
254.457636934375
 20
252.9790016117791
 30
0.0
 10
254.4794318800501
 20
252.9965540337417
 30
0.0
 10
254.5095760643607
 20
253.017098546287
 30
0.0
 10
254.5486988018206
 20
253.0389057220515
 30
0.0
 10
254.5982329356584
 20
253.0575784325138
 30
0.0
 10
254.6496668191134
 20
253.0692230028171
 30
0.0
 10
254.684684589249
 20
253.0706064393435
 30
0.0
 10
254.702323974946
 20
253.071303313256
 30
0.0
  0
SPLINE
  5
166
330
1F
100
AcDbEntity
  8
0
  6
Continuous
 62
     7
370
    15
100
AcDbSpline
210
0.0
220
0.0
230
1.0
 70
     8
 71
     3
 72
    19
 73
    15
 74
     0
 42
0.000000001
 43
0.00000001
 40
0.0
 40
0.0
 40
0.0
 40
0.0
 40
0.084142113142254
 40
0.1665127174467224
 40
0.2488070401254408
 40
0.3318024620130232
 40
0.4129339673470714
 40
0.4904620089401747
 40
0.5661146169847002
 40
0.6394832547472894
 40
0.7162523706230041
 40
0.8021671947458947
 40
0.8958454623920004
 40
0.9999999999999999
 40
0.9999999999999999
 40
0.9999999999999999
 40
0.9999999999999999
 10
254.0400706195774
 20
253.071303313256
 30
0.0
 10
254.0517470052779
 20
253.0709071635633
 30
0.0
 10
254.0748539447204
 20
253.0701232046233
 30
0.0
 10
254.1090988724574
 20
253.0650510279809
 30
0.0
 10
254.1423634783354
 20
253.056177420516
 30
0.0
 10
254.174434037844
 20
253.0441326047657
 30
0.0
 10
254.2044604977415
 20
253.0290735314212
 30
0.0
 10
254.2320606314764
 20
253.0117788486129
 30
0.0
 10
254.2567509623619
 20
252.9922062656372
 30
0.0
 10
254.2788996249578
 20
252.9699194020227
 30
0.0
 10
254.2986389795859
 20
252.9436598442711
 30
0.0
 10
254.316669721015
 20
252.9129297968516
 30
0.0
 10
254.333551382137
 20
252.8772846390224
 30
0.0
 10
254.3428491046985
 20
252.851438994667
 30
0.0
 10
254.3477441472217
 20
252.8378318422356
 30
0.0
  0
SPLINE
  5
167
330
1F
100
AcDbEntity
  8
0
  6
Continuous
 62
     7
370
    15
100
AcDbSpline
210
0.0
220
0.0
230
1.0
 70
     8
 71
     3
 72
    11
 73
     7
 74
     0
 42
0.000000001
 43
0.00000001
 40
0.0
 40
0.0
 40
0.0
 40
0.0
 40
0.253734075690661
 40
0.5030351201318565
 40
0.7500135973308791
 40
1.0
 40
1.0
 40
1.0
 40
1.0
 10
253.8407850960732
 20
253.0222769544152
 30
0.0
 10
253.8566089416016
 20
253.0298385061596
 30
0.0
 10
253.8879801715581
 20
253.0448295004903
 30
0.0
 10
253.9376535095493
 20
253.0600368278366
 30
0.0
 10
253.9884817328563
 20
253.0693823274384
 30
0.0
 10
254.0228050756114
 20
253.0706604060874
 30
0.0
 10
254.0400706195774
 20
253.071303313256
 30
0.0
  0
SPLINE
  5
168
330
1F
100
AcDbEntity
  8
0
  6
Continuous
 62
     7
370
    15
100
AcDbSpline
210
0.0
220
0.0
230
1.0
 70
     8
 71
     3
 72
    11
 73
     7
 74
     0
 42
0.000000001
 43
0.00000001
 40
0.0
 40
0.0
 40
0.0
 40
0.0
 40
0.2835665747343415
 40
0.5424201335549603
 40
0.7806674670942617
 40
1.0
 40
1.0
 40
1.0
 40
1.0
 10
253.70669137946
 20
252.8863281863863
 30
0.0
 10
253.7174052281594
 20
252.9010050270573
 30
0.0
 10
253.7378992065061
 20
252.9290796119566
 30
0.0
 10
253.7711830301977
 20
252.9664873027953
 30
0.0
 10
253.8050056853113
 20
252.997711522537
 30
0.0
 10
253.8291918843137
 20
253.0143172857772
 30
0.0
 10
253.8407850960732
 20
253.0222769544152
 30
0.0
  0
LINE
  5
169
330
1F
100
AcDbEntity
  8
0
  6
Continuous
 62
     7
370
    15
100
AcDbLine
 10
253.7066913795
 20
253.0543428432
 30
0.0
 11
253.7066913795
 21
252.8863281864
 31
0.0
  0
LINE
  5
16A
330
1F
100
AcDbEntity
  8
0
  6
Continuous
 62
     7
370
    15
100
AcDbLine
 10
253.5879680889
 20
253.0543428432
 30
0.0
 11
253.7066913795
 21
253.0543428432
 31
0.0
  0
LINE
  5
16B
330
1F
100
AcDbEntity
  8
0
  6
Continuous
 62
     7
370
    15
100
AcDbLine
 10
253.5879680889
 20
252.0875960483
 30
0.0
 11
253.5879680889
 21
253.0543428432
 31
0.0
  0
LINE
  5
16C
330
1F
100
AcDbEntity
  8
0
  6
Continuous
 62
     7
370
    15
100
AcDbLine
 10
253.7066913795
 20
252.0875960483
 30
0.0
 11
253.5879680889
 21
252.0875960483
 31
0.0
  0
LINE
  5
16D
330
1F
100
AcDbEntity
  8
0
  6
Continuous
 62
     7
370
    15
100
AcDbLine
 10
256.6747736444
 20
252.4371407365
 30
0.0
 11
256.6747736444
 21
252.0875960483
 31
0.0
  0
SPLINE
  5
16E
330
1F
100
AcDbEntity
  8
0
  6
Continuous
 62
     7
370
    15
100
AcDbSpline
210
0.0
220
0.0
230
1.0
 70
     8
 71
     3
 72
    15
 73
    11
 74
     0
 42
0.000000001
 43
0.00000001
 40
0.0
 40
0.0
 40
0.0
 40
0.0
 40
0.0769954547170576
 40
0.1676150771831734
 40
0.2710523936342343
 40
0.3894595025720741
 40
0.5208428024655765
 40
0.6663987586080736
 40
0.8260936125153155
 40
1.0
 40
1.0
 40
1.0
 40
1.0
 10
256.6930591512281
 20
252.6965829273051
 30
0.0
 10
256.6915700578676
 20
252.6900608713889
 30
0.0
 10
256.6883283795184
 20
252.6758626968368
 30
0.0
 10
256.6848271180837
 20
252.6525625740337
 30
0.0
 10
256.6816492547622
 20
252.6256091013432
 30
0.0
 10
256.678989451951
 20
252.5950337315037
 30
0.0
 10
256.6773621070351
 20
252.560729415611
 30
0.0
 10
256.6755877368259
 20
252.5228426554887
 30
0.0
 10
256.6749417524348
 20
252.4812223786398
 30
0.0
 10
256.674831249577
 20
252.4522460840682
 30
0.0
 10
256.6747736444172
 20
252.4371407364664
 30
0.0
  0
SPLINE
  5
16F
330
1F
100
AcDbEntity
  8
0
  6
Continuous
 62
     7
370
    15
100
AcDbSpline
210
0.0
220
0.0
230
1.0
 70
     8
 71
     3
 72
    23
 73
    19
 74
     0
 42
0.000000001
 43
0.00000001
 40
0.0
 40
0.0
 40
0.0
 40
0.0
 40
0.0639962164179997
 40
0.1266468587927827
 40
0.189014222049714
 40
0.2504440601696587
 40
0.3123515162166027
 40
0.3740547315659611
 40
0.437638685481209
 40
0.5024217980824766
 40
0.5674857558399463
 40
0.6307130141073952
 40
0.6928861079685936
 40
0.7543587414201949
 40
0.815189165769028
 40
0.8760973581582072
 40
0.9380048142051517
 40
1.0
 40
1.0
 40
1.0
 40
1.0
 10
257.0219332664792
 20
252.9525800226576
 30
0.0
 10
257.0123818011161
 20
252.9524027600513
 30
0.0
 10
256.9934796979479
 20
252.9520519619332
 30
0.0
 10
256.9654656430968
 20
252.9484408709376
 30
0.0
 10
256.9382063436499
 20
252.9427376075118
 30
0.0
 10
256.9117748286761
 20
252.9343134968283
 30
0.0
 10
256.8861176823679
 20
252.9240709550866
 30
0.0
 10
256.8611287292223
 20
252.9115028749071
 30
0.0
 10
256.8371571373402
 20
252.8963007160729
 30
0.0
 10
256.8138658318363
 20
252.8792134700716
 30
0.0
 10
256.7922175485508
 20
252.8601846762379
 30
0.0
 10
256.7717871004871
 20
252.840396054239
 30
0.0
 10
256.7538364240923
 20
252.8190190057076
 30
0.0
 10
256.7375422265371
 20
252.7968093514479
 30
0.0
 10
256.7234937614355
 20
252.7733209463298
 30
0.0
 10
256.7112261862885
 20
252.7488048678218
 30
0.0
 10
256.7008186383238
 20
252.7232223368142
 30
0.0
 10
256.6956468675575
 20
252.7054669210718
 30
0.0
 10
256.6930591512281
 20
252.6965829273051
 30
0.0
  0
SPLINE
  5
170
330
1F
100
AcDbEntity
  8
0
  6
Continuous
 62
     7
370
    15
100
AcDbSpline
210
0.0
220
0.0
230
1.0
 70
     8
 71
     3
 72
    15
 73
    11
 74
     0
 42
0.000000001
 43
0.00000001
 40
0.0
 40
0.0
 40
0.0
 40
0.0
 40
0.1355289999642208
 40
0.2601576487938146
 40
0.3784325902006466
 40
0.4931422241600834
 40
0.6092536571898822
 40
0.729962165964834
 40
0.8592514725640187
 40
1.0
 40
1.0
 40
1.0
 40
1.0
 10
257.2713051782046
 20
252.7623047488863
 30
0.0
 10
257.2673089159723
 20
252.7773254146567
 30
0.0
 10
257.2596378036157
 20
252.8061586613507
 30
0.0
 10
257.2402967557073
 20
252.8452018442621
 30
0.0
 10
257.2164397798662
 20
252.8787118178897
 30
0.0
 10
257.186881533779
 20
252.9059994058503
 30
0.0
 10
257.1524158792689
 20
252.9272420909244
 30
0.0
 10
257.1129855198314
 20
252.9419700794225
 30
0.0
 10
257.0689985399979
 20
252.9511846679104
 30
0.0
 10
257.0380593323919
 20
252.9521019295554
 30
0.0
 10
257.0219332664792
 20
252.9525800226576
 30
0.0
  0
SPLINE
  5
171
330
1F
100
AcDbEntity
  8
0
  6
Continuous
 62
     7
370
    15
100
AcDbSpline
210
0.0
220
0.0
230
1.0
 70
     8
 71
     3
 72
    15
 73
    11
 74
     0
 42
0.000000001
 43
0.00000001
 40
0.0
 40
0.0
 40
0.0
 40
0.0
 40
0.1788504226669945
 40
0.3421104203020816
 40
0.4898267677856983
 40
0.6220572877084545
 40
0.7400790900395204
 40
0.8414823156585792
 40
0.9289075118911221
 40
0.9999999999999999
 40
0.9999999999999999
 40
0.9999999999999999
 40
0.9999999999999999
 10
257.2853505674941
 20
252.5423486524653
 30
0.0
 10
257.2852778416711
 20
252.555510726446
 30
0.0
 10
257.2851387295489
 20
252.5806875339394
 30
0.0
 10
257.2846942209384
 20
252.6167345086936
 30
0.0
 10
257.2836478684284
 20
252.6493370148088
 30
0.0
 10
257.2821170997408
 20
252.6785887488957
 30
0.0
 10
257.2799744100174
 20
252.7043826479304
 30
0.0
 10
257.277680621786
 20
252.7268492749596
 30
0.0
 10
257.2748985942579
 20
252.7457896262104
 30
0.0
 10
257.272417780862
 20
252.7571912944173
 30
0.0
 10
257.2713051782046
 20
252.7623047488863
 30
0.0
  0
LINE
  5
172
330
1F
100
AcDbEntity
  8
0
  6
Continuous
 62
     7
370
    15
100
AcDbLine
 10
257.2853505675
 20
252.0875960483
 30
0.0
 11
257.2853505675
 21
252.5423486525
 31
0.0
  0
LINE
  5
173
330
1F
100
AcDbEntity
  8
0
  6
Continuous
 62
     7
370
    15
100
AcDbLine
 10
257.4040738581
 20
252.0875960483
 30
0.0
 11
257.2853505675
 21
252.0875960483
 31
0.0
  0
LINE
  5
174
330
1F
100
AcDbEntity
  8
0
  6
Continuous
 62
     7
370
    15
100
AcDbLine
 10
257.4040738581
 20
252.5813047322
 30
0.0
 11
257.4040738581
 21
252.0875960483
 31
0.0
  0
SPLINE
  5
175
330
1F
100
AcDbEntity
  8
0
  6
Continuous
 62
     7
370
    15
100
AcDbSpline
210
0.0
220
0.0
230
1.0
 70
     8
 71
     3
 72
    23
 73
    19
 74
     0
 42
0.000000001
 43
0.00000001
 40
0.0
 40
0.0
 40
0.0
 40
0.0
 40
0.0772352601298098
 40
0.1512438108024458
 40
0.2234188286360065
 40
0.2958043357739655
 40
0.3672331708909989
 40
0.4371134667550871
 40
0.5067140232024527
 40
0.5782253602633893
 40
0.61663270842515
 40
0.6584064973910104
 40
0.7045109807395469
 40
0.7548195062037482
 40
0.8093443714114104
 40
0.8682832612646748
 40
0.9320774243056863
 40
1.0
 40
1.0
 40
1.0
 40
1.0
 10
257.0426038393958
 20
253.071303313256
 30
0.0
 10
257.060502231608
 20
253.0706809354928
 30
0.0
 10
257.0955512628518
 20
253.0694621814614
 30
0.0
 10
257.1463987844029
 20
253.0587233651533
 30
0.0
 10
257.1942212832413
 20
253.041729119297
 30
0.0
 10
257.2383792939257
 20
253.0178445439912
 30
0.0
 10
257.2781933552984
 20
252.9881903043594
 30
0.0
 10
257.3127189325979
 20
252.9534056605051
 30
0.0
 10
257.3417531883155
 20
252.9139096764589
 30
0.0
 10
257.3611322066151
 20
252.8769405087704
 30
0.0
 10
257.3736663497291
 20
252.8441024196831
 30
0.0
 10
257.3819032961458
 20
252.8160151367608
 30
0.0
 10
257.3885671613056
 20
252.7847098018828
 30
0.0
 10
257.3945382436955
 20
252.750263815829
 30
0.0
 10
257.3985216112167
 20
252.7125388269813
 30
0.0
 10
257.4016791701782
 20
252.6716248746275
 30
0.0
 10
257.4039376848589
 20
252.6275290431221
 30
0.0
 10
257.4040275283563
 20
252.5970314655118
 30
0.0
 10
257.4040738580924
 20
252.5813047321929
 30
0.0
  0
SPLINE
  5
176
330
1F
100
AcDbEntity
  8
0
  6
Continuous
 62
     7
370
    15
100
AcDbSpline
210
0.0
220
0.0
230
1.0
 70
     8
 71
     3
 72
    15
 73
    11
 74
     0
 42
0.000000001
 43
0.00000001
 40
0.0
 40
0.0
 40
0.0
 40
0.0
 40
0.1409837301838198
 40
0.2731541395726898
 40
0.3989552145193286
 40
0.5199033426703323
 40
0.6380900912974565
 40
0.7565754954549516
 40
0.8768529727553278
 40
1.0
 40
1.0
 40
1.0
 40
1.0
 10
256.6747736444172
 20
252.8799680101042
 30
0.0
 10
256.6874281895888
 20
252.895807211207
 30
0.0
 10
256.7119462059125
 20
252.926495456887
 30
0.0
 10
256.7531972559671
 20
252.9665126249665
 30
0.0
 10
256.7962098280368
 20
253.0000934302452
 30
0.0
 10
256.8416825141831
 20
253.0265334861858
 30
0.0
 10
256.8891473908454
 20
253.0465301662306
 30
0.0
 10
256.9384697770657
 20
253.0609501290871
 30
0.0
 10
256.9899166311474
 20
253.069601620496
 30
0.0
 10
257.0249039568164
 20
253.070731642009
 30
0.0
 10
257.0426038393958
 20
253.071303313256
 30
0.0
  0
LINE
  5
177
330
1F
100
AcDbEntity
  8
0
  6
Continuous
 62
     7
370
    15
100
AcDbLine
 10
256.6747736444
 20
253.0543428432
 30
0.0
 11
256.6747736444
 21
252.8799680101
 31
0.0
  0
LINE
  5
178
330
1F
100
AcDbEntity
  8
0
  6
Continuous
 62
     7
370
    15
100
AcDbLine
 10
256.5560503538
 20
253.0543428432
 30
0.0
 11
256.6747736444
 21
253.0543428432
 31
0.0
  0
LINE
  5
179
330
1F
100
AcDbEntity
  8
0
  6
Continuous
 62
     7
370
    15
100
AcDbLine
 10
256.5560503538
 20
252.0875960483
 30
0.0
 11
256.5560503538
 21
253.0543428432
 31
0.0
  0
LINE
  5
17A
330
1F
100
AcDbEntity
  8
0
  6
Continuous
 62
     7
370
    15
100
AcDbLine
 10
256.6747736444
 20
252.0875960483
 30
0.0
 11
256.5560503538
 21
252.0875960483
 31
0.0
  0
SPLINE
  5
17B
330
1F
100
AcDbEntity
  8
0
  6
Continuous
 62
     7
370
    15
100
AcDbSpline
210
0.0
220
0.0
230
1.0
 70
     8
 71
     3
 72
    19
 73
    15
 74
     0
 42
0.000000001
 43
0.00000001
 40
0.0
 40
0.0
 40
0.0
 40
0.0
 40
0.0816029563018791
 40
0.162886056571032
 40
0.2452599711799517
 40
0.3305976512007711
 40
0.4160530886965675
 40
0.4997957006631237
 40
0.5829645219766713
 40
0.6670882457538505
 40
0.7512563580964846
 40
0.833327426405868
 40
0.9162425219057492
 40
0.9999999999999999
 40
0.9999999999999999
 40
0.9999999999999999
 40
0.9999999999999999
 10
255.3857779179215
 20
252.57229448246
 30
0.0
 10
255.3864921817954
 20
252.5558217334878
 30
0.0
 10
255.3879179098699
 20
252.5229408031569
 30
0.0
 10
255.3978775294541
 20
252.474192687098
 30
0.0
 10
255.4153595485425
 20
252.4269366992507
 30
0.0
 10
255.4383737546894
 20
252.3811808973788
 30
0.0
 10
255.4671616225852
 20
252.3384730127445
 30
0.0
 10
255.5006150263968
 20
252.2998559803848
 30
0.0
 10
255.5392396400601
 20
252.2667829021689
 30
0.0
 10
255.5819100046082
 20
252.2390806889732
 30
0.0
 10
255.6274358747073
 20
252.2167964842858
 30
0.0
 10
255.6753287482226
 20
252.2010793640986
 30
0.0
 10
255.724753867357
 20
252.1911557121498
 30
0.0
 10
255.7584203810902
 20
252.1899598312979
 30
0.0
 10
255.7753387151971
 20
252.1893588688115
 30
0.0
  0
SPLINE
  5
17C
330
1F
100
AcDbEntity
  8
0
  6
Continuous
 62
     7
370
    15
100
AcDbSpline
210
0.0
220
0.0
230
1.0
 70
     8
 71
     3
 72
    19
 73
    15
 74
     0
 42
0.000000001
 43
0.00000001
 40
0.0
 40
0.0
 40
0.0
 40
0.0
 40
0.0859316353012353
 40
0.1696153800701767
 40
0.2525081845375791
 40
0.3362879861099465
 40
0.4197964863656831
 40
0.5020538565398822
 40
0.5851301200390738
 40
0.6696053338340979
 40
0.7541530585556012
 40
0.8366371023340324
 40
0.9179991163824831
 40
1.0
 40
1.0
 40
1.0
 40
1.0
 10
255.7763987445775
 20
252.9525800226576
 30
0.0
 10
255.7590445810951
 20
252.9519620247024
 30
0.0
 10
255.7247902226794
 20
252.9507421950355
 30
0.0
 10
255.6744975074834
 20
252.9412347592284
 30
0.0
 10
255.6263957967234
 20
252.9253750240818
 30
0.0
 10
255.5805633126075
 20
252.9038099962301
 30
0.0
 10
255.538265406963
 20
252.876185860931
 30
0.0
 10
255.4998357928288
 20
252.8436148634253
 30
0.0
 10
255.466316231107
 20
252.8056979467567
 30
0.0
 10
255.4379744985874
 20
252.7633062581105
 30
0.0
 10
255.4144456080049
 20
252.7181327640573
 30
0.0
 10
255.3982088460686
 20
252.6705664434004
 30
0.0
 10
255.3874243152373
 20
252.6218929176338
 30
0.0
 10
255.3863281459705
 20
252.5888703417373
 30
0.0
 10
255.3857779179215
 20
252.57229448246
 30
0.0
  0
SPLINE
  5
17D
330
1F
100
AcDbEntity
  8
0
  6
Continuous
 62
     7
370
    15
100
AcDbSpline
210
0.0
220
0.0
230
1.0
 70
     8
 71
     3
 72
    23
 73
    19
 74
     0
 42
0.000000001
 43
0.00000001
 40
0.0
 40
0.0
 40
0.0
 40
0.0
 40
0.065628918835452
 40
0.1291784810189631
 40
0.1912044631851481
 40
0.2518940844507594
 40
0.3124842348504703
 40
0.3734666589599346
 40
0.4351192397198743
 40
0.4984087324490519
 40
0.5617577637546406
 40
0.624194172470508
 40
0.6851039146656182
 40
0.7461156962495922
 40
0.8076259433578037
 40
0.869976250558194
 40
0.9339559306300013
 40
1.0
 40
1.0
 40
1.0
 40
1.0
 10
256.1659595418531
 20
252.5688493869739
 30
0.0
 10
256.1655968088612
 20
252.5822062403747
 30
0.0
 10
256.1648828355435
 20
252.6084967547414
 30
0.0
 10
256.1594285057633
 20
252.6470985984303
 30
0.0
 10
256.15075179025
 20
252.6840393502461
 30
0.0
 10
256.1385267994765
 20
252.7193594431433
 30
0.0
 10
256.1224620477702
 20
252.7528577200426
 30
0.0
 10
256.1031069056686
 20
252.7847967609121
 30
0.0
 10
256.0800643703944
 20
252.8148790578145
 30
0.0
 10
256.0540356850643
 20
252.8430665143362
 30
0.0
 10
256.025223682511
 20
252.8686476949196
 30
0.0
 10
255.9945858519118
 20
252.8911947328423
 30
0.0
 10
255.9621992777297
 20
252.9102757311235
 30
0.0
 10
255.9280866935269
 20
252.9255455206261
 30
0.0
 10
255.892510836892
 20
252.937985435304
 30
0.0
 10
255.8551307198517
 20
252.9462017839095
 30
0.0
 10
255.8163230656556
 20
252.9518615800306
 30
0.0
 10
255.7898469720674
 20
252.9523380202985
 30
0.0
 10
255.7763987445775
 20
252.9525800226576
 30
0.0
  0
SPLINE
  5
17E
330
1F
100
AcDbEntity
  8
0
  6
Continuous
 62
     7
370
    15
100
AcDbSpline
210
0.0
220
0.0
230
1.0
 70
     8
 71
     3
 72
    19
 73
    15
 74
     0
 42
0.000000001
 43
0.00000001
 40
0.0
 40
0.0
 40
0.0
 40
0.0
 40
0.084810864414811
 40
0.1682513946314741
 40
0.2526978084348696
 40
0.3383941380662125
 40
0.4232655920964675
 40
0.5057272230231883
 40
0.5863265449704915
 40
0.6676548404990643
 40
0.7490264327974113
 40
0.8304354523810347
 40
0.9134470560506113
 40
1.0
 40
1.0
 40
1.0
 40
1.0
 10
255.7753387151971
 20
252.1893588688115
 30
0.0
 10
255.7925161377306
 20
252.189984107445
 30
0.0
 10
255.826593438055
 20
252.1912244823993
 30
0.0
 10
255.8770600511232
 20
252.2007974862211
 30
0.0
 10
255.9259446128306
 20
252.2168541499232
 30
0.0
 10
255.9728490136912
 20
252.238718583419
 30
0.0
 10
256.0164702018275
 20
252.2658251627333
 30
0.0
 10
256.0554386959791
 20
252.2977000756443
 30
0.0
 10
256.0891037268675
 20
252.3342028086136
 30
0.0
 10
256.1168213316603
 20
252.3751152482751
 30
0.0
 10
256.1389673234402
 20
252.4194727941093
 30
0.0
 10
256.1546483655154
 20
252.4668509599471
 30
0.0
 10
256.1641724782409
 20
252.5169682077021
 30
0.0
 10
256.1653556173975
 20
252.5513165399432
 30
0.0
 10
256.1659595418531
 20
252.5688493869739
 30
0.0
  0
CIRCLE
  5
17F
330
1F
100
AcDbEntity
  8
0
  6
Continuous
 62
     7
370
    15
100
AcDbCircle
 10
254.207025247
 20
252.0875960483
 30
0.0
 40
16.00000000000003
  0
SPLINE
  5
180
330
1F
100
AcDbEntity
  8
0
  6
Continuous
 62
     7
370
    15
100
AcDbSpline
210
0.0
220
0.0
230
1.0
 70
     8
 71
     3
 72
    19
 73
    15
 74
     0
 42
0.000000001
 43
0.00000001
 40
0.0
 40
0.0
 40
0.0
 40
0.0
 40
0.0962465801078482
 40
0.1847621654988776
 40
0.2672510442489446
 40
0.3441560607047086
 40
0.4197101844779613
 40
0.4966786859386288
 40
0.5767183147488708
 40
0.6603538574787089
 40
0.7452884489360064
 40
0.8300839513433026
 40
0.914441513041247
 40
1.0
 40
1.0
 40
1.0
 40
1.0
 10
251.6035930888617
 20
252.6642520312046
 30
0.0
 10
251.5992726200855
 20
252.680011235736
 30
0.0
 10
251.5909787236566
 20
252.7102637886319
 30
0.0
 10
251.5732038459931
 20
252.7520436312723
 30
0.0
 10
251.5541139346369
 20
252.7896022935996
 30
0.0
 10
251.5306709968212
 20
252.8219900396841
 30
0.0
 10
251.5041407571944
 20
252.8506013852623
 30
0.0
 10
251.4734017544475
 20
252.8754538857342
 30
0.0
 10
251.4394695096345
 20
252.8982500521194
 30
0.0
 10
251.4017271368882
 20
252.9172535036223
 30
0.0
 10
251.3616333582129
 20
252.9328642754051
 30
0.0
 10
251.3200206013752
 20
252.9443444029999
 30
0.0
 10
251.2772351323116
 20
252.951092451252
 30
0.0
 10
251.2484181628567
 20
252.9520818346155
 30
0.0
 10
251.2339078424674
 20
252.9525800226576
 30
0.0
  0
SPLINE
  5
181
330
1F
100
AcDbEntity
  8
0
  6
Continuous
 62
     7
370
    15
100
AcDbSpline
210
0.0
220
0.0
230
1.0
 70
     8
 71
     3
 72
    15
 73
    11
 74
     0
 42
0.000000001
 43
0.00000001
 40
0.0
 40
0.0
 40
0.0
 40
0.0
 40
0.1310991074852428
 40
0.2591553732672524
 40
0.3841826613699365
 40
0.5072450190986107
 40
0.6290779128216002
 40
0.750655560157234
 40
0.8740320855016698
 40
1.0
 40
1.0
 40
1.0
 40
1.0
 10
251.2339078424674
 20
252.9525800226576
 30
0.0
 10
251.2220579310737
 20
252.9523505326945
 30
0.0
 10
251.1986331475694
 20
252.9518968792854
 30
0.0
 10
251.1641317538904
 20
252.9475367756216
 30
0.0
 10
251.1308523090649
 20
252.9404376558206
 30
0.0
 10
251.0989543534435
 20
252.9302803786188
 30
0.0
 10
251.068365836005
 20
252.9175082177588
 30
0.0
 10
251.0389464126887
 20
252.9021370194681
 30
0.0
 10
251.0110501896207
 20
252.8834342638717
 30
0.0
 10
250.9936111022998
 20
252.8691592143376
 30
0.0
 10
250.9848009380871
 20
252.8619475106384
 30
0.0
  0
SPLINE
  5
182
330
1F
100
AcDbEntity
  8
0
  6
Continuous
 62
     7
370
    15
100
AcDbSpline
210
0.0
220
0.0
230
1.0
 70
     8
 71
     3
 72
    15
 73
    11
 74
     0
 42
0.000000001
 43
0.00000001
 40
0.0
 40
0.0
 40
0.0
 40
0.0
 40
0.1099881983153738
 40
0.2225893071868168
 40
0.3385132689194083
 40
0.4596958728817719
 40
0.5855189417853002
 40
0.7175065621879438
 40
0.8546610674070442
 40
0.9999999999999999
 40
0.9999999999999999
 40
0.9999999999999999
 40
0.9999999999999999
 10
250.9848009380871
 20
252.8619475106384
 30
0.0
 10
250.9784902860929
 20
252.8562428183769
 30
0.0
 10
250.965719064482
 20
252.8446979115809
 30
0.0
 10
250.9486724563915
 20
252.824795965171
 30
0.0
 10
250.9322292107756
 20
252.8033229302296
 30
0.0
 10
250.917616991104
 20
252.7793414890006
 30
0.0
 10
250.903730245494
 20
252.7535470772837
 30
0.0
 10
250.8910758197285
 20
252.7257514795997
 30
0.0
 10
250.8795698298286
 20
252.695837370093
 30
0.0
 10
250.8731108205051
 20
252.6749818865339
 30
0.0
 10
250.86978775032
 20
252.6642520312046
 30
0.0
  0
LINE
  5
183
330
1F
100
AcDbEntity
  8
0
  6
Continuous
 62
     7
370
    15
100
AcDbLine
 10
250.8697877503
 20
252.6642520312
 30
0.0
 11
251.6035930889
 21
252.6642520312
 31
0.0
  0
SPLINE
  5
184
330
1F
100
AcDbEntity
  8
0
  6
Continuous
 62
     7
370
    15
100
AcDbSpline
210
0.0
220
0.0
230
1.0
 70
     8
 71
     3
 72
    19
 73
    15
 74
     0
 42
0.000000001
 43
0.00000001
 40
0.0
 40
0.0
 40
0.0
 40
0.0
 40
0.0859316353012353
 40
0.169615380070177
 40
0.2525081845375793
 40
0.3362879861099468
 40
0.4197964863656833
 40
0.5020538565398823
 40
0.5851301200390739
 40
0.6696053338340978
 40
0.7541530585556013
 40
0.8366371023340324
 40
0.9179991163824831
 40
1.0
 40
1.0
 40
1.0
 40
1.0
 10
252.8083164796202
 20
252.9525800226576
 30
0.0
 10
252.7909623161378
 20
252.9519620247024
 30
0.0
 10
252.7567079577221
 20
252.9507421950355
 30
0.0
 10
252.7064152425261
 20
252.9412347592284
 30
0.0
 10
252.6583135317662
 20
252.9253750240818
 30
0.0
 10
252.6124810476502
 20
252.9038099962301
 30
0.0
 10
252.5701831420057
 20
252.876185860931
 30
0.0
 10
252.5317535278716
 20
252.8436148634253
 30
0.0
 10
252.4982339661497
 20
252.8056979467567
 30
0.0
 10
252.4698922336301
 20
252.7633062581105
 30
0.0
 10
252.4463633430477
 20
252.7181327640573
 30
0.0
 10
252.4301265811114
 20
252.6705664434004
 30
0.0
 10
252.4193420502801
 20
252.6218929176338
 30
0.0
 10
252.4182458810132
 20
252.5888703417373
 30
0.0
 10
252.4176956529642
 20
252.57229448246
 30
0.0
  0
SPLINE
  5
185
330
1F
100
AcDbEntity
  8
0
  6
Continuous
 62
     7
370
    15
100
AcDbSpline
210
0.0
220
0.0
230
1.0
 70
     8
 71
     3
 72
    19
 73
    15
 74
     0
 42
0.000000001
 43
0.00000001
 40
0.0
 40
0.0
 40
0.0
 40
0.0
 40
0.0816029563018791
 40
0.1628860565710321
 40
0.2452599711799519
 40
0.3305976512007713
 40
0.4160530886965679
 40
0.499795700663124
 40
0.5829645219766715
 40
0.6670882457538506
 40
0.7512563580964848
 40
0.8333274264058683
 40
0.9162425219057491
 40
1.0
 40
1.0
 40
1.0
 40
1.0
 10
252.4176956529642
 20
252.57229448246
 30
0.0
 10
252.4184099168381
 20
252.5558217334878
 30
0.0
 10
252.4198356449127
 20
252.5229408031569
 30
0.0
 10
252.4297952644969
 20
252.474192687098
 30
0.0
 10
252.4472772835853
 20
252.4269366992507
 30
0.0
 10
252.4702914897321
 20
252.3811808973788
 30
0.0
 10
252.4990793576279
 20
252.3384730127445
 30
0.0
 10
252.5325327614395
 20
252.2998559803848
 30
0.0
 10
252.5711573751029
 20
252.2667829021689
 30
0.0
 10
252.6138277396509
 20
252.2390806889732
 30
0.0
 10
252.6593536097501
 20
252.2167964842858
 30
0.0
 10
252.7072464832654
 20
252.2010793640986
 30
0.0
 10
252.7566716023998
 20
252.1911557121498
 30
0.0
 10
252.790338116133
 20
252.1899598312979
 30
0.0
 10
252.8072564502398
 20
252.1893588688115
 30
0.0
  0
SPLINE
  5
186
330
1F
100
AcDbEntity
  8
0
  6
Continuous
 62
     7
370
    15
100
AcDbSpline
210
0.0
220
0.0
230
1.0
 70
     8
 71
     3
 72
    19
 73
    15
 74
     0
 42
0.000000001
 43
0.00000001
 40
0.0
 40
0.0
 40
0.0
 40
0.0
 40
0.0848108644148113
 40
0.1682513946314744
 40
0.2526978084348701
 40
0.338394138066213
 40
0.423265592096468
 40
0.5057272230231885
 40
0.5863265449704916
 40
0.6676548404990644
 40
0.7490264327974114
 40
0.8304354523810347
 40
0.9134470560506113
 40
1.0
 40
1.0
 40
1.0
 40
1.0
 10
252.8072564502398
 20
252.1893588688115
 30
0.0
 10
252.8244338727734
 20
252.189984107445
 30
0.0
 10
252.8585111730978
 20
252.1912244823993
 30
0.0
 10
252.9089777861659
 20
252.2007974862211
 30
0.0
 10
252.9578623478734
 20
252.2168541499232
 30
0.0
 10
253.0047667487339
 20
252.238718583419
 30
0.0
 10
253.0483879368702
 20
252.2658251627333
 30
0.0
 10
253.0873564310218
 20
252.2977000756443
 30
0.0
 10
253.1210214619102
 20
252.3342028086136
 30
0.0
 10
253.148739066703
 20
252.3751152482751
 30
0.0
 10
253.170885058483
 20
252.4194727941093
 30
0.0
 10
253.1865661005582
 20
252.4668509599471
 30
0.0
 10
253.1960902132836
 20
252.5169682077021
 30
0.0
 10
253.1972733524402
 20
252.5513165399432
 30
0.0
 10
253.1978772768959
 20
252.5688493869739
 30
0.0
  0
SPLINE
  5
187
330
1F
100
AcDbEntity
  8
0
  6
Continuous
 62
     7
370
    15
100
AcDbSpline
210
0.0
220
0.0
230
1.0
 70
     8
 71
     3
 72
    23
 73
    19
 74
     0
 42
0.000000001
 43
0.00000001
 40
0.0
 40
0.0
 40
0.0
 40
0.0
 40
0.065628918835452
 40
0.1291784810189631
 40
0.1912044631851482
 40
0.2518940844507593
 40
0.3124842348504704
 40
0.373466658959935
 40
0.4351192397198742
 40
0.498408732449052
 40
0.561757763754641
 40
0.6241941724705085
 40
0.6851039146656186
 40
0.7461156962495921
 40
0.8076259433578036
 40
0.8699762505581944
 40
0.9339559306300013
 40
1.0
 40
1.0
 40
1.0
 40
1.0
 10
253.1978772768959
 20
252.5688493869739
 30
0.0
 10
253.1975145439039
 20
252.5822062403747
 30
0.0
 10
253.1968005705862
 20
252.6084967547414
 30
0.0
 10
253.1913462408061
 20
252.6470985984303
 30
0.0
 10
253.1826695252927
 20
252.6840393502461
 30
0.0
 10
253.1704445345192
 20
252.7193594431433
 30
0.0
 10
253.1543797828129
 20
252.7528577200426
 30
0.0
 10
253.1350246407114
 20
252.7847967609121
 30
0.0
 10
253.1119821054371
 20
252.8148790578145
 30
0.0
 10
253.085953420107
 20
252.8430665143362
 30
0.0
 10
253.0571414175537
 20
252.8686476949196
 30
0.0
 10
253.0265035869545
 20
252.8911947328423
 30
0.0
 10
252.9941170127725
 20
252.9102757311235
 30
0.0
 10
252.9600044285696
 20
252.9255455206261
 30
0.0
 10
252.9244285719346
 20
252.937985435304
 30
0.0
 10
252.8870484548944
 20
252.9462017839095
 30
0.0
 10
252.8482408006983
 20
252.9518615800306
 30
0.0
 10
252.8217647071101
 20
252.9523380202985
 30
0.0
 10
252.8083164796202
 20
252.9525800226576
 30
0.0
  0
LINE
  5
188
330
1F
100
AcDbEntity
  8
0
  6
Continuous
 62
     7
370
    15
100
AcDbLine
 10
226.5492077502
 20
249.5875960483
 30
0.0
 11
226.5492077502
 21
254.5875960483
 31
0.0
  0
LINE
  5
189
330
1F
100
AcDbEntity
  8
0
  6
Continuous
 62
     7
370
    15
100
AcDbLine
 10
226.5492077502
 20
254.5875960483
 30
0.0
 11
238.4035446177
 21
254.5875960483
 31
0.0
  0
LINE
  5
18A
330
1F
100
AcDbEntity
  8
0
  6
Continuous
 62
     7
370
    15
100
AcDbLine
 10
226.5492077502
 20
249.5875960483
 30
0.0
 11
238.4035446177
 21
249.5875960483
 31
0.0
  0
LINE
  5
18B
330
1F
100
AcDbEntity
  8
0
  6
Continuous
 62
     7
370
    15
100
AcDbLine
 10
281.8648427438
 20
249.5875960483
 30
0.0
 11
281.8648427438
 21
254.5875960483
 31
0.0
  0
LINE
  5
18C
330
1F
100
AcDbEntity
  8
0
  6
Continuous
 62
     7
370
    15
100
AcDbLine
 10
281.8648427438
 20
254.5875960483
 30
0.0
 11
270.0105058763
 21
254.5875960483
 31
0.0
  0
LINE
  5
18D
330
1F
100
AcDbEntity
  8
0
  6
Continuous
 62
     7
370
    15
100
AcDbLine
 10
281.8648427438
 20
249.5875960483
 30
0.0
 11
270.0105058763
 21
249.5875960483
 31
0.0
  0
LINE
  5
18E
330
1F
100
AcDbEntity
  8
0
  6
Continuous
 62
     7
370
    15
100
AcDbLine
 10
226.5492077502
 20
254.5875960483
 30
0.0
 11
224.707025247
 21
254.5875960483
 31
0.0
  0
LINE
  5
18F
330
1F
100
AcDbEntity
  8
0
  6
Continuous
 62
     7
370
    15
100
AcDbLine
 10
226.5492077502
 20
249.5875960483
 30
0.0
 11
224.707025247
 21
249.5875960483
 31
0.0
  0
LINE
  5
190
330
1F
100
AcDbEntity
  8
0
  6
Continuous
 62
     7
370
    15
100
AcDbLine
 10
281.8648427438
 20
254.5875960483
 30
0.0
 11
283.707025247
 21
254.5875960483
 31
0.0
  0
LINE
  5
191
330
1F
100
AcDbEntity
  8
0
  6
Continuous
 62
     7
370
    15
100
AcDbLine
 10
281.8648427438
 20
249.5875960483
 30
0.0
 11
283.707025247
 21
249.5875960483
 31
0.0
  0
ARC
  5
192
330
1F
100
AcDbEntity
  8
0
  6
Continuous
 62
     7
370
    15
100
AcDbCircle
 10
403.1637760703
 20
250.745115258
 30
0.0
 40
10.0
100
AcDbArc
 50
270.0
 51
0.0
  0
ARC
  5
193
330
1F
100
AcDbEntity
  8
0
  6
Continuous
 62
     7
370
    15
100
AcDbCircle
 10
391.1637760703
 20
250.745115258
 30
0.0
 40
10.0
100
AcDbArc
 50
180.0
 51
270.0
  0
LINE
  5
194
330
1F
100
AcDbEntity
  8
0
  6
Continuous
 62
     7
370
    15
100
AcDbLine
 10
381.1637760703
 20
253.7326162268
 30
0.0
 11
381.1637760703
 21
250.745115258
 31
0.0
  0
LINE
  5
195
330
1F
100
AcDbEntity
  8
0
  6
Continuous
 62
     7
370
    15
100
AcDbLine
 10
413.1637760703
 20
250.745115258
 30
0.0
 11
413.1637760703
 21
253.7326162268
 31
0.0
  0
ARC
  5
196
330
1F
100
AcDbEntity
  8
0
  6
Continuous
 62
     7
370
    15
100
AcDbCircle
 10
386.1637760703
 20
253.7326162268
 30
0.0
 40
5.000000000000017
100
AcDbArc
 50
123.5409854124
 51
180.0
  0
ARC
  5
197
330
1F
100
AcDbEntity
  8
0
  6
Continuous
 62
     7
370
    15
100
AcDbCircle
 10
408.1637760703
 20
253.7326162268
 30
0.0
 40
5.000000000000017
100
AcDbArc
 50
0.0
 51
56.4590145876
  0
ARC
  5
198
330
1F
100
AcDbEntity
  8
0
  6
Continuous
 62
     7
370
    15
100
AcDbCircle
 10
417.3288208613
 20
267.5579906867
 30
0.0
 40
11.58731518288768
100
AcDbArc
 50
198.7555017521
 51
236.4590145876
  0
ARC
  5
199
330
1F
100
AcDbEntity
  8
0
  6
Continuous
 62
     7
370
    15
100
AcDbCircle
 10
376.9987312792
 20
267.5579906867
 30
0.0
 40
11.58731518288764
100
AcDbArc
 50
303.5409854124
 51
341.2444982479
  0
ARC
  5
19A
330
1F
100
AcDbEntity
  8
0
  6
Continuous
 62
     7
370
    15
100
AcDbCircle
 10
390.1107437696
 20
263.1056580141
 30
0.0
 40
2.26000000000003
100
AcDbArc
 50
118.554984828
 51
161.2444982479
  0
ARC
  5
19B
330
1F
100
AcDbEntity
  8
0
  6
Continuous
 62
     7
370
    15
100
AcDbCircle
 10
404.2168083709
 20
263.1056580141
 30
0.0
 40
2.260000000000018
100
AcDbArc
 50
18.7555017521
 51
61.445015172
  0
ARC
  5
19C
330
1F
100
AcDbEntity
  8
0
  6
Continuous
 62
     7
370
    15
100
AcDbCircle
 10
386.6404498916
 20
269.4825428649
 30
0.0
 40
5.000000000000029
100
AcDbArc
 50
298.554984828
 51
358.0
  0
ARC
  5
19D
330
1F
100
AcDbEntity
  8
0
  6
Continuous
 62
     7
370
    15
100
AcDbCircle
 10
407.6871022489
 20
269.4825428649
 30
0.0
 40
4.999999999999995
100
AcDbArc
 50
182.0
 51
241.445015172
  0
ARC
  5
19E
330
1F
100
AcDbEntity
  8
0
  6
Continuous
 62
     7
370
    15
100
AcDbCircle
 10
397.1637760703
 20
360.945115258
 30
0.0
 40
5.0
100
AcDbArc
 50
0.0
 51
180.5107821964
  0
LINE
  5
19F
330
1F
100
AcDbEntity
  8
0
  6
Continuous
 62
     7
370
    15
100
AcDbLine
 10
402.6901481138
 20
269.3080453814
 30
0.0
 11
400.0051065515
 21
346.1975756335
 31
0.0
  0
LINE
  5
1A0
330
1F
100
AcDbEntity
  8
0
  6
Continuous
 62
     7
370
    15
100
AcDbLine
 10
394.322445589
 20
346.1975756335
 30
0.0
 11
391.6374040267
 21
269.3080453814
 31
0.0
  0
SPLINE
  5
1A1
330
1F
100
AcDbEntity
  8
0
  6
Continuous
 62
     7
370
    15
100
AcDbSpline
210
0.0
220
0.0
230
1.0
 70
     8
 71
     3
 72
    18
 73
    14
 74
     0
 42
0.000000001
 43
0.00000001
 40
0.0
 40
0.0
 40
0.0
 40
0.0
 40
0.2329448849048167
 40
0.4896487189625308
 40
0.6958596457109382
 40
0.8443728083726085
 40
0.932587197047461
 40
0.9663267804165253
 40
0.9725174643961272
 40
0.9766066738614221
 40
0.9816323397264087
 40
0.9909017360728377
 40
1.0
 40
1.0
 40
1.0
 40
1.0
 10
400.0027359464751
 20
346.1975056148368
 30
0.0
 10
399.9999473693959
 20
346.257956659791
 30
0.0
 10
399.9940857974834
 20
346.3850243854201
 30
0.0
 10
399.9603411558469
 20
346.5630980342694
 30
0.0
 10
399.9189177354372
 20
346.7161286347759
 30
0.0
 10
399.8806916612991
 20
346.825224781034
 30
0.0
 10
399.8549113209913
 20
346.889469865341
 30
0.0
 10
399.8413199580951
 20
346.9210684680767
 30
0.0
 10
399.8371580100628
 20
346.93054912332
 30
0.0
 10
399.8361558738571
 20
346.932822985563
 30
0.0
 10
399.8353513051698
 20
346.9346443799394
 30
0.0
 10
399.8346868584725
 20
346.9361446151744
 30
0.0
 10
399.8345920568204
 20
346.9363585254001
 30
0.0
 10
399.8345450976302
 20
346.9364644840066
 30
0.0
  0
SPLINE
  5
1A2
330
1F
100
AcDbEntity
  8
0
  6
Continuous
 62
     7
370
    15
100
AcDbSpline
210
0.0
220
0.0
230
1.0
 70
     8
 71
     3
 72
    17
 73
    13
 74
     0
 42
0.000000001
 43
0.00000001
 40
0.0
 40
0.0
 40
0.0
 40
0.0
 40
0.0079912539360274
 40
0.0193988678920066
 40
0.0249066507219017
 40
0.0305426427287609
 40
0.0461245975943819
 40
0.1025299851792396
 40
0.1886515740322025
 40
0.4926879285630706
 40
0.7981497750020864
 40
1.0
 40
1.0
 40
1.0
 40
1.0
 10
394.4929547296013
 20
346.9363464052173
 30
0.0
 10
394.4929129711072
 20
346.9362521640817
 30
0.0
 10
394.4928116018459
 20
346.9360233925579
 30
0.0
 10
394.4920394259456
 20
346.9342801066821
 30
0.0
 10
394.4908220231582
 20
346.9315213422326
 30
0.0
 10
394.4884621709322
 20
346.9261527444386
 30
0.0
 10
394.4802615397205
 20
346.9072992922781
 30
0.0
 10
394.4646384223507
 20
346.8699093640215
 30
0.0
 10
394.4227377450444
 20
346.7616064817553
 30
0.0
 10
394.3716744751291
 20
346.5887686987838
 30
0.0
 10
394.3314926571009
 20
346.3813030118433
 30
0.0
 10
394.328204995274
 20
346.2497401327392
 30
0.0
 10
394.3268968945666
 20
346.1973936615162
 30
0.0
  0
LINE
  5
1A3
330
1F
100
AcDbEntity
  8
0
  6
Continuous
 62
     7
370
    15
100
AcDbLine
 10
399.6637760703
 20
282.7513515714
 30
0.0
 11
394.6637760703
 21
282.7513515714
 31
0.0
  0
LINE
  5
1A4
330
1F
100
AcDbEntity
  8
0
  6
Continuous
 62
     7
370
    15
100
AcDbLine
 10
399.6637760703
 20
285.8965759842
 30
0.0
 11
394.6637760703
 21
285.8965759842
 31
0.0
  0
LINE
  5
1A5
330
1F
100
AcDbEntity
  8
0
  6
Continuous
 62
     7
370
    15
100
AcDbLine
 10
394.6637760703
 20
282.7513515714
 30
0.0
 11
394.6637760703
 21
285.8965759842
 31
0.0
  0
LINE
  5
1A6
330
1F
100
AcDbEntity
  8
0
  6
Continuous
 62
     7
370
    15
100
AcDbLine
 10
399.6637760703
 20
282.7513515714
 30
0.0
 11
399.6637760703
 21
285.8965759842
 31
0.0
  0
LINE
  5
1A7
330
1F
100
AcDbEntity
  8
0
  6
Continuous
 62
     7
370
    15
100
AcDbLine
 10
399.6637760703
 20
352.745115258
 30
0.0
 11
394.6637760703
 21
352.745115258
 31
0.0
  0
LINE
  5
1A8
330
1F
100
AcDbEntity
  8
0
  6
Continuous
 62
     7
370
    15
100
AcDbLine
 10
394.6637760703
 20
352.745115258
 30
0.0
 11
394.6637760703
 21
285.8965759842
 31
0.0
  0
LINE
  5
1A9
330
1F
100
AcDbEntity
  8
0
  6
Continuous
 62
     7
370
    15
100
AcDbLine
 10
399.6637760703
 20
352.745115258
 30
0.0
 11
399.6637760703
 21
285.8965759842
 31
0.0
  0
SPLINE
  5
1AA
330
1F
100
AcDbEntity
  8
0
  6
Continuous
 62
     7
370
    15
100
AcDbSpline
210
0.0
220
0.0
230
1.0
 70
     8
 71
     3
 72
     8
 73
     4
 74
     0
 42
0.000000001
 43
0.00000001
 40
0.0
 40
0.0
 40
0.0
 40
0.0
 40
1.0
 40
1.0
 40
1.0
 40
1.0
 10
396.7646952707428
 20
270.2795623431772
 30
0.0
 10
396.8998630894337
 20
270.1875124983471
 30
0.0
 10
397.0326725940977
 20
270.0922465988873
 30
0.0
 10
397.1637760702524
 20
269.9938078455108
 30
0.0
  0
SPLINE
  5
1AB
330
1F
100
AcDbEntity
  8
0
  6
Continuous
 62
     7
370
    15
100
AcDbSpline
210
0.0
220
0.0
230
1.0
 70
     8
 71
     3
 72
    20
 73
    16
 74
     0
 42
0.000000001
 43
0.00000001
 40
0.0
 40
0.0
 40
0.0
 40
0.0
 40
0.2500000000000006
 40
0.2500000000000006
 40
0.3750000000000006
 40
0.3750000000000006
 40
0.5000000000000007
 40
0.5000000000000007
 40
0.7500000000000008
 40
0.7500000000000008
 40
0.8750000000000007
 40
0.8750000000000007
 40
0.9375000000000004
 40
0.9375000000000004
 40
1.0
 40
1.0
 40
1.0
 40
1.0
 10
394.6637760702524
 20
274.7169456982678
 30
0.0
 10
394.6637760702524
 20
274.34428000216
 30
0.0
 10
394.7335130140592
 20
273.9703217596889
 30
0.0
 10
394.9096430180946
 20
273.4050226390113
 30
0.0
 10
394.9810053829225
 20
273.2149984635378
 30
0.0
 10
395.1423386349371
 20
272.8387112430599
 30
0.0
 10
395.2322035966218
 20
272.6523568471154
 30
0.0
 10
395.5236202505528
 20
272.0969420764109
 30
0.0
 10
395.7468004450754
 20
271.7314968519889
 30
0.0
 10
396.1069618973104
 20
271.1847156123257
 30
0.0
 10
396.2311860810433
 20
271.0026453559919
 30
0.0
 10
396.4231868000437
 20
270.7296970135664
 30
0.0
 10
396.4880858377466
 20
270.6387199827402
 30
0.0
 10
396.6212188665223
 20
270.4574587992307
 30
0.0
 10
396.6875261911466
 20
270.3663375937372
 30
0.0
 10
396.7646952707415
 20
270.2795623431768
 30
0.0
  0
SPLINE
  5
1AC
330
1F
100
AcDbEntity
  8
0
  6
Continuous
 62
     7
370
    15
100
AcDbSpline
210
0.0
220
0.0
230
1.0
 70
     8
 71
     3
 72
    18
 73
    14
 74
     0
 42
0.000000001
 43
0.00000001
 40
0.0
 40
0.0
 40
0.0
 40
0.0
 40
0.0624999999999999
 40
0.0624999999999999
 40
0.1249999999999999
 40
0.1249999999999999
 40
0.2499999999999994
 40
0.2499999999999994
 40
0.4999999999999997
 40
0.4999999999999997
 40
0.7499999999999998
 40
0.7499999999999998
 40
1.0
 40
1.0
 40
1.0
 40
1.0
 10
397.5628568697664
 20
270.2795623431802
 30
0.0
 10
397.639992222775
 20
270.3662996687977
 30
0.0
 10
397.7063615418571
 20
270.4574948682133
 30
0.0
 10
397.8396031497298
 20
270.6389087213192
 30
0.0
 10
397.9045690572801
 20
270.7299823224248
 30
0.0
 10
398.0967897976354
 20
271.003256360563
 30
0.0
 10
398.2211882801516
 20
271.1855935691408
 30
0.0
 10
398.5819298093433
 20
271.7333456223083
 30
0.0
 10
398.805588670949
 20
272.0996635380943
 30
0.0
 10
399.1950289093218
 20
272.8427798877905
 30
0.0
 10
399.36116278906
 20
273.2219942831309
 30
0.0
 10
399.5941374610403
 20
273.9715431588488
 30
0.0
 10
399.6637760702524
 20
274.344283636696
 30
0.0
 10
399.6637760702524
 20
274.7169456982678
 30
0.0
  0
SPLINE
  5
1AD
330
1F
100
AcDbEntity
  8
0
  6
Continuous
 62
     7
370
    15
100
AcDbSpline
210
0.0
220
0.0
230
1.0
 70
     8
 71
     3
 72
     8
 73
     4
 74
     0
 42
0.000000001
 43
0.00000001
 40
0.0
 40
0.0
 40
0.0
 40
0.0
 40
1.0
 40
1.0
 40
1.0
 40
1.0
 10
397.5628568697664
 20
270.2795623431802
 30
0.0
 10
397.4276890510741
 20
270.1875124983492
 30
0.0
 10
397.2948795464039
 20
270.0922465988931
 30
0.0
 10
397.1637760702524
 20
269.9938078455108
 30
0.0
  0
LINE
  5
1AE
330
1F
100
AcDbEntity
  8
0
  6
Continuous
 62
     7
370
    15
100
AcDbLine
 10
394.6637760703
 20
282.7513515714
 30
0.0
 11
394.6637760703
 21
274.7169456983
 31
0.0
  0
LINE
  5
1AF
330
1F
100
AcDbEntity
  8
0
  6
Continuous
 62
     7
370
    15
100
AcDbLine
 10
399.6637760703
 20
282.7513515714
 30
0.0
 11
399.6637760703
 21
274.7169456983
 31
0.0
  0
LINE
  5
1B0
330
1F
100
AcDbEntity
  8
0
  6
Continuous
 62
     7
370
    15
100
AcDbLine
 10
403.1637760703
 20
240.745115258
 30
0.0
 11
391.163776097
 21
240.745115258
 31
0.0
  0
SPLINE
  5
1B1
330
1F
100
AcDbEntity
  8
0
  6
Continuous
 62
     7
370
    15
100
AcDbSpline
210
0.0
220
0.0
230
1.0
 70
     8
 71
     3
 72
    18
 73
    14
 74
     0
 42
0.000000001
 43
0.00000001
 40
0.0
 40
0.0
 40
0.0
 40
0.0
 40
0.2499999999999993
 40
0.2499999999999993
 40
0.4999999999999989
 40
0.4999999999999989
 40
0.7499999999999984
 40
0.7499999999999984
 40
0.8749999999999994
 40
0.8749999999999994
 40
0.9374999999999997
 40
0.9374999999999997
 40
1.0
 40
1.0
 40
1.0
 40
1.0
 10
399.5202455990031
 20
263.8323166989491
 30
0.0
 10
399.3273208462912
 20
263.8323166989487
 30
0.0
 10
399.1316003789531
 20
263.8459849915509
 30
0.0
 10
398.7443140547907
 20
263.9051780194287
 30
0.0
 10
398.5496788252925
 20
263.9510982101679
 30
0.0
 10
398.1755086471862
 20
264.0840794673166
 30
0.0
 10
397.9946810126847
 20
264.1707006559569
 30
0.0
 10
397.7541428116802
 20
264.3459424076048
 30
0.0
 10
397.6791639519772
 20
264.4120837689699
 30
0.0
 10
397.584276360348
 20
264.525063529071
 30
0.0
 10
397.5553276298737
 20
264.5653823843582
 30
0.0
 10
397.5077181826233
 20
264.6507320566653
 30
0.0
 10
397.487223431798
 20
264.6969716684529
 30
0.0
 10
397.4819360470078
 20
264.7451104229466
 30
0.0
  0
SPLINE
  5
1B2
330
1F
100
AcDbEntity
  8
0
  6
Continuous
 62
     7
370
    15
100
AcDbSpline
210
0.0
220
0.0
230
1.0
 70
     8
 71
     3
 72
    18
 73
    14
 74
     0
 42
0.000000001
 43
0.00000001
 40
0.0
 40
0.0
 40
0.0
 40
0.0
 40
0.249999999999999
 40
0.249999999999999
 40
0.4999999999999982
 40
0.4999999999999982
 40
0.7499999999999974
 40
0.7499999999999974
 40
0.8749999999999972
 40
0.8749999999999972
 40
0.9374999999999986
 40
0.9374999999999986
 40
1.0
 40
1.0
 40
1.0
 40
1.0
 10
394.8073065415091
 20
263.8323166989491
 30
0.0
 10
395.0002365700393
 20
263.8323166989491
 30
0.0
 10
395.1941984246487
 20
263.8457479570901
 30
0.0
 10
395.5838969179375
 20
263.9052478560661
 30
0.0
 10
395.7775652861301
 20
263.9510083094633
 30
0.0
 10
396.1518842571766
 20
264.0840033249107
 30
0.0
 10
396.3330088138533
 20
264.1709281701484
 30
0.0
 10
396.5723670953935
 20
264.3451198837763
 30
0.0
 10
396.6476782680528
 20
264.4113579618071
 30
0.0
 10
396.7429207835422
 20
264.524581774663
 30
0.0
 10
396.7718965522278
 20
264.5648347213021
 30
0.0
 10
396.8199210805731
 20
264.6508481739908
 30
0.0
 10
396.8403633784988
 20
264.6972141091255
 30
0.0
 10
396.8456149476995
 20
264.7451152579582
 30
0.0
  0
LINE
  5
1B3
330
1F
100
AcDbEntity
  8
0
  6
Continuous
 62
     7
370
    15
100
AcDbLine
 10
397.4819371928
 20
264.745115258
 30
0.0
 11
396.8456149477
 21
264.745115258
 31
0.0
  0
SPLINE
  5
1B4
330
1F
100
AcDbEntity
  8
0
  6
Continuous
 62
     7
370
    15
100
AcDbSpline
210
0.0
220
0.0
230
1.0
 70
     8
 71
     3
 72
    13
 73
     9
 74
     0
 42
0.000000001
 43
0.00000001
 40
0.0
 40
0.0
 40
0.0
 40
0.0
 40
0.062463035452348
 40
0.1251693480792018
 40
0.2500366322190075
 40
0.4999754655932843
 40
0.7499515592578604
 40
0.9999999999999999
 40
0.9999999999999999
 40
0.9999999999999999
 40
0.9999999999999999
 10
397.4524460171509
 20
270.1810330456817
 30
0.0
 10
397.4552841761565
 20
270.1825330098193
 30
0.0
 10
397.4609715480541
 20
270.1855387800624
 30
0.0
 10
397.4717231262822
 20
270.1923358132537
 30
0.0
 10
397.4895034600114
 20
270.2053598106153
 30
0.0
 10
397.5125684873921
 20
270.2261061338846
 30
0.0
 10
397.5383705561722
 20
270.2523806470593
 30
0.0
 10
397.554693977973
 20
270.2705009038849
 30
0.0
 10
397.5628568697674
 20
270.2795623431808
 30
0.0
  0
ARC
  5
1B5
330
1F
100
AcDbEntity
  8
0
  6
Continuous
 62
     7
370
    15
100
AcDbCircle
 10
398.0167299462
 20
259.4408352618
 30
0.0
 40
7.733949489582648
100
AcDbArc
 50
77.7039437499
 51
93.9063435485
  0
SPLINE
  5
1B6
330
1F
100
AcDbEntity
  8
0
  6
Continuous
 62
     7
370
    15
100
AcDbSpline
210
0.0
220
0.0
230
1.0
 70
     8
 71
     3
 72
    12
 73
     8
 74
     0
 42
0.000000001
 43
0.00000001
 40
0.0
 40
0.0
 40
0.0
 40
0.0
 40
0.5000000000000018
 40
0.5000000000000018
 40
0.7500000000000009
 40
0.7500000000000009
 40
1.0
 40
1.0
 40
1.0
 40
1.0
 10
397.489848839277
 20
267.1568167940698
 30
0.0
 10
397.4911486751795
 20
267.6516504199789
 30
0.0
 10
397.4896427278923
 20
268.1392761004587
 30
0.0
 10
397.4838503721799
 20
268.8601173785132
 30
0.0
 10
397.4813411369644
 20
269.0980223200841
 30
0.0
 10
397.4756046689926
 20
269.5564056894949
 30
0.0
 10
397.4723664831615
 20
269.7786557133746
 30
0.0
 10
397.4689058940286
 20
269.9938078455109
 30
0.0
  0
SPLINE
  5
1B7
330
1F
100
AcDbEntity
  8
0
  6
Continuous
 62
     7
370
    15
100
AcDbSpline
210
0.0
220
0.0
230
1.0
 70
     8
 71
     3
 72
    16
 73
    12
 74
     0
 42
0.000000001
 43
0.00000001
 40
0.0
 40
0.0
 40
0.0
 40
0.0
 40
0.1411098745710826
 40
0.2898040949441298
 40
0.4400592102494487
 40
0.5844025237418565
 40
0.7154725367138539
 40
0.8267199022074243
 40
0.9128184051253857
 40
0.9702268048712236
 40
1.0
 40
1.0
 40
1.0
 40
1.0
 10
397.4689058940286
 20
269.9938078455108
 30
0.0
 10
397.470904495612
 20
270.0025767176035
 30
0.0
 10
397.4750091192238
 20
270.0205857694024
 30
0.0
 10
397.473671335606
 20
270.0484595869657
 30
0.0
 10
397.4698474373063
 20
270.0762030306885
 30
0.0
 10
397.4642175843719
 20
270.1026945239191
 30
0.0
 10
397.458492286743
 20
270.1266354997424
 30
0.0
 10
397.4532556388089
 20
270.1471217499088
 30
0.0
 10
397.4506689373799
 20
270.1628712867295
 30
0.0
 10
397.4482537387827
 20
270.1743449744813
 30
0.0
 10
397.4513787883362
 20
270.179330462582
 30
0.0
 10
397.4524460171507
 20
270.1810330456817
 30
0.0
  0
SPLINE
  5
1B8
330
1F
100
AcDbEntity
  8
0
  6
Continuous
 62
     7
370
    15
100
AcDbSpline
210
0.0
220
0.0
230
1.0
 70
    24
 71
     3
 72
    26
 73
    22
 74
     0
 42
0.000000001
 43
0.00000001
 40
0.0
 40
0.0
 40
0.0
 40
0.0
 40
0.1249999999999987
 40
0.1249999999999987
 40
0.2499999999999974
 40
0.2499999999999974
 40
0.3124999999999974
 40
0.3124999999999974
 40
0.3749999999999975
 40
0.3749999999999975
 40
0.4999999999999979
 40
0.4999999999999979
 40
0.6249999999999981
 40
0.6249999999999981
 40
0.7499999999999984
 40
0.7499999999999984
 40
0.812499999999999
 40
0.812499999999999
 40
0.8749999999999996
 40
0.8749999999999996
 40
1.0
 40
1.0
 40
1.0
 40
1.0
 10
399.6637760702524
 20
274.7169456982678
 30
0.0
 10
399.6637760702524
 20
274.6611644698676
 30
0.0
 10
399.6637760702524
 20
274.561443000034
 30
0.0
 10
399.6637760702524
 20
274.2775849847689
 30
0.0
 10
399.6637760702524
 20
274.0959701510151
 30
0.0
 10
399.6637760702524
 20
273.7658467492769
 30
0.0
 10
399.6637760702524
 20
273.646123180632
 30
0.0
 10
399.6637760702524
 20
273.386819895724
 30
0.0
 10
399.6637760702524
 20
273.2470350586565
 30
0.0
 10
399.6637760702524
 20
272.8067299580711
 30
0.0
 10
399.6637760702524
 20
272.4827673276429
 30
0.0
 10
399.6637760702524
 20
271.7743943904762
 30
0.0
 10
399.6637760702524
 20
271.3868873429311
 30
0.0
 10
399.6637760702524
 20
270.5817675221933
 30
0.0
 10
399.6637760702524
 20
270.1610156826784
 30
0.0
 10
399.6637760702524
 20
269.5021056233912
 30
0.0
 10
399.6637760702524
 20
269.2770584801627
 30
0.0
 10
399.6637760702524
 20
268.8268842488685
 30
0.0
 10
399.6637760702524
 20
268.6007186305768
 30
0.0
 10
399.6637760702524
 20
267.919048678677
 30
0.0
 10
399.6637760702524
 20
267.4604006180303
 30
0.0
 10
399.6637760702524
 20
266.9973697699065
 30
0.0
  0
SPLINE
  5
1B9
330
1F
100
AcDbEntity
  8
0
  6
Continuous
 62
     7
370
    15
100
AcDbSpline
210
0.0
220
0.0
230
1.0
 70
     8
 71
     3
 72
    12
 73
     8
 74
     0
 42
0.000000001
 43
0.00000001
 40
0.0
 40
0.0
 40
0.0
 40
0.0
 40
0.499977839558493
 40
0.7499400157918955
 40
0.8748189618207814
 40
0.9375311308585094
 40
1.0
 40
1.0
 40
1.0
 40
1.0
 10
396.7646952707415
 20
270.279562343178
 30
0.0
 10
396.7811010382893
 20
270.2614877502139
 30
0.0
 10
396.8057088120751
 20
270.2343768275679
 30
0.0
 10
396.8380528518051
 20
270.2053623903409
 30
0.0
 10
396.8558286580229
 20
270.1923355929611
 30
0.0
 10
396.8665806551805
 20
270.1855388188552
 30
0.0
 10
396.8722679852323
 20
270.1825330227331
 30
0.0
 10
396.8751061233556
 20
270.1810330456811
 30
0.0
  0
SPLINE
  5
1BA
330
1F
100
AcDbEntity
  8
0
  6
Continuous
 62
     7
370
    15
100
AcDbSpline
210
0.0
220
0.0
230
1.0
 70
     8
 71
     3
 72
    17
 73
    13
 74
     0
 42
0.000000001
 43
0.00000001
 40
0.0
 40
0.0
 40
0.0
 40
0.0
 40
0.0258160818098612
 40
0.0735061456815721
 40
0.1447621012918836
 40
0.2374508900624348
 40
0.348069943208964
 40
0.4722081966645544
 40
0.6047765667712963
 40
0.7402918773788153
 40
0.873402401019815
 40
1.0
 40
1.0
 40
1.0
 40
1.0
 10
396.8751061233552
 20
270.1810330456813
 30
0.0
 10
396.8761157168473
 20
270.1795951673481
 30
0.0
 10
396.8789903330207
 20
270.1755010954821
 30
0.0
 10
396.8773816686888
 20
270.1658399209082
 30
0.0
 10
396.8754829756254
 20
270.152724224707
 30
0.0
 10
396.8712768700422
 20
270.1355426495302
 30
0.0
 10
396.8663373400489
 20
270.115257054441
 30
0.0
 10
396.8610415873571
 20
270.092448364552
 30
0.0
 10
396.8563658774183
 20
270.0679887747588
 30
0.0
 10
396.8534921641555
 20
270.0428172827494
 30
0.0
 10
396.8529534876058
 20
270.0177759142997
 30
0.0
 10
396.8567806525587
 20
270.0016625051527
 30
0.0
 10
396.8586462464764
 20
269.9938078455108
 30
0.0
  0
SPLINE
  5
1BB
330
1F
100
AcDbEntity
  8
0
  6
Continuous
 62
     7
370
    15
100
AcDbSpline
210
0.0
220
0.0
230
1.0
 70
     8
 71
     3
 72
    12
 73
     8
 74
     0
 42
0.000000001
 43
0.00000001
 40
0.0
 40
0.0
 40
0.0
 40
0.0
 40
0.2499999999999991
 40
0.2499999999999991
 40
0.4999999999999982
 40
0.4999999999999982
 40
1.0
 40
1.0
 40
1.0
 40
1.0
 10
396.8586462464763
 20
269.9938078455109
 30
0.0
 10
396.8551856573434
 20
269.7786557133746
 30
0.0
 10
396.8519474715123
 20
269.5564056894949
 30
0.0
 10
396.8462110035405
 20
269.0980223200841
 30
0.0
 10
396.843701768325
 20
268.8601173785132
 30
0.0
 10
396.8379094126125
 20
268.1392761004587
 30
0.0
 10
396.8364034653254
 20
267.6516504199789
 30
0.0
 10
396.8377033012279
 20
267.1568167940698
 30
0.0
  0
ARC
  5
1BC
330
1F
100
AcDbEntity
  8
0
  6
Continuous
 62
     7
370
    15
100
AcDbCircle
 10
396.3108221944
 20
259.4408352618
 30
0.0
 40
7.733949489584126
100
AcDbArc
 50
86.0936564515
 51
102.2960562501
  0
SPLINE
  5
1BD
330
1F
100
AcDbEntity
  8
0
  6
Continuous
 62
     7
370
    15
100
AcDbSpline
210
0.0
220
0.0
230
1.0
 70
    24
 71
     3
 72
    26
 73
    22
 74
     0
 42
0.000000001
 43
0.00000001
 40
0.0
 40
0.0
 40
0.0
 40
0.0
 40
0.1250000000000004
 40
0.1250000000000004
 40
0.1875000000000011
 40
0.1875000000000011
 40
0.2500000000000017
 40
0.2500000000000017
 40
0.3750000000000029
 40
0.3750000000000029
 40
0.5000000000000042
 40
0.5000000000000042
 40
0.6250000000000039
 40
0.6250000000000039
 40
0.6875000000000037
 40
0.6875000000000037
 40
0.7500000000000036
 40
0.7500000000000036
 40
0.8750000000000018
 40
0.8750000000000018
 40
1.0
 40
1.0
 40
1.0
 40
1.0
 10
394.6637760702524
 20
266.9973697699065
 30
0.0
 10
394.6637760702524
 20
267.4604006180303
 30
0.0
 10
394.6637760702524
 20
267.919048678677
 30
0.0
 10
394.6637760702524
 20
268.6007186305768
 30
0.0
 10
394.6637760702524
 20
268.8268842488685
 30
0.0
 10
394.6637760702524
 20
269.2770584801627
 30
0.0
 10
394.6637760702524
 20
269.5021056233912
 30
0.0
 10
394.6637760702524
 20
270.1610156826784
 30
0.0
 10
394.6637760702524
 20
270.5817675221933
 30
0.0
 10
394.6637760702524
 20
271.3868873429311
 30
0.0
 10
394.6637760702524
 20
271.7743943904762
 30
0.0
 10
394.6637760702524
 20
272.4827673276429
 30
0.0
 10
394.6637760702524
 20
272.8067299580711
 30
0.0
 10
394.6637760702524
 20
273.2470350586565
 30
0.0
 10
394.6637760702524
 20
273.386819895724
 30
0.0
 10
394.6637760702524
 20
273.646123180632
 30
0.0
 10
394.6637760702524
 20
273.7658467492769
 30
0.0
 10
394.6637760702524
 20
274.0959701510151
 30
0.0
 10
394.6637760702524
 20
274.2775849847689
 30
0.0
 10
394.6637760702524
 20
274.561443000034
 30
0.0
 10
394.6637760702524
 20
274.6611644698676
 30
0.0
 10
394.6637760702524
 20
274.7169456982678
 30
0.0
  0
LINE
  5
1BE
330
1F
100
AcDbEntity
  8
0
  6
Continuous
 62
     7
370
    15
100
AcDbLine
 10
397.1637760703
 20
269.9938078455
 30
0.0
 11
396.8586462465
 21
269.9938078455
 31
0.0
  0
LINE
  5
1BF
330
1F
100
AcDbEntity
  8
0
  6
Continuous
 62
     7
370
    15
100
AcDbLine
 10
397.468905894
 20
269.9938078455
 30
0.0
 11
397.1637760703
 21
269.9938078455
 31
0.0
  0
LINE
  5
1C0
330
1F
100
AcDbEntity
  8
0
  6
Continuous
 62
     7
370
    15
100
AcDbLine
 10
397.4898488393
 20
267.1568167941
 30
0.0
 11
396.8377033012
 21
267.1568167941
 31
0.0
  0
ARC
  5
1C1
330
1F
100
AcDbEntity
  8
0
  6
Continuous
 62
     7
370
    15
100
AcDbCircle
 10
395.5073112301
 20
263.6246424512
 30
0.0
 40
4.018304473601664
100
AcDbArc
 50
2.962483657
 51
21.3987813423
  0
SPLINE
  5
1C2
330
1F
100
AcDbEntity
  8
0
  6
Continuous
 62
     7
370
    15
100
AcDbSpline
210
0.0
220
0.0
230
1.0
 70
     8
 71
     3
 72
    14
 73
    10
 74
     0
 42
0.000000001
 43
0.00000001
 40
0.0
 40
0.0
 40
0.0
 40
0.0
 40
0.25
 40
0.25
 40
0.5
 40
0.5
 40
0.75
 40
0.75
 40
1.0
 40
1.0
 40
1.0
 40
1.0
 10
399.2486081644504
 20
265.0907488904876
 30
0.0
 10
399.1577076144982
 20
265.0274530578325
 30
0.0
 10
399.0493715169788
 20
264.974078631019
 30
0.0
 10
398.8040616870181
 20
264.88661350495
 30
0.0
 10
398.6639705195623
 20
264.8513451794632
 30
0.0
 10
398.3577743091205
 20
264.7966467046508
 30
0.0
 10
398.1947021168244
 20
264.7773913206022
 30
0.0
 10
397.8476718274297
 20
264.7514759224185
 30
0.0
 10
397.6656275091168
 20
264.7451152579611
 30
0.0
 10
397.4819371928031
 20
264.7451152579611
 30
0.0
  0
ARC
  5
1C3
330
1F
100
AcDbEntity
  8
0
  6
Continuous
 62
     7
370
    15
100
AcDbCircle
 10
398.8202409107
 20
263.6246424511
 30
0.0
 40
4.01830447382502
100
AcDbArc
 50
158.6012186584
 51
177.0375163426
  0
SPLINE
  5
1C4
330
1F
100
AcDbEntity
  8
0
  6
Continuous
 62
     7
370
    15
100
AcDbSpline
210
0.0
220
0.0
230
1.0
 70
     8
 71
     3
 72
    14
 73
    10
 74
     0
 42
0.000000001
 43
0.00000001
 40
0.0
 40
0.0
 40
0.0
 40
0.0
 40
0.25
 40
0.25
 40
0.5
 40
0.5
 40
0.75
 40
0.75
 40
1.0
 40
1.0
 40
1.0
 40
1.0
 10
396.8456149476995
 20
264.7451152579583
 30
0.0
 10
396.6621708733584
 20
264.7451152579583
 30
0.0
 10
396.4839407447481
 20
264.7512947050433
 30
0.0
 10
396.1374256745792
 20
264.7769306208983
 30
0.0
 10
395.9707460449304
 20
264.7965539016822
 30
0.0
 10
395.6662604185049
 20
264.8507874401474
 30
0.0
 10
395.5248307729159
 20
264.886180977953
 30
0.0
 10
395.2779851104608
 20
264.97410318769
 30
0.0
 10
395.1699348325207
 20
265.0273901756399
 30
0.0
 10
395.0789439760596
 20
265.0907488904844
 30
0.0
  0
SPLINE
  5
1C5
330
1F
100
AcDbEntity
  8
0
  6
Continuous
 62
     7
370
    15
100
AcDbSpline
210
0.0
220
0.0
230
1.0
 70
     8
 71
     3
 72
     8
 73
     4
 74
     0
 42
0.000000001
 43
0.00000001
 40
0.0
 40
0.0
 40
0.0
 40
0.0
 40
1.0
 40
1.0
 40
1.0
 40
1.0
 10
397.4819371928053
 20
264.7451152579583
 30
0.0
 10
397.4857461179644
 20
265.5363502834242
 30
0.0
 10
397.4885790932648
 20
266.3431511656426
 30
0.0
 10
397.489848839277
 20
267.1568167940699
 30
0.0
  0
SPLINE
  5
1C6
330
1F
100
AcDbEntity
  8
0
  6
Continuous
 62
     7
370
    15
100
AcDbSpline
210
0.0
220
0.0
230
1.0
 70
     8
 71
     3
 72
    12
 73
     8
 74
     0
 42
0.000000001
 43
0.00000001
 40
0.0
 40
0.0
 40
0.0
 40
0.0
 40
0.5000000000000007
 40
0.5000000000000007
 40
0.7500000000000003
 40
0.7500000000000003
 40
1.0
 40
1.0
 40
1.0
 40
1.0
 10
399.6637760702524
 20
266.0977295655426
 30
0.0
 10
399.6637760702524
 20
265.8730015994091
 30
0.0
 10
399.6399857847013
 20
265.6779307005935
 30
0.0
 10
399.5435849140185
 20
265.4244233899984
 30
0.0
 10
399.5006499469335
 20
265.3461130980789
 30
0.0
 10
399.3925192241624
 20
265.207049551214
 30
0.0
 10
399.3272195905374
 20
265.145487565589
 30
0.0
 10
399.2486081644504
 20
265.0907488904876
 30
0.0
  0
SPLINE
  5
1C7
330
1F
100
AcDbEntity
  8
0
  6
Continuous
 62
     7
370
    15
100
AcDbSpline
210
0.0
220
0.0
230
1.0
 70
    24
 71
     3
 72
     8
 73
     4
 74
     0
 42
0.000000001
 43
0.00000001
 40
0.0
 40
0.0
 40
0.0
 40
0.0
 40
1.0
 40
1.0
 40
1.0
 40
1.0
 10
399.6637760702524
 20
266.9973697699065
 30
0.0
 10
399.6637760702524
 20
266.6978001188459
 30
0.0
 10
399.6637760702524
 20
266.3979224025541
 30
0.0
 10
399.6637760702524
 20
266.0977295655426
 30
0.0
  0
SPLINE
  5
1C8
330
1F
100
AcDbEntity
  8
0
  6
Continuous
 62
     7
370
    15
100
AcDbSpline
210
0.0
220
0.0
230
1.0
 70
     8
 71
     3
 72
    12
 73
     8
 74
     0
 42
0.000000001
 43
0.00000001
 40
0.0
 40
0.0
 40
0.0
 40
0.0
 40
0.2500000000000001
 40
0.2500000000000001
 40
0.5000000000000001
 40
0.5000000000000001
 40
1.0
 40
1.0
 40
1.0
 40
1.0
 10
395.0789439760596
 20
265.0907488904844
 30
0.0
 10
395.0006099047838
 20
265.145294438
 30
0.0
 10
394.9354278306745
 20
265.2066625469673
 30
0.0
 10
394.8273754969252
 20
265.3453844826128
 30
0.0
 10
394.7846377357069
 20
265.423107136729
 30
0.0
 10
394.6881312390405
 20
265.6755643556964
 30
0.0
 10
394.6637760702524
 20
265.8737907640284
 30
0.0
 10
394.6637760702524
 20
266.0977295655426
 30
0.0
  0
SPLINE
  5
1C9
330
1F
100
AcDbEntity
  8
0
  6
Continuous
 62
     7
370
    15
100
AcDbSpline
210
0.0
220
0.0
230
1.0
 70
     8
 71
     3
 72
     8
 73
     4
 74
     0
 42
0.000000001
 43
0.00000001
 40
0.0
 40
0.0
 40
0.0
 40
0.0
 40
1.0
 40
1.0
 40
1.0
 40
1.0
 10
396.8377033012279
 20
267.1568167940698
 30
0.0
 10
396.8389730472401
 20
266.3431511656425
 30
0.0
 10
396.8418060225404
 20
265.5363502834242
 30
0.0
 10
396.8456149476995
 20
264.7451152579583
 30
0.0
  0
SPLINE
  5
1CA
330
1F
100
AcDbEntity
  8
0
  6
Continuous
 62
     7
370
    15
100
AcDbSpline
210
0.0
220
0.0
230
1.0
 70
    24
 71
     3
 72
     8
 73
     4
 74
     0
 42
0.000000001
 43
0.00000001
 40
0.0
 40
0.0
 40
0.0
 40
0.0
 40
1.0
 40
1.0
 40
1.0
 40
1.0
 10
394.6637760702524
 20
266.0977295655426
 30
0.0
 10
394.6637760702524
 20
266.3979224025541
 30
0.0
 10
394.6637760702524
 20
266.6978001188459
 30
0.0
 10
394.6637760702524
 20
266.9973697699065
 30
0.0
  0
SPLINE
  5
1CB
330
1F
100
AcDbEntity
  8
0
  6
Continuous
 62
     7
370
    15
100
AcDbSpline
210
0.0
220
0.0
230
1.0
 70
     8
 71
     3
 72
    18
 73
    14
 74
     0
 42
0.000000001
 43
0.00000001
 40
0.0
 40
0.0
 40
0.0
 40
0.0
 40
0.1249999999999965
 40
0.1249999999999965
 40
0.249999999999993
 40
0.249999999999993
 40
0.3749999999999895
 40
0.3749999999999895
 40
0.499999999999986
 40
0.499999999999986
 40
0.749999999999993
 40
0.749999999999993
 40
1.0
 40
1.0
 40
1.0
 40
1.0
 10
393.9494903559667
 20
360.9451152579584
 30
0.0
 10
394.0282944008298
 20
360.9451152579584
 30
0.0
 10
394.1007571736807
 20
360.9379665412566
 30
0.0
 10
394.2331725569172
 20
360.8992522898301
 30
0.0
 10
394.2924053326109
 20
360.8671554103406
 30
0.0
 10
394.392360618909
 20
360.7776183988632
 30
0.0
 10
394.4347087307154
 20
360.718850288655
 30
0.0
 10
394.5036151917024
 20
360.5830700672421
 30
0.0
 10
394.5310899323892
 20
360.5050272178905
 30
0.0
 10
394.5973438147975
 20
360.2552859433371
 30
0.0
 10
394.6216361139703
 20
360.0660228938312
 30
0.0
 10
394.6525468018617
 20
359.6757696702517
 30
0.0
 10
394.6588995680145
 20
359.4755362260252
 30
0.0
 10
394.6617970321738
 20
359.2705939161667
 30
0.0
  0
LINE
  5
1CC
330
1F
100
AcDbEntity
  8
0
  6
Continuous
 62
     7
370
    15
100
AcDbLine
 10
397.1637760703
 20
360.945115258
 30
0.0
 11
393.949490356
 21
360.945115258
 31
0.0
  0
SPLINE
  5
1CD
330
1F
100
AcDbEntity
  8
0
  6
Continuous
 62
     7
370
    15
100
AcDbSpline
210
0.0
220
0.0
230
1.0
 70
     8
 71
     3
 72
    10
 73
     6
 74
     0
 42
0.000000001
 43
0.00000001
 40
0.0
 40
0.0
 40
0.0
 40
0.0
 40
0.5000000000000001
 40
0.5000000000000001
 40
1.0
 40
1.0
 40
1.0
 40
1.0
 10
394.6617970321738
 20
359.2705939161667
 30
0.0
 10
395.1285135766569
 20
359.4658173693831
 30
0.0
 10
395.562889689383
 20
359.7289721046824
 30
0.0
 10
396.384092794449
 20
360.3084166157997
 30
0.0
 10
396.7726215003458
 20
360.6257396875192
 30
0.0
 10
397.1637760702524
 20
360.9451152579584
 30
0.0
  0
SPLINE
  5
1CE
330
1F
100
AcDbEntity
  8
0
  6
Continuous
 62
     7
370
    15
100
AcDbSpline
210
0.0
220
0.0
230
1.0
 70
     8
 71
     3
 72
     8
 73
     4
 74
     0
 42
0.000000001
 43
0.00000001
 40
0.0
 40
0.0
 40
0.0
 40
0.0
 40
0.0002619778064636
 40
0.0002619778064636
 40
0.0002619778064636
 40
0.0002619778064636
 10
394.6617970321738
 20
359.2705939161667
 30
0.0
 10
394.6630315185267
 20
359.1832767067961
 30
0.0
 10
394.6637760702524
 20
359.0959495203425
 30
0.0
 10
394.6637760702524
 20
359.0086235848547
 30
0.0
  0
SPLINE
  5
1CF
330
1F
100
AcDbEntity
  8
0
  6
Continuous
 62
     7
370
    15
100
AcDbSpline
210
0.0
220
0.0
230
1.0
 70
     8
 71
     3
 72
    14
 73
    10
 74
     0
 42
0.000000001
 43
0.00000001
 40
0.0
 40
0.0
 40
0.0
 40
0.0
 40
0.2499999999999998
 40
0.2499999999999998
 40
0.4999999999999999
 40
0.4999999999999999
 40
0.7499999999999999
 40
0.7499999999999999
 40
1.0
 40
1.0
 40
1.0
 40
1.0
 10
393.9494903559667
 20
359.888182473492
 30
0.0
 10
394.064830231565
 20
359.7525031726115
 30
0.0
 10
394.1658679063426
 20
359.6094297703457
 30
0.0
 10
394.3418424716975
 20
359.3083344999818
 30
0.0
 10
394.4171245523185
 20
359.1492397922
 30
0.0
 10
394.5388176248196
 20
358.8197465043529
 30
0.0
 10
394.5849285417885
 20
358.6507729618709
 30
0.0
 10
394.6474762546878
 20
358.303748450026
 30
0.0
 10
394.6637760702524
 20
358.1230652705957
 30
0.0
 10
394.6637760702524
 20
357.9451152579584
 30
0.0
  0
LINE
  5
1D0
330
1F
100
AcDbEntity
  8
0
  6
Continuous
 62
     7
370
    15
100
AcDbLine
 10
393.949490356
 20
359.8881824735
 30
0.0
 11
393.949490356
 21
360.945115258
 31
0.0
  0
SPLINE
  5
1D1
330
1F
100
AcDbEntity
  8
0
  6
Continuous
 62
     7
370
    15
100
AcDbSpline
210
0.0
220
0.0
230
1.0
 70
     8
 71
     3
 72
     8
 73
     4
 74
     0
 42
0.000000001
 43
0.00000001
 40
0.0
 40
0.0
 40
0.0
 40
0.0
 40
0.0002619778064636
 40
0.0002619778064636
 40
0.0002619778064636
 40
0.0002619778064636
 10
399.6637760702524
 20
359.0086235848547
 30
0.0
 10
399.6637760702524
 20
359.0959495203425
 30
0.0
 10
399.6645206219782
 20
359.1832767067961
 30
0.0
 10
399.6657551083311
 20
359.2705939161667
 30
0.0
  0
SPLINE
  5
1D2
330
1F
100
AcDbEntity
  8
0
  6
Continuous
 62
     7
370
    15
100
AcDbSpline
210
0.0
220
0.0
230
1.0
 70
     8
 71
     3
 72
    18
 73
    14
 74
     0
 42
0.000000001
 43
0.00000001
 40
0.0
 40
0.0
 40
0.0
 40
0.0
 40
0.2499999999999931
 40
0.2499999999999931
 40
0.4999999999999862
 40
0.4999999999999862
 40
0.6249999999999897
 40
0.6249999999999897
 40
0.7499999999999931
 40
0.7499999999999931
 40
0.8749999999999966
 40
0.8749999999999966
 40
1.0
 40
1.0
 40
1.0
 40
1.0
 10
399.6657551083311
 20
359.2705939161667
 30
0.0
 10
399.6686504928028
 20
359.4753891263717
 30
0.0
 10
399.6749863104628
 20
359.6759820514583
 30
0.0
 10
399.706101342614
 20
360.0679075010088
 30
0.0
 10
399.730143674437
 20
360.2553261469868
 30
0.0
 10
399.7967722072855
 20
360.5060529053528
 30
0.0
 10
399.8239810154543
 20
360.58313260341
 30
0.0
 10
399.8926932609164
 20
360.7185786798998
 30
0.0
 10
399.9349795248115
 20
360.7773426766898
 30
0.0
 10
400.034718082127
 20
360.86685664268
 30
0.0
 10
400.0938385257254
 20
360.8990161513395
 30
0.0
 10
400.2262411932451
 20
360.9378819425298
 30
0.0
 10
400.2992333337443
 20
360.9451152579583
 30
0.0
 10
400.3780617845381
 20
360.9451152579584
 30
0.0
  0
LINE
  5
1D3
330
1F
100
AcDbEntity
  8
0
  6
Continuous
 62
     7
370
    15
100
AcDbLine
 10
400.3780617845
 20
360.945115258
 30
0.0
 11
400.3780617845
 21
359.8881824735
 31
0.0
  0
SPLINE
  5
1D4
330
1F
100
AcDbEntity
  8
0
  6
Continuous
 62
     7
370
    15
100
AcDbSpline
210
0.0
220
0.0
230
1.0
 70
     8
 71
     3
 72
    14
 73
    10
 74
     0
 42
0.000000001
 43
0.00000001
 40
0.0
 40
0.0
 40
0.0
 40
0.0
 40
0.2500000000000002
 40
0.2500000000000002
 40
0.5000000000000001
 40
0.5000000000000001
 40
0.75
 40
0.75
 40
1.0
 40
1.0
 40
1.0
 40
1.0
 10
400.3780617845381
 20
359.888182473492
 30
0.0
 10
400.26272190894
 20
359.7525031726116
 30
0.0
 10
400.1616842341612
 20
359.609429770344
 30
0.0
 10
399.9857096688066
 20
359.3083344999803
 30
0.0
 10
399.9104275881858
 20
359.1492397921987
 30
0.0
 10
399.788734515685
 20
358.8197465043519
 30
0.0
 10
399.7426235987161
 20
358.6507729618701
 30
0.0
 10
399.680075885817
 20
358.3037484500256
 30
0.0
 10
399.6637760702524
 20
358.1230652705955
 30
0.0
 10
399.6637760702524
 20
357.9451152579584
 30
0.0
  0
LINE
  5
1D5
330
1F
100
AcDbEntity
  8
0
  6
Continuous
 62
     7
370
    15
100
AcDbLine
 10
400.3780617845
 20
360.945115258
 30
0.0
 11
397.1637760703
 21
360.945115258
 31
0.0
  0
SPLINE
  5
1D6
330
1F
100
AcDbEntity
  8
0
  6
Continuous
 62
     7
370
    15
100
AcDbSpline
210
0.0
220
0.0
230
1.0
 70
     8
 71
     3
 72
    10
 73
     6
 74
     0
 42
0.000000001
 43
0.00000001
 40
0.0
 40
0.0
 40
0.0
 40
0.0
 40
0.5
 40
0.5
 40
1.0
 40
1.0
 40
1.0
 40
1.0
 10
399.6657551083311
 20
359.2705939161667
 30
0.0
 10
399.199038563848
 20
359.465817369383
 30
0.0
 10
398.7646624511219
 20
359.7289721046824
 30
0.0
 10
397.9434593460559
 20
360.3084166157997
 30
0.0
 10
397.554930640159
 20
360.6257396875192
 30
0.0
 10
397.1637760702524
 20
360.9451152579584
 30
0.0
  0
LINE
  5
1D7
330
1F
100
AcDbEntity
  8
0
  6
Continuous
 62
     7
370
    15
100
AcDbLine
 10
394.6637760703
 20
359.0086235849
 30
0.0
 11
394.6637760703
 21
352.745115258
 31
0.0
  0
LINE
  5
1D8
330
1F
100
AcDbEntity
  8
0
  6
Continuous
 62
     7
370
    15
100
AcDbLine
 10
399.6637760703
 20
359.0086235849
 30
0.0
 11
399.6637760703
 21
352.745115258
 31
0.0
  0
SPLINE
  5
1D9
330
1F
100
AcDbEntity
  8
0
  6
Continuous
 62
     7
370
    15
100
AcDbSpline
210
0.0
220
0.0
230
1.0
 70
     8
 71
     3
 72
    14
 73
    10
 74
     0
 42
0.000000001
 43
0.00000001
 40
0.0
 40
0.0
 40
0.0
 40
0.0
 40
0.0280348968983148
 40
0.152482325594151
 40
0.3496134613035927
 40
0.490607469082477
 40
0.6355101011300999
 40
0.9131566477147297
 40
1.0
 40
1.0
 40
1.0
 40
1.0
 10
400.3780617845397
 20
359.8881824734946
 30
0.0
 10
400.4038790230434
 20
359.917792319469
 30
0.0
 10
400.5442994633875
 20
360.0788408223772
 30
0.0
 10
400.8847061125673
 20
360.3842076006785
 30
0.0
 10
401.3071194771902
 20
360.6336654498485
 30
0.0
 10
401.6650005986276
 20
360.7790775385622
 30
0.0
 10
401.9836798785061
 20
360.8733530951631
 30
0.0
 10
402.1610982144627
 20
360.9026003419337
 30
0.0
 10
402.1516748105319
 20
360.9010609490986
 30
0.0
 10
402.1494295905962
 20
360.9006941734082
 30
0.0
  0
SPLINE
  5
1DA
330
1F
100
AcDbEntity
  8
0
  6
Continuous
 62
     7
370
    15
100
AcDbSpline
210
0.0
220
0.0
230
1.0
 70
     8
 71
     3
 72
    14
 73
    10
 74
     0
 42
0.000000001
 43
0.00000001
 40
0.0
 40
0.0
 40
0.0
 40
0.0
 40
0.0810852758773553
 40
0.2530905809900806
 40
0.4344251379388424
 40
0.6223861257187239
 40
0.8126795037756754
 40
0.9639145928826774
 40
1.0
 40
1.0
 40
1.0
 40
1.0
 10
392.1781227990202
 20
360.9006941300535
 30
0.0
 10
392.1752507588956
 20
360.9011919565019
 30
0.0
 10
392.1662862916002
 20
360.9027458167275
 30
0.0
 10
392.2792734707007
 20
360.8831721552882
 30
0.0
 10
392.5206872542216
 20
360.8259380608391
 30
0.0
 10
392.9050368369079
 20
360.6908146026051
 30
0.0
 10
393.3724682796917
 20
360.4340036118223
 30
0.0
 10
393.7432327178207
 20
360.1230327560137
 30
0.0
 10
393.9161748046217
 20
359.9261164221015
 30
0.0
 10
393.9494903559667
 20
359.888182473492
 30
0.0
  0
SPLINE
  5
1DB
330
1F
100
AcDbEntity
  8
0
  6
Continuous
 62
     7
370
    15
100
AcDbSpline
210
0.0
220
0.0
230
1.0
 70
     8
 71
     3
 72
    15
 73
    11
 74
     0
 42
0.000000001
 43
0.00000001
 40
0.0
 40
0.0
 40
0.0
 40
0.0
 40
0.2935193100798615
 40
0.4716126930383374
 40
0.5441258591377176
 40
0.7010970772192584
 40
0.8170141103531247
 40
0.9005442088597139
 40
0.9918121044808295
 40
0.9999999999999999
 40
0.9999999999999999
 40
0.9999999999999999
 40
0.9999999999999999
 10
399.6637760702524
 20
347.7451152579584
 30
0.0
 10
399.6697625019538
 20
347.6265336935202
 30
0.0
 10
399.6793812121355
 20
347.4360025460663
 30
0.0
 10
399.7287736154213
 20
347.2340783141115
 30
0.0
 10
399.7677357070428
 20
347.1052893012669
 30
0.0
 10
399.8001287105378
 20
347.0176482419648
 30
0.0
 10
399.8233179617938
 20
346.9621160333031
 30
0.0
 10
399.8332600249515
 20
346.9393429160117
 30
0.0
 10
399.8366228388081
 20
346.9317424488719
 30
0.0
 10
399.8347062013033
 20
346.9361066109046
 30
0.0
 10
399.8345484103144
 20
346.9364658992109
 30
0.0
  0
SPLINE
  5
1DC
330
1F
100
AcDbEntity
  8
0
  6
Continuous
 62
     7
370
    15
100
AcDbSpline
210
0.0
220
0.0
230
1.0
 70
     8
 71
     3
 72
    15
 73
    11
 74
     0
 42
0.000000001
 43
0.00000001
 40
0.0
 40
0.0
 40
0.0
 40
0.0
 40
0.0863980875131075
 40
0.1118901375750581
 40
0.2251056591830099
 40
0.3963412217168734
 40
0.5375372993836965
 40
0.7882145602880072
 40
0.840379917094218
 40
1.0
 40
1.0
 40
1.0
 40
1.0
 10
394.492951810887
 20
346.9363476553675
 30
0.0
 10
394.4939470520933
 20
346.9385866549387
 30
0.0
 10
394.4952359426081
 20
346.9414862789613
 30
0.0
 10
394.5030044148522
 20
346.9593862192791
 30
0.0
 10
394.5191415044871
 20
346.9972490215114
 30
0.0
 10
394.5552371491512
 20
347.0906776553513
 30
0.0
 10
394.6082726701008
 20
347.2623006327312
 30
0.0
 10
394.6412421463933
 20
347.4281270812093
 30
0.0
 10
394.6602314779212
 20
347.602993188676
 30
0.0
 10
394.662252700008
 20
347.684035023282
 30
0.0
 10
394.6637760702524
 20
347.7451152579584
 30
0.0
  0
LINE
  5
1DD
330
1F
100
AcDbEntity
  8
0
  6
Continuous
 62
     8
370
    15
100
AcDbLine
 10
381.1637760703
 20
250.745115258
 30
0.0
 11
413.1637760703
 21
250.745115258
 31
0.0
  0
LINE
  5
1DE
330
1F
100
AcDbEntity
  8
0
  6
Continuous
 62
     8
370
    15
100
AcDbLine
 10
413.1637760703
 20
253.7326162268
 30
0.0
 11
381.1637760703
 21
253.7326162268
 31
0.0
  0
LINE
  5
1DF
330
1F
100
AcDbEntity
  8
0
  6
Continuous
 62
     8
370
    15
100
AcDbLine
 10
383.4011093307
 20
257.9000701841
 30
0.0
 11
410.9264428099
 21
257.9000701841
 31
0.0
  0
LINE
  5
1E0
330
1F
100
AcDbEntity
  8
0
  6
Continuous
 62
     8
370
    15
100
AcDbLine
 10
406.356800697
 20
263.8323166989
 30
0.0
 11
399.520245599
 21
263.8323166989
 31
0.0
  0
LINE
  5
1E1
330
1F
100
AcDbEntity
  8
0
  6
Continuous
 62
     8
370
    15
100
AcDbLine
 10
394.8073065415
 20
263.8323166989
 30
0.0
 11
387.9707514435
 21
263.8323166989
 31
0.0
  0
LINE
  5
1E2
330
1F
100
AcDbEntity
  8
0
  6
Continuous
 62
     8
370
    15
100
AcDbLine
 10
389.0304594495
 20
265.0907488905
 30
0.0
 11
395.0789439761
 21
265.0907488905
 31
0.0
  0
LINE
  5
1E3
330
1F
100
AcDbEntity
  8
0
  6
Continuous
 62
     8
370
    15
100
AcDbLine
 10
399.2486081644
 20
265.0907488905
 30
0.0
 11
405.297092691
 21
265.0907488905
 31
0.0
  0
LINE
  5
1E4
330
1F
100
AcDbEntity
  8
0
  6
Continuous
 62
     8
370
    15
100
AcDbLine
 10
391.6374040267
 20
269.3080453814
 30
0.0
 11
394.6637760703
 21
269.3080453814
 31
0.0
  0
LINE
  5
1E5
330
1F
100
AcDbEntity
  8
0
  6
Continuous
 62
     8
370
    15
100
AcDbLine
 10
399.6637760703
 20
269.3080453814
 30
0.0
 11
402.6901481138
 21
269.3080453814
 31
0.0
  0
SPLINE
  5
1E6
330
1F
100
AcDbEntity
  8
0
  6
Continuous
 62
     8
370
    15
100
AcDbSpline
210
0.0
220
0.0
230
1.0
 70
     8
 71
     3
 72
    11
 73
     7
 74
     0
 42
0.000000001
 43
0.00000001
 40
0.0
 40
0.0
 40
0.0
 40
0.0
 40
0.2184822844430382
 40
0.4557452197914918
 40
0.782536210401778
 40
1.0
 40
1.0
 40
1.0
 40
1.0
 10
400.0019231575358
 20
346.1974644668892
 30
0.0
 10
399.9999145773433
 20
346.1988583253549
 30
0.0
 10
399.995724760198
 20
346.2017658578095
 30
0.0
 10
399.9280725278738
 20
346.2506411594053
 30
0.0
 10
399.8176183190384
 20
346.3324409648453
 30
0.0
 10
399.7076966463665
 20
346.4253190862921
 30
0.0
 10
399.6637760702549
 20
346.4624296988122
 30
0.0
  0
SPLINE
  5
1E7
330
1F
100
AcDbEntity
  8
0
  6
Continuous
 62
     8
370
    15
100
AcDbSpline
210
0.0
220
0.0
230
1.0
 70
     8
 71
     3
 72
    12
 73
     8
 74
     0
 42
0.000000001
 43
0.00000001
 40
0.0
 40
0.0
 40
0.0
 40
0.0
 40
0.327776792103312
 40
0.634205803776644
 40
0.7034477425835046
 40
0.9589369469604229
 40
1.0
 40
1.0
 40
1.0
 40
1.0
 10
394.66377607025
 20
346.4624296988122
 30
0.0
 10
394.5990748122006
 20
346.4085063796845
 30
0.0
 10
394.4738862254698
 20
346.304171714224
 30
0.0
 10
394.3887089272893
 20
346.2429213540794
 30
0.0
 10
394.3395465043199
 20
346.2072459131014
 30
0.0
 10
394.3169994303773
 20
346.1913243680373
 30
0.0
 10
394.3245793985314
 20
346.1967176666197
 30
0.0
 10
394.3256289829691
 20
346.1974644668892
 30
0.0
  0
ARC
  5
1E8
330
1F
100
AcDbEntity
  8
0
  6
Continuous
 62
     7
370
    15
100
AcDbCircle
 10
478.517453348
 20
215.8744830627
 30
0.0
 40
5.0
100
AcDbArc
 50
0.0
 51
180.0
  0
SPLINE
  5
1E9
330
1F
100
AcDbEntity
  8
0
  6
Continuous
 62
     7
370
    15
100
AcDbSpline
210
0.0
220
0.0
230
1.0
 70
     8
 71
     3
 72
    10
 73
     6
 74
     0
 42
0.000000001
 43
0.00000001
 40
0.0
 40
0.0
 40
0.0
 40
0.0
 40
0.4129041121395758
 40
0.8468389442372914
 40
1.0
 40
1.0
 40
1.0
 40
1.0
 10
473.5853846342287
 20
216.3161849136627
 30
0.0
 10
473.5178390733229
 20
216.1592132804096
 30
0.0
 10
473.3793076085018
 20
215.8372748732321
 30
0.0
 10
473.2078694945382
 20
215.4716845556413
 30
0.0
 10
473.105480808036
 20
215.2832637784448
 30
0.0
 10
473.0787697380948
 20
215.2341087328044
 30
0.0
  0
LINE
  5
1EA
330
1F
100
AcDbEntity
  8
0
  6
Continuous
 62
     7
370
    15
100
AcDbLine
 10
503.0691695391
 20
141.3782373826
 30
0.0
 11
505.4026464837
 21
143.6557824166
 31
0.0
  0
SPLINE
  5
1EB
330
1F
100
AcDbEntity
  8
0
  6
Continuous
 62
     7
370
    15
100
AcDbSpline
210
0.0
220
0.0
230
1.0
 70
     8
 71
     3
 72
    14
 73
    10
 74
     0
 42
0.000000001
 43
0.00000001
 40
0.0
 40
0.0
 40
0.0
 40
0.0
 40
0.0173926555646783
 40
0.2234699513790449
 40
0.4147563484955334
 40
0.5933139681035361
 40
0.7618080677966191
 40
0.9229155408629264
 40
0.9999999999999999
 40
0.9999999999999999
 40
0.9999999999999999
 40
0.9999999999999999
 10
469.5169756385459
 20
133.6025474509022
 30
0.0
 10
469.5119430929053
 20
133.5881158219088
 30
0.0
 10
469.4472823097694
 20
133.4026906913132
 30
0.0
 10
469.3002192863168
 20
133.1247948988692
 30
0.0
 10
469.1078139244214
 20
132.7931416173164
 30
0.0
 10
468.9436343861656
 20
132.5683928828481
 30
0.0
 10
468.8296219483696
 20
132.4333101265717
 30
0.0
 10
468.7687087203899
 20
132.3732451854519
 30
0.0
 10
468.7733477804935
 20
132.3774471127175
 30
0.0
 10
468.7748490884333
 20
132.3788069542857
 30
0.0
  0
SPLINE
  5
1EC
330
1F
100
AcDbEntity
  8
0
  6
Continuous
 62
     7
370
    15
100
AcDbSpline
210
0.0
220
0.0
230
1.0
 70
     8
 71
     3
 72
    14
 73
    10
 74
     0
 42
0.000000001
 43
0.00000001
 40
0.0
 40
0.0
 40
0.0
 40
0.0
 40
0.0334413232154627
 40
0.1951984408367929
 40
0.3616054985129052
 40
0.5347335850677865
 40
0.7167427399931714
 40
0.9096993487326934
 40
1.0
 40
1.0
 40
1.0
 40
1.0
 10
488.2623335499482
 20
132.3764958830318
 30
0.0
 10
488.2640698224415
 20
132.3750090951901
 30
0.0
 10
488.2742045196056
 20
132.3663306506593
 30
0.0
 10
488.2261937566668
 20
132.4109177182542
 30
0.0
 10
488.1273481620651
 20
132.5237422940001
 30
0.0
 10
487.9760914785793
 20
132.7222627840145
 30
0.0
 10
487.7951645836496
 20
133.0128795924432
 30
0.0
 10
487.6324254911189
 20
133.3131814348199
 30
0.0
 10
487.5457744954276
 20
133.5403824641603
 30
0.0
 10
487.5181506973873
 20
133.6128127380306
 30
0.0
  0
SPLINE
  5
1ED
330
1F
100
AcDbEntity
  8
0
  6
Continuous
 62
     7
370
    15
100
AcDbSpline
210
0.0
220
0.0
230
1.0
 70
     8
 71
     3
 72
    20
 73
    16
 74
     0
 42
0.000000001
 43
0.00000001
 40
0.0
 40
0.0
 40
0.0
 40
0.0
 40
0.030572702388149
 40
0.1230328108090061
 40
0.2158743703371913
 40
0.3081656175284906
 40
0.3895295237762704
 40
0.468413128409146
 40
0.5448529805930141
 40
0.6190952811168335
 40
0.6996114837119398
 40
0.7778054237209381
 40
0.8538970002884657
 40
0.9283367835162653
 40
0.9999999999999999
 40
0.9999999999999999
 40
0.9999999999999999
 40
0.9999999999999999
 10
469.0384857216157
 20
132.7057006073354
 30
0.0
 10
468.9251497107599
 20
132.6554274241327
 30
0.0
 10
468.4690549957938
 20
132.4531145582563
 30
0.0
 10
467.7218598392734
 20
132.0383049996088
 30
0.0
 10
466.8053521133596
 20
131.4588724772266
 30
0.0
 10
465.9888737526359
 20
130.8374062847608
 30
0.0
 10
465.2729994673768
 20
130.1926091635952
 30
0.0
 10
464.6582372814052
 20
129.537253754002
 30
0.0
 10
464.120562721632
 20
128.8533279261384
 30
0.0
 10
463.643085846753
 20
128.1180964407062
 30
0.0
 10
463.2358843493297
 20
127.3317312174489
 30
0.0
 10
462.9098955300539
 20
126.4976072964706
 30
0.0
 10
462.6821059273745
 20
125.6533283351647
 30
0.0
 10
462.5426093098193
 20
124.8121567574279
 30
0.0
 10
462.5263596696572
 20
124.2521843957177
 30
0.0
 10
462.5183892550659
 20
123.9775191207994
 30
0.0
  0
SPLINE
  5
1EE
330
1F
100
AcDbEntity
  8
0
  6
Continuous
 62
     7
370
    15
100
AcDbSpline
210
0.0
220
0.0
230
1.0
 70
     8
 71
     3
 72
    21
 73
    17
 74
     0
 42
0.000000001
 43
0.00000001
 40
0.0
 40
0.0
 40
0.0
 40
0.0
 40
0.0087560685586917
 40
0.0811163278290871
 40
0.1530811891286287
 40
0.2250336766244207
 40
0.297418106199903
 40
0.3706936207883676
 40
0.4453318995884316
 40
0.5218003351443793
 40
0.6005222956269012
 40
0.6818067139610179
 40
0.7657503121835028
 40
0.8521451019910397
 40
0.9404597266285035
 40
1.0
 40
1.0
 40
1.0
 40
1.0
 10
494.5127526993189
 20
123.9764820848123
 30
0.0
 10
494.5142739239851
 20
124.0100061068123
 30
0.0
 10
494.5283665681772
 20
124.3205730628004
 30
0.0
 10
494.4715171495266
 20
124.9075481916779
 30
0.0
 10
494.3383873402644
 20
125.7246513755244
 30
0.0
 10
494.114217782196
 20
126.5216795605997
 30
0.0
 10
493.8130547840273
 20
127.2949331266381
 30
0.0
 10
493.4340453759637
 20
128.0422020673221
 30
0.0
 10
492.9792100433315
 20
128.7619170318288
 30
0.0
 10
492.4484667933756
 20
129.4529624169616
 30
0.0
 10
491.8411784433202
 20
130.1142367911163
 30
0.0
 10
491.1561572607121
 20
130.7438201635732
 30
0.0
 10
490.3937716334975
 20
131.3394888221245
 30
0.0
 10
489.5537014022278
 20
131.8945254410184
 30
0.0
 10
488.752226422139
 20
132.354933931329
 30
0.0
 10
488.2109759721797
 20
132.6063540405746
 30
0.0
 10
487.9930176888425
 20
132.7075993982675
 30
0.0
  0
LINE
  5
1EF
330
1F
100
AcDbEntity
  8
0
  6
Continuous
 62
     7
370
    15
100
AcDbLine
 10
462.517453348
 20
123.9754346666
 30
0.0
 11
462.517453348
 21
121.4146465253
 31
0.0
  0
LINE
  5
1F0
330
1F
100
AcDbEntity
  8
0
  6
Continuous
 62
     7
370
    15
100
AcDbLine
 10
494.517453348
 20
121.4146465253
 30
0.0
 11
494.517453348
 21
123.9754346666
 31
0.0
  0
SPLINE
  5
1F1
330
1F
100
AcDbEntity
  8
0
  6
Continuous
 62
     7
370
    15
100
AcDbSpline
210
0.0
220
0.0
230
1.0
 70
     8
 71
     3
 72
    50
 73
    46
 74
     0
 42
0.000000001
 43
0.00000001
 40
0.0
 40
0.0
 40
0.0
 40
0.0
 40
0.0189844835716169
 40
0.0406685370632282
 40
0.0621976943586135
 40
0.0836113863997688
 40
0.1049517109589326
 40
0.1262649813567389
 40
0.1476034315831565
 40
0.1690270187599403
 40
0.1906051145277497
 40
0.2124175920988823
 40
0.2345543117684956
 40
0.2571112248478213
 40
0.2801803891553655
 40
0.3038309409883992
 40
0.3280808403094227
 40
0.352868392289732
 40
0.3780458705390946
 40
0.4033836217205461
 40
0.428692857344955
 40
0.4538994767482226
 40
0.4790093369482098
 40
0.5040863085413083
 40
0.5292290868473245
 40
0.5545284086010119
 40
0.58009301562944
 40
0.6060369824590285
 40
0.6324434257226161
 40
0.6593276524932751
 40
0.6865922814272937
 40
0.7107237319339796
 40
0.7343500173879906
 40
0.7574395522198007
 40
0.78002770305819
 40
0.8021804721737519
 40
0.8239713572832714
 40
0.8454694466479487
 40
0.8667349142151015
 40
0.8878184134190331
 40
0.9110458123673666
 40
0.9339686699181048
 40
0.9565614163130688
 40
0.9788639153322786
 40
1.0
 40
1.0
 40
1.0
 40
1.0
 10
462.5224786490324
 20
121.4146463093514
 30
0.0
 10
462.5268153449809
 20
121.122712998837
 30
0.0
 10
462.5361054096408
 20
120.4973338246364
 30
0.0
 10
462.6557613040286
 20
119.5471983298938
 30
0.0
 10
462.855534887595
 20
118.5742088106641
 30
0.0
 10
463.1372084777531
 20
117.6277208568621
 30
0.0
 10
463.4944910267201
 20
116.7122219336978
 30
0.0
 10
463.9247078873324
 20
115.8316077532217
 30
0.0
 10
464.4243942143767
 20
114.9891306022968
 30
0.0
 10
464.9906753266258
 20
114.1874085572462
 30
0.0
 10
465.6211273455945
 20
113.4284575761013
 30
0.0
 10
466.3140436493853
 20
112.713780239086
 30
0.0
 10
467.0685352636283
 20
112.044533614844
 30
0.0
 10
467.884509337266
 20
111.4218027582322
 30
0.0
 10
468.7623388706488
 20
110.8469838983805
 30
0.0
 10
469.7020714066416
 20
110.3222168905777
 30
0.0
 10
470.7021503712023
 20
109.850685893622
 30
0.0
 10
471.7580246052571
 20
109.4365004958825
 30
0.0
 10
472.8610120431384
 20
109.0841303376584
 30
0.0
 10
473.9994037753335
 20
108.7970936205788
 30
0.0
 10
475.1612673922242
 20
108.5770154550539
 30
0.0
 10
476.3372319721443
 20
108.4237751689028
 30
0.0
 10
477.5212349595408
 20
108.3364754229534
 30
0.0
 10
478.7096281387099
 20
108.314405783007
 30
0.0
 10
479.899968740365
 20
108.3576268843651
 30
0.0
 10
481.0904474464058
 20
108.4672221581391
 30
0.0
 10
482.2794404008553
 20
108.645457121846
 30
0.0
 10
483.4651087181257
 20
108.895929485409
 30
0.0
 10
484.6440244245846
 20
109.2233683351051
 30
0.0
 10
485.8093970372555
 20
109.6327820945225
 30
0.0
 10
486.9039185660296
 20
110.1080004634735
 30
0.0
 10
487.9131617028985
 20
110.6357292227926
 30
0.0
 10
488.8269196962457
 20
111.1990388589981
 30
0.0
 10
489.6781171764853
 20
111.8132085785123
 30
0.0
 10
490.4649717307229
 20
112.4749803160139
 30
0.0
 10
491.1866267891079
 20
113.1816877717227
 30
0.0
 10
491.8422438607525
 20
113.9308226925248
 30
0.0
 10
492.4306395353069
 20
114.7196745409661
 30
0.0
 10
492.9502414909088
 20
115.5451292944062
 30
0.0
 10
493.4154689055018
 20
116.4344963272685
 30
0.0
 10
493.8140062113947
 20
117.3854673356491
 30
0.0
 10
494.1336483706295
 20
118.3918456614347
 30
0.0
 10
494.3572722437135
 20
119.4099383359737
 30
0.0
 10
494.493359921033
 20
120.4174086513191
 30
0.0
 10
494.5083737701242
 20
121.085315743071
 30
0.0
 10
494.5156791184723
 20
121.4103019567833
 30
0.0
  0
SPLINE
  5
1F2
330
1F
100
AcDbEntity
  8
0
  6
Continuous
 62
     7
370
    15
100
AcDbSpline
210
0.0
220
0.0
230
1.0
 70
     8
 71
     3
 72
     9
 73
     5
 74
     0
 42
0.000000001
 43
0.00000001
 40
0.0
 40
0.0
 40
0.0
 40
0.0
 40
0.2072365699851677
 40
1.0
 40
1.0
 40
1.0
 40
1.0
 10
486.9516034988561
 20
136.0605215839942
 30
0.0
 10
486.9525876219031
 20
136.0620534190484
 30
0.0
 10
486.9573364123654
 20
136.0694451407618
 30
0.0
 10
486.9636055265639
 20
136.0747533846426
 30
0.0
 10
486.968575451039
 20
136.078961566269
 30
0.0
  0
SPLINE
  5
1F3
330
1F
100
AcDbEntity
  8
0
  6
Continuous
 62
     7
370
    15
100
AcDbSpline
210
0.0
220
0.0
230
1.0
 70
     8
 71
     3
 72
    13
 73
     9
 74
     0
 42
0.000000001
 43
0.00000001
 40
0.0
 40
0.0
 40
0.0
 40
0.0
 40
0.0118313892022112
 40
0.1918949978193417
 40
0.3886311736108902
 40
0.5818583306453415
 40
0.7779890632491563
 40
1.0
 40
1.0
 40
1.0
 40
1.0
 10
486.4407786625246
 20
134.1072041576355
 30
0.0
 10
486.4394275867727
 20
134.1178581341812
 30
0.0
 10
486.4175142954391
 20
134.2906565073114
 30
0.0
 10
486.430975162785
 20
134.6063546301788
 30
0.0
 10
486.4801666050512
 20
135.0450826215709
 30
0.0
 10
486.5869830123792
 20
135.4234613949155
 30
0.0
 10
486.7405382018555
 20
135.7722652526352
 30
0.0
 10
486.87840407132
 20
135.9605515806871
 30
0.0
 10
486.9516034988561
 20
136.0605215839942
 30
0.0
  0
LINE
  5
1F4
330
1F
100
AcDbEntity
  8
0
  6
Continuous
 62
     7
370
    15
100
AcDbLine
 10
469.5636324212
 20
133.7021438845
 30
0.0
 11
469.5267742618
 21
133.6069594536
 31
0.0
  0
SPLINE
  5
1F5
330
1F
100
AcDbEntity
  8
0
  6
Continuous
 62
     7
370
    15
100
AcDbSpline
210
0.0
220
0.0
230
1.0
 70
     8
 71
     3
 72
    17
 73
    13
 74
     0
 42
0.000000001
 43
0.00000001
 40
0.0
 40
0.0
 40
0.0
 40
0.0
 40
0.0519109947909595
 40
0.1593164220613549
 40
0.2672505495354351
 40
0.375361759012657
 40
0.481088143494719
 40
0.588746554695679
 40
0.6956334658535968
 40
0.7991702355193727
 40
0.9086648856671672
 40
1.0
 40
1.0
 40
1.0
 40
1.0
 10
468.2792309193542
 20
141.6364113785633
 30
0.0
 10
468.3591818738191
 20
141.5702094022113
 30
0.0
 10
468.6045537850497
 20
141.3670335230307
 30
0.0
 10
468.9779809329202
 20
140.9756461158237
 30
0.0
 10
469.3912875867438
 20
140.475480983481
 30
0.0
 10
469.7499643923755
 20
139.9485351735305
 30
0.0
 10
470.0493790427712
 20
139.4058861916483
 30
0.0
 10
470.2870515431874
 20
138.858316997569
 30
0.0
 10
470.460226301215
 20
138.3203279624563
 30
0.0
 10
470.5667127477211
 20
137.7991455417814
 30
0.0
 10
470.6147166074461
 20
137.3216123515033
 30
0.0
 10
470.5995812942684
 20
137.0428230752238
 30
0.0
 10
470.59269792435
 20
136.9160328532185
 30
0.0
  0
SPLINE
  5
1F6
330
1F
100
AcDbEntity
  8
0
  6
Continuous
 62
     7
370
    15
100
AcDbSpline
210
0.0
220
0.0
230
1.0
 70
     8
 71
     3
 72
    10
 73
     6
 74
     0
 42
0.000000001
 43
0.00000001
 40
0.0
 40
0.0
 40
0.0
 40
0.0
 40
0.1349109093862346
 40
0.6115971273341595
 40
1.0
 40
1.0
 40
1.0
 40
1.0
 10
486.7403198413463
 20
132.1513230498871
 30
0.0
 10
486.7179724437885
 20
132.2409152351959
 30
0.0
 10
486.6166640750883
 20
132.6470671425234
 30
0.0
 10
486.5116306546424
 20
133.3032670455527
 30
0.0
 10
486.465278254759
 20
133.8571742517853
 30
0.0
 10
486.444467212908
 20
134.1058644184113
 30
0.0
  0
SPLINE
  5
1F7
330
1F
100
AcDbEntity
  8
0
  6
Continuous
 62
     7
370
    15
100
AcDbSpline
210
0.0
220
0.0
230
1.0
 70
     8
 71
     3
 72
    11
 73
     7
 74
     0
 42
0.000000001
 43
0.00000001
 40
0.0
 40
0.0
 40
0.0
 40
0.0
 40
0.0354505178022995
 40
0.367479010568743
 40
0.7083801800769919
 40
1.0
 40
1.0
 40
1.0
 40
1.0
 10
487.5081101778812
 20
133.6103701029288
 30
0.0
 10
487.5011604393148
 20
133.6307500847626
 30
0.0
 10
487.429119656544
 20
133.8420083688149
 30
0.0
 10
487.2168835573414
 20
134.2190791013298
 30
0.0
 10
486.897703207843
 20
134.710565060667
 30
0.0
 10
486.6361137345787
 20
134.9971488868382
 30
0.0
 10
486.5155095548571
 20
135.129276555607
 30
0.0
  0
SPLINE
  5
1F8
330
1F
100
AcDbEntity
  8
0
  6
Continuous
 62
     7
370
    15
100
AcDbSpline
210
0.0
220
0.0
230
1.0
 70
     8
 71
     3
 72
    10
 73
     6
 74
     0
 42
0.000000001
 43
0.00000001
 40
0.0
 40
0.0
 40
0.0
 40
0.0
 40
0.4436980071103436
 40
0.9063328778061653
 40
1.0
 40
1.0
 40
1.0
 40
1.0
 10
470.5951623144185
 20
136.9145370816895
 30
0.0
 10
470.5674839511713
 20
136.6384602714656
 30
0.0
 10
470.5109459225734
 20
136.0745237968906
 30
0.0
 10
470.3990464548613
 20
135.4778208678413
 30
0.0
 10
470.3038027590562
 20
135.1688569256276
 30
0.0
 10
470.287766140444
 20
135.116835247297
 30
0.0
  0
SPLINE
  5
1F9
330
1F
100
AcDbEntity
  8
0
  6
Continuous
 62
     7
370
    15
100
AcDbSpline
210
0.0
220
0.0
230
1.0
 70
     8
 71
     3
 72
    18
 73
    14
 74
     0
 42
0.000000001
 43
0.00000001
 40
0.0
 40
0.0
 40
0.0
 40
0.0
 40
0.0006042602799466
 40
0.0121693541193814
 40
0.0236156859728044
 40
0.0357836822004812
 40
0.0530157205381248
 40
0.0832090317622253
 40
0.1460849316053174
 40
0.298075267674652
 40
0.5315040428809039
 40
0.7920997442580493
 40
1.0
 40
1.0
 40
1.0
 40
1.0
 10
470.2917908277221
 20
135.1026336728551
 30
0.0
 10
470.2918123619481
 20
135.1026942376168
 30
0.0
 10
470.2922460452962
 20
135.1039139670229
 30
0.0
 10
470.2907955622512
 20
135.0999724595194
 30
0.0
 10
470.2865694634477
 20
135.0897882387404
 30
0.0
 10
470.2785304084053
 20
135.0713448369727
 30
0.0
 10
470.2644691584946
 20
135.0408018242336
 30
0.0
 10
470.235657853905
 20
134.981646541361
 30
0.0
 10
470.1685941956366
 20
134.8528929408871
 30
0.0
 10
470.0447318226267
 20
134.6319678247792
 30
0.0
 10
469.8723430555474
 20
134.3230678753008
 30
0.0
 10
469.7107947059564
 20
134.0242319778224
 30
0.0
 10
469.6235296575953
 20
133.8305791177288
 30
0.0
 10
469.5848048284993
 20
133.7446435220703
 30
0.0
  0
LWPOLYLINE
  5
1FA
330
1F
100
AcDbEntity
  8
0
  6
Continuous
 62
     7
370
    15
100
AcDbPolyline
 90
       10
 70
   128
 43
0.0
 10
452.8896398754
 20
154.3585692424
 10
452.4847124061
 20
154.5465210412
 10
452.1094444436
 20
154.8152584764
 10
451.7842770867
 20
155.1501432388
 10
451.5269224207
 20
155.5329339296
 10
451.3513987278
 20
155.9427796817
 10
451.2672669018
 20
156.3573559207
 10
451.27910966
 20
156.7540803993
 10
451.3862819194
 20
157.1113432676
 10
451.5829459348
 20
157.4096841764
  0
LWPOLYLINE
  5
1FB
330
1F
100
AcDbEntity
  8
0
  6
Continuous
 62
     7
370
    15
100
AcDbPolyline
 90
       20
 70
   128
 43
0.0
 10
472.9286242673
 20
208.9087681534
 10
472.6160065184
 20
205.7632443451
 10
472.2098383029
 20
202.6529364386
 10
471.7104404762
 20
199.5803014434
 10
471.1182075411
 20
196.5477666088
 10
470.4336073361
 20
193.5577275067
 10
469.657180666
 20
190.6125461392
 10
468.7895408742
 20
187.7145490729
 10
467.831373359
 20
184.8660256006
 10
466.7834350314
 20
182.0692259333
 10
465.6465537175
 20
179.3263594222
 10
464.4216275047
 20
176.6395928138
 10
463.1096240319
 20
174.0110485381
 10
461.7115797254
 20
171.4428030318
 10
460.2285989799
 20
168.9368850984
 10
458.6618532865
 20
166.495274305
 10
457.0125803067
 20
164.1198994191
 10
455.2820828952
 20
161.8126368846
 10
453.4717280704
 20
159.5753093396
 10
451.5829459348
 20
157.4096841764
  0
LINE
  5
1FC
330
1F
100
AcDbEntity
  8
0
  6
Continuous
 62
     7
370
    15
100
AcDbLine
 10
472.9286242673
 20
214.2776426788
 30
0.0
 11
472.9286242673
 21
208.9087681534
 31
0.0
  0
ARC
  5
1FD
330
1F
100
AcDbEntity
  8
0
  6
Continuous
 62
     7
370
    15
100
AcDbCircle
 10
478.8506674645
 20
216.4249974829
 30
0.0
 40
6.299343480471952
100
AcDbArc
 50
199.9308322265
 51
210.4516748086
  0
LINE
  5
1FE
330
1F
100
AcDbEntity
  8
0
  6
Continuous
 62
     7
370
    15
100
AcDbLine
 10
481.2811549815
 20
211.095999242
 30
0.0
 11
473.4202747698
 21
213.2324180452
 31
0.0
  0
ARC
  5
1FF
330
1F
100
AcDbEntity
  8
0
  6
Continuous
 62
     7
370
    15
100
AcDbCircle
 10
478.8518240391
 20
213.175567461
 30
0.0
 40
3.197851279445394
100
AcDbArc
 50
319.4356451199
 51
335.9823389642
  0
LINE
  5
200
330
1F
100
AcDbEntity
  8
0
  6
Continuous
 62
     7
370
    15
100
AcDbLine
 10
481.772805484
 20
211.873983732
 30
0.0
 11
481.772805484
 21
206.5051092065
 31
0.0
  0
ARC
  5
201
330
1F
100
AcDbEntity
  8
0
  6
Continuous
 62
     7
370
    15
100
AcDbCircle
 10
626.9380813827
 20
220.4496077812
 30
0.0
 40
145.8334884970897
100
AcDbArc
 50
185.4869663414
 51
211.891750307
  0
LWPOLYLINE
  5
202
330
1F
100
AcDbEntity
  8
0
  6
Continuous
 62
     7
370
    15
100
AcDbPolyline
 90
       10
 70
   128
 43
0.0
 10
501.8117898759
 20
141.0625771471
 10
502.2167173452
 20
141.0304277267
 10
502.5919853077
 20
141.0951855796
 10
502.9171526646
 20
141.2533233018
 10
503.1745073306
 20
141.496227025
 10
503.3500310235
 20
141.8106656196
 10
503.4341628495
 20
142.1795114034
 10
503.4223200913
 20
142.5826730979
 10
503.3151478319
 20
142.9981902136
 10
503.1184838165
 20
143.4034292531
  0
ARC
  5
203
330
1F
100
AcDbEntity
  8
0
  6
Continuous
 62
     7
370
    15
100
AcDbCircle
 10
499.165842118
 20
123.2829587284
 30
0.0
 40
17.97542407441075
100
AcDbArc
 50
81.5354145645
 51
126.2324484324
  0
SPLINE
  5
204
330
1F
100
AcDbEntity
  8
0
  6
Continuous
 62
     7
370
    15
100
AcDbSpline
210
0.0
220
0.0
230
1.0
 70
     8
 71
     3
 72
    26
 73
    22
 74
     0
 42
0.000000001
 43
0.00000001
 40
0.0
 40
0.0
 40
0.0
 40
0.0
 40
0.1250000000000004
 40
0.1250000000000004
 40
0.1875000000000011
 40
0.1875000000000011
 40
0.2500000000000017
 40
0.2500000000000017
 40
0.3750000000000029
 40
0.3750000000000029
 40
0.5000000000000042
 40
0.5000000000000042
 40
0.6250000000000039
 40
0.6250000000000039
 40
0.6875000000000037
 40
0.6875000000000037
 40
0.7500000000000036
 40
0.7500000000000036
 40
0.8750000000000018
 40
0.8750000000000018
 40
1.0
 40
1.0
 40
1.0
 40
1.0
 10
482.9060620050764
 20
132.6969508255592
 30
0.0
 10
482.8770768335453
 20
133.1017232763324
 30
0.0
 10
482.8875018996504
 20
133.492028086864
 30
0.0
 10
482.9598086390914
 20
134.0566818570696
 30
0.0
 10
482.9934217663716
 20
134.2414083018598
 30
0.0
 10
483.0800439171424
 20
134.6037408880526
 30
0.0
 10
483.1334127539286
 20
134.7821394340618
 30
0.0
 10
483.3199693562281
 20
135.296233503906
 30
0.0
 10
483.4795602430376
 20
135.6135148390326
 30
0.0
 10
483.8679281291463
 20
136.198087152789
 30
0.0
 10
484.0996149640764
 20
136.4672780054507
 30
0.0
 10
484.6164993131729
 20
136.9339940332998
 30
0.0
 10
484.9023695210101
 20
137.1339908097197
 30
0.0
 10
485.3725919338986
 20
137.3836095680984
 30
0.0
 10
485.5372263095549
 20
137.4586844639512
 30
0.0
 10
485.87519587809
 20
137.589097873823
 30
0.0
 10
486.0485421722674
 20
137.6446091935931
 30
0.0
 10
486.5813418488415
 20
137.7827766431829
 30
0.0
 10
486.9534407919267
 20
137.8373224203844
 30
0.0
 10
487.7325075010407
 20
137.868902590955
 30
0.0
 10
488.1336838275558
 20
137.8453494446964
 30
0.0
 10
488.5412415823655
 20
137.7823978248231
 30
0.0
  0
SPLINE
  5
205
330
1F
100
AcDbEntity
  8
0
  6
Continuous
 62
     7
370
    15
100
AcDbSpline
210
0.0
220
0.0
230
1.0
 70
     8
 71
     3
 72
     8
 73
     4
 74
     0
 42
0.000000001
 43
0.00000001
 40
0.0
 40
0.0
 40
0.0
 40
0.0
 40
1.0
 40
1.0
 40
1.0
 40
1.0
 10
482.9846683080253
 20
131.9044451511693
 30
0.0
 10
482.9509603648823
 20
132.170921731633
 30
0.0
 10
482.9248147032101
 20
132.4350729348564
 30
0.0
 10
482.9060620050764
 20
132.6969508255592
 30
0.0
  0
SPLINE
  5
206
330
1F
100
AcDbEntity
  8
0
  6
Continuous
 62
     7
370
    15
100
AcDbSpline
210
0.0
220
0.0
230
1.0
 70
     8
 71
     3
 72
    14
 73
    10
 74
     0
 42
0.000000001
 43
0.00000001
 40
0.0
 40
0.0
 40
0.0
 40
0.0
 40
0.25
 40
0.25
 40
0.5
 40
0.5
 40
0.75
 40
0.75
 40
1.0
 40
1.0
 40
1.0
 40
1.0
 10
481.7096302162196
 20
135.0027509260119
 30
0.0
 10
481.7201144738098
 20
134.740398445842
 30
0.0
 10
481.7574809148412
 20
134.4764340654368
 30
0.0
 10
481.8820145875218
 20
133.9455191667523
 30
0.0
 10
481.9702940358209
 20
133.6760815314505
 30
0.0
 10
482.1916506674065
 20
133.1466803700395
 30
0.0
 10
482.3233516505207
 20
132.8886684718312
 30
0.0
 10
482.6258811082461
 20
132.3850936840747
 30
0.0
 10
482.7983734856021
 20
132.1378128776308
 30
0.0
 10
482.9846683080251
 20
131.9044451511696
 30
0.0
  0
SPLINE
  5
207
330
1F
100
AcDbEntity
  8
0
  6
Continuous
 62
     7
370
    15
100
AcDbSpline
210
0.0
220
0.0
230
1.0
 70
     8
 71
     3
 72
    14
 73
    10
 74
     0
 42
0.000000001
 43
0.00000001
 40
0.0
 40
0.0
 40
0.0
 40
0.0
 40
0.4999999999999998
 40
0.4999999999999998
 40
0.7499999999999999
 40
0.7499999999999999
 40
0.8749999999999999
 40
0.8749999999999999
 40
1.0
 40
1.0
 40
1.0
 40
1.0
 10
481.7096302162196
 20
135.0027509260119
 30
0.0
 10
481.2641534911335
 20
146.1501233249832
 30
0.0
 10
480.8079354820341
 20
157.3000197372805
 30
0.0
 10
480.0643822692425
 20
174.0383210918844
 30
0.0
 10
479.8069761762769
 20
179.6199331613583
 30
0.0
 10
479.3820863157932
 20
188.0011922130126
 30
0.0
 10
479.2339598017538
 20
190.7964262689738
 30
0.0
 10
478.9108957219605
 20
196.3930065699631
 30
0.0
 10
478.7385239889636
 20
199.193727080041
 30
0.0
 10
478.527584664203
 20
202.0017780667855
 30
0.0
  0
SPLINE
  5
208
330
1F
100
AcDbEntity
  8
0
  6
Continuous
 62
     7
370
    15
100
AcDbSpline
210
0.0
220
0.0
230
1.0
 70
     8
 71
     3
 72
    14
 73
    10
 74
     0
 42
0.000000001
 43
0.00000001
 40
0.0
 40
0.0
 40
0.0
 40
0.0
 40
0.25
 40
0.25
 40
0.5
 40
0.5
 40
0.75
 40
0.75
 40
1.0
 40
1.0
 40
1.0
 40
1.0
 10
478.5275846641982
 20
202.0017780667813
 30
0.0
 10
478.5192397764758
 20
202.1128662682304
 30
0.0
 10
478.4962838741578
 20
202.224150872824
 30
0.0
 10
478.4249294024976
 20
202.4470620856099
 30
0.0
 10
478.3757172428905
 20
202.5594807774845
 30
0.0
 10
478.2602601736199
 20
202.7743948786627
 30
0.0
 10
478.1937549769704
 20
202.8782790190043
 30
0.0
 10
478.0483557663522
 20
203.0810039093554
 30
0.0
 10
477.9686834015164
 20
203.1806528371511
 30
0.0
 10
477.8871611137626
 20
203.2753075835572
 30
0.0
  0
LINE
  5
209
330
1F
100
AcDbEntity
  8
0
  6
Continuous
 62
     7
370
    15
100
AcDbLine
 10
476.8142686375
 20
203.5668967693
 30
0.0
 11
477.8871611138
 21
203.2753075836
 31
0.0
  0
SPLINE
  5
20A
330
1F
100
AcDbEntity
  8
0
  6
Continuous
 62
     7
370
    15
100
AcDbSpline
210
0.0
220
0.0
230
1.0
 70
     8
 71
     3
 72
    14
 73
    10
 74
     0
 42
0.000000001
 43
0.00000001
 40
0.0
 40
0.0
 40
0.0
 40
0.0
 40
0.25
 40
0.25
 40
0.5
 40
0.5
 40
0.75
 40
0.75
 40
1.0
 40
1.0
 40
1.0
 40
1.0
 10
476.1738450870852
 20
202.6414740493051
 30
0.0
 10
476.1821934991349
 20
202.7480713280277
 30
0.0
 10
476.2051547931093
 20
202.8468186594871
 30
0.0
 10
476.2763912328064
 20
203.0307148821852
 30
0.0
 10
476.3255727029641
 20
203.1164270469544
 30
0.0
 10
476.4411640140572
 20
203.268794217683
 30
0.0
 10
476.5077003663436
 20
203.3365411718654
 30
0.0
 10
476.653046666969
 20
203.4601884498922
 30
0.0
 10
476.732818426702
 20
203.5165985945438
 30
0.0
 10
476.8142686375256
 20
203.5668967692936
 30
0.0
  0
SPLINE
  5
20B
330
1F
100
AcDbEntity
  8
0
  6
Continuous
 62
     7
370
    15
100
AcDbSpline
210
0.0
220
0.0
230
1.0
 70
     8
 71
     3
 72
    14
 73
    10
 74
     0
 42
0.000000001
 43
0.00000001
 40
0.0
 40
0.0
 40
0.0
 40
0.0
 40
0.1250000000000002
 40
0.1250000000000002
 40
0.2500000000000004
 40
0.2500000000000004
 40
0.5000000000000003
 40
0.5000000000000003
 40
1.0
 40
1.0
 40
1.0
 40
1.0
 10
476.173845087085
 20
202.6414740493045
 30
0.0
 10
475.9628625012079
 20
199.9475282571655
 30
0.0
 10
475.79052042051
 20
197.2408264855887
 30
0.0
 10
475.4674819051477
 20
191.8202772952849
 30
0.0
 10
475.3193553205763
 20
189.1055815192501
 30
0.0
 10
474.8944536933786
 20
180.9550640841846
 30
0.0
 10
474.637043190599
 20
175.5132639239849
 30
0.0
 10
473.8934857215494
 20
159.1790213194529
 30
0.0
 10
473.4372729279717
 20
148.2772192751284
 30
0.0
 10
472.9917995350686
 20
137.3720705046332
 30
0.0
  0
SPLINE
  5
20C
330
1F
100
AcDbEntity
  8
0
  6
Continuous
 62
     7
370
    15
100
AcDbSpline
210
0.0
220
0.0
230
1.0
 70
     8
 71
     3
 72
    14
 73
    10
 74
     0
 42
0.000000001
 43
0.00000001
 40
0.0
 40
0.0
 40
0.0
 40
0.0
 40
0.25
 40
0.25
 40
0.5
 40
0.5
 40
0.75
 40
0.75
 40
1.0
 40
1.0
 40
1.0
 40
1.0
 10
471.7167614432628
 20
134.9668207949732
 30
0.0
 10
471.9021777571423
 20
135.0983036694473
 30
0.0
 10
472.0716214486587
 20
135.2485417081811
 30
0.0
 10
472.3763372395697
 20
135.5891423067634
 30
0.0
 10
472.5096161451429
 20
135.7780933445524
 30
0.0
 10
472.7290404258874
 20
136.1828296904598
 30
0.0
 10
472.8165958412113
 20
136.4000830849741
 30
0.0
 10
472.9432396427752
 20
136.8671507540397
 30
0.0
 10
472.9813072030042
 20
137.1152191551844
 30
0.0
 10
472.9917995350686
 20
137.3720705046332
 30
0.0
  0
SPLINE
  5
20D
330
1F
100
AcDbEntity
  8
0
  6
Continuous
 62
     7
370
    15
100
AcDbSpline
210
0.0
220
0.0
230
1.0
 70
     8
 71
     3
 72
     8
 73
     4
 74
     0
 42
0.000000001
 43
0.00000001
 40
0.0
 40
0.0
 40
0.0
 40
0.0
 40
1.0
 40
1.0
 40
1.0
 40
1.0
 10
471.7953677462118
 20
135.7165994517387
 30
0.0
 10
471.776615048078
 20
135.464914724098
 30
0.0
 10
471.7504693864059
 20
135.214975182092
 30
0.0
 10
471.7167614432628
 20
134.9668207949732
 30
0.0
  0
SPLINE
  5
20E
330
1F
100
AcDbEntity
  8
0
  6
Continuous
 62
     7
370
    15
100
AcDbSpline
210
0.0
220
0.0
230
1.0
 70
     8
 71
     3
 72
    26
 73
    22
 74
     0
 42
0.000000001
 43
0.00000001
 40
0.0
 40
0.0
 40
0.0
 40
0.0
 40
0.1249999999999987
 40
0.1249999999999987
 40
0.2499999999999974
 40
0.2499999999999974
 40
0.3124999999999974
 40
0.3124999999999974
 40
0.3749999999999975
 40
0.3749999999999975
 40
0.4999999999999979
 40
0.4999999999999979
 40
0.6249999999999981
 40
0.6249999999999981
 40
0.7499999999999984
 40
0.7499999999999984
 40
0.812499999999999
 40
0.812499999999999
 40
0.8749999999999996
 40
0.8749999999999996
 40
1.0
 40
1.0
 40
1.0
 40
1.0
 10
466.1601881689226
 20
143.8650885746322
 30
0.0
 10
466.5677459237323
 20
143.7065092648036
 30
0.0
 10
466.9689222502475
 20
143.5120001523063
 30
0.0
 10
467.7479889593614
 20
143.056952705422
 30
0.0
 10
468.1200879024467
 20
142.8001498889911
 30
0.0
 10
468.6528875790207
 20
142.3723753682479
 30
0.0
 10
468.8262338731981
 20
142.2226404316864
 30
0.0
 10
469.1642034417333
 20
141.9085212479827
 30
0.0
 10
469.3288378173896
 20
141.743958160899
 30
0.0
 10
469.7990602302781
 20
141.2387466501692
 30
0.0
 10
470.0849304381153
 20
140.8833630796842
 30
0.0
 10
470.6018147872118
 20
140.1356908706501
 30
0.0
 10
470.8335016221419
 20
139.740564983417
 30
0.0
 10
471.2218695082506
 20
138.9448925302063
 30
0.0
 10
471.3814603950601
 20
138.5408644282481
 30
0.0
 10
471.5680169973596
 20
137.9253661842429
 30
0.0
 10
471.6213858341458
 20
137.7179586256684
 30
0.0
 10
471.7080079849166
 20
137.3085419504929
 30
0.0
 10
471.7416211121968
 20
137.1055448501976
 30
0.0
 10
471.8139278516378
 20
136.5015882351238
 30
0.0
 10
471.8243529177428
 20
136.1056168054218
 30
0.0
 10
471.7953677462118
 20
135.7165994517387
 30
0.0
  0
ARC
  5
20F
330
1F
100
AcDbEntity
  8
0
  6
Continuous
 62
     7
370
    15
100
AcDbCircle
 10
439.6076092199
 20
123.923470191
 30
0.0
 40
33.20704131063967
100
AcDbArc
 50
36.9074207342
 51
66.423300972
  0
ARC
  5
210
330
1F
100
AcDbEntity
  8
0
  6
Continuous
 62
     7
370
    15
100
AcDbCircle
 10
629.2715583273
 20
222.7271528152
 30
0.0
 40
145.8334884970913
100
AcDbArc
 50
185.4869663414
 51
211.891750307
  0
LINE
  5
211
330
1F
100
AcDbEntity
  8
0
  6
Continuous
 62
     7
370
    15
100
AcDbLine
 10
505.4519607611
 20
145.6809742872
 30
0.0
 11
503.1184838165
 21
143.4034292531
 31
0.0
  0
LINE
  5
212
330
1F
100
AcDbEntity
  8
0
  6
Continuous
 62
     7
370
    15
100
AcDbLine
 10
484.1062824287
 20
208.7826542405
 30
0.0
 11
481.772805484
 21
206.5051092065
 31
0.0
  0
ARC
  5
213
330
1F
100
AcDbEntity
  8
0
  6
Continuous
 62
     7
370
    15
100
AcDbCircle
 10
481.8244721285
 20
215.9487057993
 30
0.0
 40
1.694607454240687
100
AcDbArc
 50
311.1484227396
 51
357.4896779661
  0
ARC
  5
214
330
1F
100
AcDbEntity
  8
0
  6
Continuous
 62
     7
370
    15
100
AcDbCircle
 10
479.5562739722
 20
218.6153622631
 30
0.0
 40
5.195331314963578
100
AcDbArc
 50
279.397926115
 51
310.6331585534
  0
ARC
  5
215
330
1F
100
AcDbEntity
  8
0
  6
Continuous
 62
     7
370
    15
100
AcDbCircle
 10
477.5691809471
 20
213.4732980868
 30
0.0
 40
2.835487785036052
100
AcDbArc
 50
342.4765329108
 51
0.3326890162
  0
SPLINE
  5
216
330
1F
100
AcDbEntity
  8
0
  6
Continuous
 62
     7
370
    15
100
AcDbSpline
210
0.0
220
0.0
230
1.0
 70
     8
 71
     3
 72
    28
 73
    24
 74
     0
 42
0.000000001
 43
0.00000001
 40
0.0
 40
0.0
 40
0.0
 40
0.0
 40
0.0624999999999999
 40
0.0624999999999999
 40
0.1249999999999999
 40
0.1249999999999999
 40
0.1874999999999999
 40
0.1874999999999999
 40
0.2499999999999999
 40
0.2499999999999999
 40
0.3749999999999998
 40
0.3749999999999998
 40
0.4999999999999998
 40
0.4999999999999998
 40
0.6249999999999998
 40
0.6249999999999998
 40
0.7499999999999998
 40
0.7499999999999998
 40
0.8749999999999999
 40
0.8749999999999999
 40
0.9375
 40
0.9375
 40
1.0
 40
1.0
 40
1.0
 40
1.0
 10
473.7616377939534
 20
214.3892145603918
 30
0.0
 10
473.7624243034246
 20
214.4380190164452
 30
0.0
 10
473.7823701527047
 20
214.4632612332814
 30
0.0
 10
473.8549467325197
 20
214.4764955681946
 30
0.0
 10
473.9075478385071
 20
214.4647440981527
 30
0.0
 10
474.0377715272886
 20
214.417766781669
 30
0.0
 10
474.1166110712166
 20
214.3821139898128
 30
0.0
 10
474.2958429132222
 20
214.2970057454966
 30
0.0
 10
474.3953969598483
 20
214.2479975247507
 30
0.0
 10
474.7217947828079
 20
214.0914584507647
 30
0.0
 10
474.9792175228262
 20
213.9737998645765
 30
0.0
 10
475.5448300906218
 20
213.7538091093776
 30
0.0
 10
475.8581412242025
 20
213.6494584946394
 30
0.0
 10
476.5178700311612
 20
213.4704497821747
 30
0.0
 10
476.8641562516517
 20
213.3953083018593
 30
0.0
 10
477.5903632074594
 20
213.2649708881334
 30
0.0
 10
477.9565283989586
 20
213.2122566286052
 30
0.0
 10
478.6887619398095
 20
213.1033507380591
 30
0.0
 10
479.0611722483634
 20
213.0465861331918
 30
0.0
 10
479.5713648943782
 20
212.9254626917698
 30
0.0
 10
479.7358917105719
 20
212.8780801310269
 30
0.0
 10
480.0309262465088
 20
212.7650722421044
 30
0.0
 10
480.1649658483142
 20
212.6979110571476
 30
0.0
 10
480.2730842588632
 20
212.6195429346492
 30
0.0
  0
ARC
  5
217
330
1F
100
AcDbEntity
  8
0
  6
Continuous
 62
     7
370
    15
100
AcDbCircle
 10
477.1991569423
 20
215.3494034855
 30
0.0
 40
3.569103622373708
100
AcDbArc
 50
180.2965349588
 51
195.6064373127
  0
ARC
  5
218
330
1F
100
AcDbEntity
  8
0
  6
Continuous
 62
     7
370
    15
100
AcDbCircle
 10
474.9087627239
 20
215.8793750798
 30
0.0
 40
1.391317976393096
100
AcDbArc
 50
180.2014582667
 51
203.2154577226
  0
SPLINE
  5
219
330
1F
100
AcDbEntity
  8
0
  6
Continuous
 62
     7
370
    15
100
AcDbSpline
210
0.0
220
0.0
230
1.0
 70
     8
 71
     3
 72
    14
 73
    10
 74
     0
 42
0.000000001
 43
0.00000001
 40
0.0
 40
0.0
 40
0.0
 40
0.0
 40
0.2500000000000002
 40
0.2500000000000002
 40
0.5000000000000001
 40
0.5000000000000001
 40
0.75
 40
0.75
 40
1.0
 40
1.0
 40
1.0
 40
1.0
 10
473.7616377939534
 20
214.3892145603911
 30
0.0
 10
473.7608494579136
 20
214.3402967621554
 30
0.0
 10
473.7507625512334
 20
214.2792392931759
 30
0.0
 10
473.7165671979729
 20
214.1329220647038
 30
0.0
 10
473.6921964145135
 20
214.047015019979
 30
0.0
 10
473.6318583507449
 20
213.8518503136688
 30
0.0
 10
473.5962070770809
 20
213.7435535161989
 30
0.0
 10
473.5152009635291
 20
213.504535639311
 30
0.0
 10
473.4691631848963
 20
213.3716641535324
 30
0.0
 10
473.4202747698111
 20
213.2324180452085
 30
0.0
  0
SPLINE
  5
21A
330
1F
100
AcDbEntity
  8
0
  6
Continuous
 62
     7
370
    15
100
AcDbSpline
210
0.0
220
0.0
230
1.0
 70
     8
 71
     3
 72
    14
 73
    10
 74
     0
 42
0.000000001
 43
0.00000001
 40
0.0
 40
0.0
 40
0.0
 40
0.0
 40
0.2499999999999998
 40
0.2499999999999998
 40
0.4999999999999999
 40
0.4999999999999999
 40
0.7499999999999999
 40
0.7499999999999999
 40
1.0
 40
1.0
 40
1.0
 40
1.0
 10
480.2730842588632
 20
212.6195429346492
 30
0.0
 10
480.381529771106
 20
212.5409377170485
 30
0.0
 10
480.4859243116399
 20
212.4487666437577
 30
0.0
 10
480.6843727013406
 20
212.2392218309011
 30
0.0
 10
480.7790110845896
 20
212.120970644723
 30
0.0
 10
480.9529363399603
 20
211.8621381879264
 30
0.0
 10
481.0316271182818
 20
211.7227656707805
 30
0.0
 10
481.1710146902302
 20
211.4238495126388
 30
0.0
 10
481.2322665663918
 20
211.2618189976262
 30
0.0
 10
481.2811549814771
 20
211.0959992419658
 30
0.0
  0
SPLINE
  5
21B
330
1F
100
AcDbEntity
  8
0
  6
Continuous
 62
     7
370
    15
100
AcDbSpline
210
0.0
220
0.0
230
1.0
 70
     8
 71
     3
 72
     8
 73
     4
 74
     0
 42
0.000000001
 43
0.00000001
 40
0.0
 40
0.0
 40
0.0
 40
0.0
 40
0.0002619778064636
 40
0.0002619778064636
 40
0.0002619778064636
 40
0.0002619778064636
 10
481.7718818760854
 20
212.0976346640927
 30
0.0
 10
481.7724580051739
 20
212.0233515270841
 30
0.0
 10
481.7728054840312
 20
211.9488366684108
 30
0.0
 10
481.7728054840312
 20
211.8739837320074
 30
0.0
  0
SPLINE
  5
21C
330
1F
100
AcDbEntity
  8
0
  6
Continuous
 62
     7
370
    15
100
AcDbSpline
210
0.0
220
0.0
230
1.0
 70
     8
 71
     3
 72
    18
 73
    14
 74
     0
 42
0.000000001
 43
0.00000001
 40
0.0
 40
0.0
 40
0.0
 40
0.0
 40
0.1249999999999965
 40
0.1249999999999965
 40
0.249999999999993
 40
0.249999999999993
 40
0.3749999999999895
 40
0.3749999999999895
 40
0.499999999999986
 40
0.499999999999986
 40
0.749999999999993
 40
0.749999999999993
 40
1.0
 40
1.0
 40
1.0
 40
1.0
 10
480.404620932133
 20
213.4897623072291
 30
0.0
 10
480.4998908555924
 20
213.5097612678327
 30
0.0
 10
480.5966654090043
 20
213.5195308365075
 30
0.0
 10
480.7916802319526
 20
213.5104570723769
 30
0.0
 10
480.889223695791
 20
213.4909284716329
 30
0.0
 10
481.0701289179183
 20
213.4232227526102
 30
0.0
 10
481.1562304821967
 20
213.3741093779439
 30
0.0
 10
481.3086485090383
 20
213.2564265162758
 30
0.0
 10
481.3766915076689
 20
213.1870379364044
 30
0.0
 10
481.5527489110557
 20
212.9637019897335
 30
0.0
 10
481.6356172846098
 20
212.7930965872029
 30
0.0
 10
481.7442676136102
 20
212.4470561942244
 30
0.0
 10
481.7705296429226
 20
212.2719846896122
 30
0.0
 10
481.7718818760854
 20
212.0976346640927
 30
0.0
  0
SPLINE
  5
21D
330
1F
100
AcDbEntity
  8
0
  6
Continuous
 62
     7
370
    15
100
AcDbSpline
210
0.0
220
0.0
230
1.0
 70
     8
 71
     3
 72
    10
 73
     6
 74
     0
 42
0.000000001
 43
0.00000001
 40
0.0
 40
0.0
 40
0.0
 40
0.0
 40
0.5000000000000001
 40
0.5000000000000001
 40
1.0
 40
1.0
 40
1.0
 40
1.0
 10
481.7718818760854
 20
212.0976346640927
 30
0.0
 10
481.989696335333
 20
212.4775674141564
 30
0.0
 10
482.1924176642036
 20
212.9009972799673
 30
0.0
 10
482.575669366713
 20
213.7717435782416
 30
0.0
 10
482.756993922222
 20
214.220720864016
 30
0.0
 10
482.9395439563564
 20
214.6726535892846
 30
0.0
  0
SPLINE
  5
21E
330
1F
100
AcDbEntity
  8
0
  6
Continuous
 62
     7
370
    15
100
AcDbSpline
210
0.0
220
0.0
230
1.0
 70
     8
 71
     3
 72
    10
 73
     6
 74
     0
 42
0.000000001
 43
0.00000001
 40
0.0
 40
0.0
 40
0.0
 40
0.0
 40
0.5
 40
0.5
 40
1.0
 40
1.0
 40
1.0
 40
1.0
 10
484.1072060366273
 20
214.3769826374532
 30
0.0
 10
483.8893915773797
 20
214.3317282082438
 30
0.0
 10
483.6866702485091
 20
214.35943361068
 30
0.0
 10
483.3034185459996
 20
214.4820490874079
 30
0.0
 10
483.1220939904907
 20
214.5770697233062
 30
0.0
 10
482.9395439563564
 20
214.6726535892846
 30
0.0
  0
SPLINE
  5
21F
330
1F
100
AcDbEntity
  8
0
  6
Continuous
 62
     7
370
    15
100
AcDbSpline
210
0.0
220
0.0
230
1.0
 70
     8
 71
     3
 72
     8
 73
     4
 74
     0
 42
0.000000001
 43
0.00000001
 40
0.0
 40
0.0
 40
0.0
 40
0.0
 40
0.0002619778064636
 40
0.0002619778064636
 40
0.0002619778064636
 40
0.0002619778064636
 10
484.1062824286815
 20
214.1515287660288
 30
0.0
 10
484.1062824286815
 20
214.2263817024322
 30
0.0
 10
484.1066299075388
 20
214.3015748611397
 30
0.0
 10
484.1072060366273
 20
214.3769826374532
 30
0.0
  0
LINE
  5
220
330
1F
100
AcDbEntity
  8
0
  6
Continuous
 62
     7
370
    15
100
AcDbLine
 10
484.1062824287
 20
214.151528766
 30
0.0
 11
484.1062824287
 21
208.7826542405
 31
0.0
  0
SPLINE
  5
221
330
1F
100
AcDbEntity
  8
0
  6
Continuous
 62
     7
370
    15
100
AcDbSpline
210
0.0
220
0.0
230
1.0
 70
     8
 71
     3
 72
    12
 73
     8
 74
     0
 42
0.000000001
 43
0.00000001
 40
0.0
 40
0.0
 40
0.0
 40
0.0
 40
0.3200825838302734
 40
0.571333631297174
 40
0.7529526689031674
 40
0.935900536414605
 40
1.0
 40
1.0
 40
1.0
 40
1.0
 10
484.1072060366273
 20
214.3769826374532
 30
0.0
 10
484.0925868997906
 20
214.584552627605
 30
0.0
 10
484.0664923699496
 20
214.9550561233047
 30
0.0
 10
483.8867562943664
 20
215.4770315940158
 30
0.0
 10
483.697606227582
 20
215.8824182748837
 30
0.0
 10
483.5475638253378
 20
216.1396871883627
 30
0.0
 10
483.4940215508756
 20
216.243281230805
 30
0.0
 10
483.4801293503125
 20
216.2701599771639
 30
0.0
  0
SPLINE
  5
222
330
1F
100
AcDbEntity
  8
0
  6
Continuous
 62
     7
370
    15
100
AcDbSpline
210
0.0
220
0.0
230
1.0
 70
     8
 71
     3
 72
     8
 73
     4
 74
     0
 42
0.000000001
 43
0.00000001
 40
0.0
 40
0.0
 40
0.0
 40
0.0
 40
0.0002619778064636
 40
0.0002619778064636
 40
0.0002619778064636
 40
0.0002619778064636
 10
472.928624267257
 20
214.2776426788467
 30
0.0
 10
472.928624267257
 20
214.3524956152501
 30
0.0
 10
472.9282767883997
 20
214.4270104739233
 30
0.0
 10
472.9277006593111
 20
214.5012936109318
 30
0.0
  0
SPLINE
  5
223
330
1F
100
AcDbEntity
  8
0
  6
Continuous
 62
     7
370
    15
100
AcDbSpline
210
0.0
220
0.0
230
1.0
 70
     8
 71
     3
 72
    18
 73
    14
 74
     0
 42
0.000000001
 43
0.00000001
 40
0.0
 40
0.0
 40
0.0
 40
0.0
 40
0.249999999999993
 40
0.249999999999993
 40
0.499999999999986
 40
0.499999999999986
 40
0.6249999999999895
 40
0.6249999999999895
 40
0.749999999999993
 40
0.749999999999993
 40
0.8749999999999964
 40
0.8749999999999964
 40
1.0
 40
1.0
 40
1.0
 40
1.0
 10
472.9277006593111
 20
214.5012936109318
 30
0.0
 10
472.926349396729
 20
214.6755184947549
 30
0.0
 10
472.9466482277484
 20
214.8382537603468
 30
0.0
 10
473.0269412324256
 20
215.1342577819908
 30
0.0
 10
473.0866187936322
 20
215.2646868591396
 30
0.0
 10
473.2013961326734
 20
215.4096067026626
 30
0.0
 10
473.243337370744
 20
215.4484332068351
 30
0.0
 10
473.3312054667535
 20
215.5006381317115
 30
0.0
 10
473.3777387841782
 20
215.5137366785991
 30
0.0
 10
473.4652355759304
 20
215.508602939003
 30
0.0
 10
473.5074813398615
 20
215.4902589228746
 30
0.0
 10
473.5790035668088
 20
215.4270309279291
 30
0.0
 10
473.6083794407485
 20
215.382740615876
 30
0.0
 10
473.6301011206836
 20
215.3309316315805
 30
0.0
  0
SPLINE
  5
224
330
1F
100
AcDbEntity
  8
0
  6
Continuous
 62
     7
370
    15
100
AcDbSpline
210
0.0
220
0.0
230
1.0
 70
     8
 71
     3
 72
    14
 73
    10
 74
     0
 42
0.000000001
 43
0.00000001
 40
0.0
 40
0.0
 40
0.0
 40
0.0
 40
0.25
 40
0.25
 40
0.5
 40
0.5
 40
0.75
 40
0.75
 40
1.0
 40
1.0
 40
1.0
 40
1.0
 10
478.5275846641982
 20
202.0017780667813
 30
0.0
 10
478.3084136982211
 20
201.9206365812755
 30
0.0
 10
478.0793991535006
 20
201.8759402609111
 30
0.0
 10
477.6263744396904
 20
201.8554247456562
 30
0.0
 10
477.401489414896
 20
201.8799097136413
 30
0.0
 10
476.9815893962442
 20
201.9939922866302
 30
0.0
 10
476.7861788358892
 20
202.0835327437596
 30
0.0
 10
476.4422755850701
 20
202.3208524650095
 30
0.0
 10
476.2942312017948
 20
202.4680543328335
 30
0.0
 10
476.1738450870852
 20
202.6414740493051
 30
0.0
  0
LWPOLYLINE
  5
225
330
1F
100
AcDbEntity
  8
0
  6
Continuous
 62
     7
370
    15
100
AcDbPolyline
 90
       17
 70
   128
 43
0.0
 10
472.9917995351
 20
137.3720705046
 10
473.0318545197
 20
136.9810718024
 10
473.1757156543
 20
136.5966037798
 10
473.4206605978
 20
136.2259418769
 10
473.7620541605
 20
135.8761002751
 10
474.1934360173
 20
135.553699165
 10
474.7066429593
 20
135.2648394698
 10
475.2919633691
 20
135.0149873955
 10
475.9383209977
 20
134.8088709916
 10
476.633484565
 20
134.6503906798
 10
477.3642992164
 20
134.5425454458
 10
478.1169354583
 20
134.4873760873
 10
478.8771508581
 20
134.485926596
 10
479.6305595601
 20
134.538224401
 10
480.3629045142
 20
134.6432798505
 10
481.0603272682
 20
134.7991049387
 10
481.7096302162
 20
135.002750926
  0
SPLINE
  5
226
330
1F
100
AcDbEntity
  8
0
  6
Continuous
 62
     7
370
    15
100
AcDbSpline
210
0.0
220
0.0
230
1.0
 70
     8
 71
     3
 72
    22
 73
    18
 74
     0
 42
0.000000001
 43
0.00000001
 40
0.0
 40
0.0
 40
0.0
 40
0.0
 40
0.125
 40
0.125
 40
0.25
 40
0.25
 40
0.375
 40
0.375
 40
0.5
 40
0.5
 40
0.625
 40
0.625
 40
0.75
 40
0.75
 40
0.875
 40
0.875
 40
1.0
 40
1.0
 40
1.0
 40
1.0
 10
476.8142686375256
 20
203.5668967692936
 30
0.0
 10
476.8064306073844
 20
203.4850986878103
 30
0.0
 10
476.8051186244443
 20
203.3985049356164
 30
0.0
 10
476.8209770908321
 20
203.2149724214066
 30
0.0
 10
476.8387327214062
 20
203.1184707994745
 30
0.0
 10
476.9097875543904
 20
202.9344184692771
 30
0.0
 10
476.9631936041583
 20
202.8500863330774
 30
0.0
 10
477.1005500009969
 20
202.7191214790356
 30
0.0
 10
477.1832866144799
 20
202.6726766024681
 30
0.0
 10
477.3577262328947
 20
202.6251751828754
 30
0.0
 10
477.4496441740359
 20
202.6240137106163
 30
0.0
 10
477.6196255821556
 20
202.6715608094072
 30
0.0
 10
477.6954847944994
 20
202.720608864162
 30
0.0
 10
477.8095304985451
 20
202.8530654415712
 30
0.0
 10
477.8469071240027
 20
202.9336195581941
 30
0.0
 10
477.8893445394042
 20
203.1013856234678
 30
0.0
 10
477.8949999183874
 20
203.1892405812594
 30
0.0
 10
477.8871611137626
 20
203.2753075835572
 30
0.0
  0
ARC
  5
227
330
1F
100
AcDbEntity
  8
0
  6
Continuous
 62
     7
370
    15
100
AcDbCircle
 10
504.1626364736
 20
144.6991735311
 30
0.0
 40
1.620583179919099
100
AcDbArc
 50
319.9214801533
 51
37.2887182961
  0
SPLINE
  5
228
330
1F
100
AcDbEntity
  8
0
  6
Continuous
 62
     7
370
    15
100
AcDbSpline
210
0.0
220
0.0
230
1.0
 70
     8
 71
     3
 72
     8
 73
     4
 74
     0
 42
0.000000001
 43
0.00000001
 40
0.0
 40
0.0
 40
0.0
 40
0.0
 40
1.0
 40
1.0
 40
1.0
 40
1.0
 10
486.6046489475236
 20
135.7286058958555
 30
0.0
 10
486.6197386489747
 20
135.7243172698058
 30
0.0
 10
486.6327271040996
 20
135.716469663959
 30
0.0
 10
486.6440691665551
 20
135.7053563454684
 30
0.0
  0
SPLINE
  5
229
330
1F
100
AcDbEntity
  8
0
  6
Continuous
 62
     7
370
    15
100
AcDbSpline
210
0.0
220
0.0
230
1.0
 70
     8
 71
     3
 72
    20
 73
    16
 74
     0
 42
0.000000001
 43
0.00000001
 40
0.0
 40
0.0
 40
0.0
 40
0.0
 40
0.2500000000000006
 40
0.2500000000000006
 40
0.3750000000000006
 40
0.3750000000000006
 40
0.5000000000000007
 40
0.5000000000000007
 40
0.7500000000000008
 40
0.7500000000000008
 40
0.8750000000000007
 40
0.8750000000000007
 40
0.9375000000000004
 40
0.9375000000000004
 40
1.0
 40
1.0
 40
1.0
 40
1.0
 10
488.5412415823655
 20
137.7823978248231
 30
0.0
 10
488.2368151507162
 20
137.545697557079
 30
0.0
 10
487.9816501518811
 20
137.3351122459687
 30
0.0
 10
487.6525652211142
 20
137.0425633039551
 30
0.0
 10
487.5515951559196
 20
136.9486799403467
 30
0.0
 10
487.3683444403455
 20
136.7698943623993
 30
0.0
 10
487.2858970414764
 20
136.6848974783094
 30
0.0
 10
487.0610970778039
 20
136.439615471581
 30
0.0
 10
486.9410883288764
 20
136.2889518565946
 30
0.0
 10
486.7909905824251
 20
136.0708010826318
 30
0.0
 10
486.7459199075694
 20
135.9993272136994
 30
0.0
 10
486.6851839982339
 20
135.8936825454243
 30
0.0
 10
486.6660535156452
 20
135.8586930125378
 30
0.0
 10
486.631063150186
 20
135.7903610797975
 30
0.0
 10
486.6138769481018
 20
135.7555396627214
 30
0.0
 10
486.6046489475228
 20
135.7286058958546
 30
0.0
  0
SPLINE
  5
22A
330
1F
100
AcDbEntity
  8
0
  6
Continuous
 62
     7
370
    15
100
AcDbSpline
210
0.0
220
0.0
230
1.0
 70
     8
 71
     3
 72
    10
 73
     6
 74
     0
 42
0.000000001
 43
0.00000001
 40
0.0
 40
0.0
 40
0.0
 40
0.0
 40
0.4678265095740055
 40
0.9389455333051694
 40
1.0
 40
1.0
 40
1.0
 40
1.0
 10
486.9771472854105
 20
136.0921756930981
 30
0.0
 10
487.1689460315581
 20
136.3200646327064
 30
0.0
 10
487.5538933834144
 20
136.7774463704998
 30
0.0
 10
487.9688888026665
 20
137.2618161420562
 30
0.0
 10
488.1959441395898
 20
137.4977504352757
 30
0.0
 10
488.2219934313254
 20
137.5248183796711
 30
0.0
  0
SPLINE
  5
22B
330
1F
100
AcDbEntity
  8
0
  6
Continuous
 62
     7
370
    15
100
AcDbSpline
210
0.0
220
0.0
230
1.0
 70
     8
 71
     3
 72
     8
 73
     4
 74
     0
 42
0.000000001
 43
0.00000001
 40
0.0
 40
0.0
 40
0.0
 40
0.0
 40
1.0
 40
1.0
 40
1.0
 40
1.0
 10
486.9771472854105
 20
136.0921756930982
 30
0.0
 10
486.866072591431
 20
135.9647467493596
 30
0.0
 10
486.7550978796891
 20
135.8359072923853
 30
0.0
 10
486.6440691665551
 20
135.7053563454684
 30
0.0
  0
SPLINE
  5
22C
330
1F
100
AcDbEntity
  8
0
  6
Continuous
 62
     7
370
    15
100
AcDbSpline
210
0.0
220
0.0
230
1.0
 70
     8
 71
     3
 72
    18
 73
    14
 74
     0
 42
0.000000001
 43
0.00000001
 40
0.0
 40
0.0
 40
0.0
 40
0.0
 40
0.2499999999999993
 40
0.2499999999999993
 40
0.4999999999999989
 40
0.4999999999999989
 40
0.7499999999999984
 40
0.7499999999999984
 40
0.8749999999999994
 40
0.8749999999999994
 40
0.9374999999999997
 40
0.9374999999999997
 40
1.0
 40
1.0
 40
1.0
 40
1.0
 10
487.4760346247853
 20
131.5700997474296
 30
0.0
 10
487.4312463537684
 20
131.4699231248191
 30
0.0
 10
487.3754992187917
 20
131.3828128245843
 30
0.0
 10
487.2443525329536
 20
131.2436590548218
 30
0.0
 10
487.1678461773077
 20
131.1904679232152
 30
0.0
 10
486.9989758445046
 20
131.1324536355461
 30
0.0
 10
486.9061339416385
 20
131.1266305290999
 30
0.0
 10
486.7639597937369
 20
131.17540526044
 30
0.0
 10
486.7161069778963
 20
131.2014411425862
 30
0.0
 10
486.6485531392748
 20
131.2613858977991
 30
0.0
 10
486.6265531114719
 20
131.2850668373615
 30
0.0
 10
486.5861750754529
 20
131.3414744606859
 30
0.0
 10
486.5667239718065
 20
131.3744608842564
 30
0.0
 10
486.5537624824789
 20
131.416167413889
 30
0.0
  0
SPLINE
  5
22D
330
1F
100
AcDbEntity
  8
0
  6
Continuous
 62
     7
370
    15
100
AcDbSpline
210
0.0
220
0.0
230
1.0
 70
     8
 71
     3
 72
    18
 73
    14
 74
     0
 42
0.000000001
 43
0.00000001
 40
0.0
 40
0.0
 40
0.0
 40
0.0
 40
0.249999999999999
 40
0.249999999999999
 40
0.4999999999999982
 40
0.4999999999999982
 40
0.7499999999999974
 40
0.7499999999999974
 40
0.8749999999999972
 40
0.8749999999999972
 40
0.9374999999999986
 40
0.9374999999999986
 40
1.0
 40
1.0
 40
1.0
 40
1.0
 10
485.2765276983462
 20
129.4233135582209
 30
0.0
 10
485.4118173119285
 20
129.498896927487
 30
0.0
 10
485.5376875379138
 20
129.589154000384
 30
0.0
 10
485.7695045485899
 20
129.8040921476874
 30
0.0
 10
485.8740995037076
 20
129.9276720014843
 30
0.0
 10
486.0545665438277
 20
130.2106073653187
 30
0.0
 10
486.1305837372632
 20
130.3699339643676
 30
0.0
 10
486.2125791870935
 20
130.6363503315548
 30
0.0
 10
486.2348631466291
 20
130.7309283648048
 30
0.0
 10
486.2559974325468
 20
130.8777004441857
 30
0.0
 10
486.2610456541553
 20
130.9277059018999
 30
0.0
 10
486.2651589390263
 20
131.0282828493232
 30
0.0
 10
486.2647847500921
 20
131.0800324163781
 30
0.0
 10
486.2567932516122
 20
131.1263218674629
 30
0.0
  0
ARC
  5
22E
330
1F
100
AcDbEntity
  8
0
  6
Continuous
 62
     7
370
    15
100
AcDbCircle
 10
483.0515077394
 20
134.7073787858
 30
0.0
 40
4.806019545026923
100
AcDbArc
 50
311.8306709725
 51
316.7793962656
  0
SPLINE
  5
22F
330
1F
100
AcDbEntity
  8
0
  6
Continuous
 62
     7
370
    15
100
AcDbSpline
210
0.0
220
0.0
230
1.0
 70
     8
 71
     3
 72
    12
 73
     8
 74
     0
 42
0.000000001
 43
0.00000001
 40
0.0
 40
0.0
 40
0.0
 40
0.0
 40
0.499977839558493
 40
0.7499400157918955
 40
0.8748189618207814
 40
0.9375311308585094
 40
1.0
 40
1.0
 40
1.0
 40
1.0
 10
486.6046489475235
 20
135.7286058958555
 30
0.0
 10
486.6028879379966
 20
135.7231453969021
 30
0.0
 10
486.6002465179018
 20
135.7149549405512
 30
0.0
 10
486.6002896987528
 20
135.7089084265525
 30
0.0
 10
486.6018488381303
 20
135.7076702252386
 30
0.0
 10
486.6033594041511
 20
135.7076951045307
 30
0.0
 10
486.6044661619305
 20
135.7081298398654
 30
0.0
 10
486.6050184652817
 20
135.7083467850604
 30
0.0
  0
SPLINE
  5
230
330
1F
100
AcDbEntity
  8
0
  6
Continuous
 62
     7
370
    15
100
AcDbSpline
210
0.0
220
0.0
230
1.0
 70
     8
 71
     3
 72
    17
 73
    13
 74
     0
 42
0.000000001
 43
0.00000001
 40
0.0
 40
0.0
 40
0.0
 40
0.0
 40
0.0258160818098612
 40
0.0735061456815721
 40
0.1447621012918836
 40
0.2374508900624348
 40
0.348069943208964
 40
0.4722081966645544
 40
0.6047765667712963
 40
0.7402918773788153
 40
0.873402401019815
 40
1.0
 40
1.0
 40
1.0
 40
1.0
 10
486.6050184652817
 20
135.7083467850603
 30
0.0
 10
486.6047446156747
 20
135.707776642779
 30
0.0
 10
486.6039648835198
 20
135.7061532763093
 30
0.0
 10
486.5981765533506
 20
135.6985083769417
 30
0.0
 10
486.5904237156659
 20
135.6882673883364
 30
0.0
 10
486.5794083076639
 20
135.6740842436001
 30
0.0
 10
486.5663358206368
 20
135.6573723971273
 30
0.0
 10
486.5516628387875
 20
135.6387253713405
 30
0.0
 10
486.5362984102035
 20
135.619212248467
 30
0.0
 10
486.5213190511897
 20
135.6000336396564
 30
0.0
 10
486.5074571288378
 20
135.5820226743544
 30
0.0
 10
486.500551018974
 20
135.5723164569266
 30
0.0
 10
486.4971845592798
 20
135.567585053807
 30
0.0
  0
SPLINE
  5
231
330
1F
100
AcDbEntity
  8
0
  6
Continuous
 62
     7
370
    15
100
AcDbSpline
210
0.0
220
0.0
230
1.0
 70
     8
 71
     3
 72
    12
 73
     8
 74
     0
 42
0.000000001
 43
0.00000001
 40
0.0
 40
0.0
 40
0.0
 40
0.0
 40
0.2499999999999991
 40
0.2499999999999991
 40
0.4999999999999982
 40
0.4999999999999982
 40
1.0
 40
1.0
 40
1.0
 40
1.0
 10
486.4971845592797
 20
135.567585053807
 30
0.0
 10
486.3864679170889
 20
135.411238829386
 30
0.0
 10
486.2909545868517
 20
135.2448061056914
 30
0.0
 10
486.1297991853082
 20
134.8923528413999
 30
0.0
 10
486.0638526441246
 20
134.7048901165082
 30
0.0
 10
485.9156694126341
 20
134.1239084112086
 30
0.0
 10
485.8813477407128
 20
133.7143825343185
 30
0.0
 10
485.9129742793198
 20
133.2823888706787
 30
0.0
  0
ARC
  5
232
330
1F
100
AcDbEntity
  8
0
  6
Continuous
 62
     7
370
    15
100
AcDbCircle
 10
483.7435843556
 20
136.4100223403
 30
0.0
 40
3.806355706050815
100
AcDbArc
 50
257.2890521202
 51
304.745960404
  0
SPLINE
  5
233
330
1F
100
AcDbEntity
  8
0
  6
Continuous
 62
     7
370
    15
100
AcDbSpline
210
0.0
220
0.0
230
1.0
 70
     8
 71
     3
 72
    12
 73
     8
 74
     0
 42
0.000000001
 43
0.00000001
 40
0.0
 40
0.0
 40
0.0
 40
0.0
 40
0.2500000000000001
 40
0.2500000000000001
 40
0.5000000000000001
 40
0.5000000000000001
 40
1.0
 40
1.0
 40
1.0
 40
1.0
 10
484.4973885692046
 20
130.8719409977469
 30
0.0
 10
484.3507476656606
 20
130.9129319161334
 30
0.0
 10
484.2073863798514
 20
130.9665386049171
 30
0.0
 10
483.9281630882539
 20
131.0984094874235
 30
0.0
 10
483.7920671341022
 20
131.1771305701513
 30
0.0
 10
483.4088765303949
 20
131.4414713875723
 30
0.0
 10
483.1803588106185
 20
131.6593076476884
 30
0.0
 10
482.9846683080253
 20
131.9044451511693
 30
0.0
  0
LWPOLYLINE
  5
234
330
1F
100
AcDbEntity
  8
0
  6
Continuous
 62
     7
370
    15
100
AcDbPolyline
 90
       25
 70
   128
 43
0.0
 10
470.5915550766
 20
134.6512485751
 10
470.4397675754
 20
134.2003595937
 10
470.3843796999
 20
133.7436336015
 10
470.4260524525
 20
133.2865211959
 10
470.5642885079
 20
132.8344775861
 10
470.7974381481
 20
132.3928974899
 10
471.1227189502
 20
131.9670507526
 10
471.5362489919
 20
131.562019457
 10
472.033093179
 20
131.1826372726
 10
472.6073221407
 20
130.8334317712
 10
473.2520829914
 20
130.5185703937
 10
473.9596811132
 20
130.2418107164
 10
474.7216719843
 20
130.006455607
 10
475.5289619563
 20
129.8153138088
 10
476.3719167783
 20
129.6706664204
 10
477.2404765729
 20
129.574239673
 10
478.124275891
 20
129.5271843298
 10
479.0127674144
 20
129.5300619521
 10
479.8953478276
 20
129.5828381984
 10
480.7614843588
 20
129.6848832335
 10
481.6008404784
 20
129.8349792453
 10
482.4033992561
 20
130.0313349782
 10
483.1595829034
 20
130.2716071102
 10
483.8603670757
 20
130.5529282182
 10
484.4973885692
 20
130.8719409977
  0
SPLINE
  5
235
330
1F
100
AcDbEntity
  8
0
  6
Continuous
 62
     7
370
    15
100
AcDbSpline
210
0.0
220
0.0
230
1.0
 70
     8
 71
     3
 72
    12
 73
     8
 74
     0
 42
0.000000001
 43
0.00000001
 40
0.0
 40
0.0
 40
0.0
 40
0.0
 40
0.5
 40
0.5
 40
0.75
 40
0.75
 40
1.0
 40
1.0
 40
1.0
 40
1.0
 10
471.7167614432628
 20
134.9668207949732
 30
0.0
 10
471.520381323596
 20
134.8275632394588
 30
0.0
 10
471.3178785768998
 20
134.7292449481001
 30
0.0
 10
471.0237783351599
 20
134.6480156547234
 30
0.0
 10
470.9268863275331
 20
134.6322268459771
 30
0.0
 10
470.7481174565793
 20
134.6245812512976
 30
0.0
 10
470.665340006547
 20
134.6323365010267
 30
0.0
 10
470.5915550766318
 20
134.6512485750591
 30
0.0
  0
SPLINE
  5
236
330
1F
100
AcDbEntity
  8
0
  6
Continuous
 62
     7
370
    15
100
AcDbSpline
210
0.0
220
0.0
230
1.0
 70
     8
 71
     3
 72
    13
 73
     9
 74
     0
 42
0.000000001
 43
0.00000001
 40
0.0
 40
0.0
 40
0.0
 40
0.0
 40
0.062463035452348
 40
0.1251693480792018
 40
0.2500366322190075
 40
0.4999754655932843
 40
0.7499515592578604
 40
0.9999999999999999
 40
0.9999999999999999
 40
0.9999999999999999
 40
0.9999999999999999
 10
486.8744603315616
 20
135.971330306672
 30
0.0
 10
486.8765571224499
 20
135.9736989569013
 30
0.0
 10
486.880758870678
 20
135.9784454826327
 30
0.0
 10
486.8892840737325
 20
135.9882158570295
 30
0.0
 10
486.9043172041711
 20
136.0056482396492
 30
0.0
 10
486.9258453156398
 20
136.0310122753571
 30
0.0
 10
486.95155286176
 20
136.0615729212373
 30
0.0
 10
486.9686149879713
 20
136.0819737852315
 30
0.0
 10
486.9771472854113
 20
136.092175693099
 30
0.0
  0
SPLINE
  5
237
330
1F
100
AcDbEntity
  8
0
  6
Continuous
 62
     7
370
    15
100
AcDbSpline
210
0.0
220
0.0
230
1.0
 70
     8
 71
     3
 72
    12
 73
     8
 74
     0
 42
0.000000001
 43
0.00000001
 40
0.0
 40
0.0
 40
0.0
 40
0.0
 40
0.5000000000000018
 40
0.5000000000000018
 40
0.7500000000000009
 40
0.7500000000000009
 40
1.0
 40
1.0
 40
1.0
 40
1.0
 10
486.2173275948385
 20
133.5794470370072
 30
0.0
 10
486.1869143110758
 20
134.012624874569
 30
0.0
 10
486.2198303456873
 20
134.420778806353
 30
0.0
 10
486.3626070457736
 20
134.9964835712573
 30
0.0
 10
486.4262114899477
 20
135.1816603376673
 30
0.0
 10
486.5820125251888
 20
135.528887576302
 30
0.0
 10
486.6745033626343
 20
135.692370254373
 30
0.0
 10
486.7819899228425
 20
135.8455638197563
 30
0.0
  0
SPLINE
  5
238
330
1F
100
AcDbEntity
  8
0
  6
Continuous
 62
     7
370
    15
100
AcDbSpline
210
0.0
220
0.0
230
1.0
 70
     8
 71
     3
 72
    16
 73
    12
 74
     0
 42
0.000000001
 43
0.00000001
 40
0.0
 40
0.0
 40
0.0
 40
0.0
 40
0.1411098745710826
 40
0.2898040949441298
 40
0.4400592102494487
 40
0.5844025237418565
 40
0.7154725367138539
 40
0.8267199022074243
 40
0.9128184051253857
 40
0.9702268048712236
 40
1.0
 40
1.0
 40
1.0
 40
1.0
 10
486.7819899228425
 20
135.8455638197563
 30
0.0
 10
486.787654998647
 20
135.8527044432257
 30
0.0
 10
486.7992896356367
 20
135.8673694829914
 30
0.0
 10
486.8138184849074
 20
135.8865343240094
 30
0.0
 10
486.8270471616584
 20
135.904492990903
 30
0.0
 10
486.8386590254948
 20
135.9207662499519
 30
0.0
 10
486.8487448073691
 20
135.935212463343
 30
0.0
 10
486.8571249691168
 20
135.9474455134643
 30
0.0
 10
486.8641768861972
 20
135.9575225841355
 30
0.0
 10
486.8690370000462
 20
135.9646300960834
 30
0.0
 10
486.8730797133975
 20
135.9696246332468
 30
0.0
 10
486.8744603315616
 20
135.9713303066719
 30
0.0
  0
ARC
  5
239
330
1F
100
AcDbEntity
  8
0
  6
Continuous
 62
     7
370
    15
100
AcDbCircle
 10
481.8928619462
 20
128.5372632655
 30
0.0
 40
3.497753428017603
100
AcDbArc
 50
14.674049784
 51
41.8728067048
  0
ARC
  5
23A
330
1F
100
AcDbEntity
  8
0
  6
Continuous
 62
     7
370
    15
100
AcDbCircle
 10
471.1365954588
 20
133.0268796515
 30
0.0
 40
1.713371943868226
100
AcDbArc
 50
108.5486511944
 51
157.0476483322
  0
ARC
  5
23B
330
1F
100
AcDbEntity
  8
0
  6
Continuous
 62
     7
370
    15
100
AcDbCircle
 10
483.0638295844
 20
139.3752361191
 30
0.0
 40
5.127000391876493
100
AcDbArc
 50
312.0409476247
 51
314.2916333228
  0
ARC
  5
23C
330
1F
100
AcDbEntity
  8
0
  6
Continuous
 62
     7
370
    15
100
AcDbCircle
 10
483.309309798
 20
139.1236667602
 30
0.0
 40
4.775506898462347
100
AcDbArc
 50
314.2911552474
 51
316.6509737698
  0
ARC
  5
23D
330
1F
100
AcDbEntity
  8
0
  6
Continuous
 62
     7
370
    15
100
AcDbCircle
 10
482.8561192283
 20
136.7187570065
 30
0.0
 40
4.599237846439525
100
AcDbArc
 50
311.655006698
 51
316.95506054
  0
SPLINE
  5
23E
330
1F
100
AcDbEntity
  8
0
  6
Continuous
 62
     7
370
    15
100
AcDbSpline
210
0.0
220
0.0
230
1.0
 70
     8
 71
     3
 72
     8
 73
     4
 74
     0
 42
0.000000001
 43
0.00000001
 40
0.0
 40
0.0
 40
0.0
 40
0.0
 40
1.0
 40
1.0
 40
1.0
 40
1.0
 10
485.9129742793198
 20
133.2823888706787
 30
0.0
 10
485.9645442563697
 20
132.5716651180783
 30
0.0
 10
486.0796705042968
 20
131.8504627104724
 30
0.0
 10
486.2567932516121
 20
131.126321867463
 30
0.0
  0
SPLINE
  5
23F
330
1F
100
AcDbEntity
  8
0
  6
Continuous
 62
     7
370
    15
100
AcDbSpline
210
0.0
220
0.0
230
1.0
 70
     8
 71
     3
 72
    14
 73
    10
 74
     0
 42
0.000000001
 43
0.00000001
 40
0.0
 40
0.0
 40
0.0
 40
0.0
 40
0.25
 40
0.25
 40
0.5
 40
0.5
 40
0.75
 40
0.75
 40
1.0
 40
1.0
 40
1.0
 40
1.0
 10
486.2567932516121
 20
131.126321867463
 30
0.0
 10
486.1653930103163
 20
131.0443344224394
 30
0.0
 10
486.0551064501373
 20
130.9758130188629
 30
0.0
 10
485.7988015410411
 20
130.8656535230769
 30
0.0
 10
485.653204993764
 20
130.8249786282989
 30
0.0
 10
485.3443925551549
 20
130.7780782135484
 30
0.0
 10
485.1773624887297
 20
130.7714504864093
 30
0.0
 10
484.8405951444363
 20
130.7945908927861
 30
0.0
 10
484.6677228974015
 20
130.8243269938995
 30
0.0
 10
484.4973885692046
 20
130.8719409977469
 30
0.0
  0
SPLINE
  5
240
330
1F
100
AcDbEntity
  8
0
  6
Continuous
 62
     7
370
    15
100
AcDbSpline
210
0.0
220
0.0
230
1.0
 70
     8
 71
     3
 72
    10
 73
     6
 74
     0
 42
0.000000001
 43
0.00000001
 40
0.0
 40
0.0
 40
0.0
 40
0.0
 40
0.2905044959301961
 40
0.6404359123900906
 40
1.0
 40
1.0
 40
1.0
 40
1.0
 10
468.2941300313335
 20
141.6538606465612
 30
0.0
 10
468.0835830842404
 20
141.8328225180417
 30
0.0
 10
467.6194187492592
 20
142.227355515122
 30
0.0
 10
466.8879226493129
 20
142.9656957589612
 30
0.0
 10
466.4049520590746
 20
143.5625896684099
 30
0.0
 10
466.1601881689226
 20
143.8650885746322
 30
0.0
  0
SPLINE
  5
241
330
1F
100
AcDbEntity
  8
0
  6
Continuous
 62
     7
370
    15
100
AcDbSpline
210
0.0
220
0.0
230
1.0
 70
     8
 71
     3
 72
     8
 73
     4
 74
     0
 42
0.000000001
 43
0.00000001
 40
0.0
 40
0.0
 40
0.0
 40
0.0
 40
1.0
 40
1.0
 40
1.0
 40
1.0
 10
486.5537619092767
 20
131.4161723813386
 30
0.0
 10
486.3801943775783
 20
132.1437832237804
 30
0.0
 10
486.2677124026707
 20
132.8675665229171
 30
0.0
 10
486.2173275948388
 20
133.5794470370072
 30
0.0
  0
SPLINE
  5
242
330
1F
100
AcDbEntity
  8
0
  6
Continuous
 62
     7
370
    15
100
AcDbSpline
210
0.0
220
0.0
230
1.0
 70
     8
 71
     3
 72
    10
 73
     6
 74
     0
 42
0.000000001
 43
0.00000001
 40
0.0
 40
0.0
 40
0.0
 40
0.0
 40
0.0583028962841208
 40
0.655027112799703
 40
1.0
 40
1.0
 40
1.0
 40
1.0
 10
486.7235834596027
 20
132.1462405257942
 30
0.0
 10
486.7309462273676
 20
132.1293030443486
 30
0.0
 10
486.8136661747221
 20
131.9390121621367
 30
0.0
 10
486.750663185144
 20
131.6853642206978
 30
0.0
 10
486.6065536912418
 20
131.4883461995618
 30
0.0
 10
486.5537619092683
 20
131.4161723813419
 30
0.0
  0
SPLINE
  5
243
330
1F
100
AcDbEntity
  8
0
  6
Continuous
 62
     7
370
    15
100
AcDbSpline
210
0.0
220
0.0
230
1.0
 70
     8
 71
     3
 72
    10
 73
     6
 74
     0
 42
0.000000001
 43
0.00000001
 40
0.0
 40
0.0
 40
0.0
 40
0.0
 40
0.0826063890336344
 40
0.6342751383233528
 40
0.9999999999999999
 40
0.9999999999999999
 40
0.9999999999999999
 40
0.9999999999999999
 10
470.5915550766321
 20
134.6512485750594
 30
0.0
 10
470.5721639989397
 20
134.6568828811031
 30
0.0
 10
470.4232738388754
 20
134.7001446709838
 30
0.0
 10
470.2433853332764
 20
134.8442440611702
 30
0.0
 10
470.3003643406812
 20
135.0509422900521
 30
0.0
 10
470.3230793883472
 20
135.1333438680258
 30
0.0
  0
ARC
  5
244
330
1F
100
AcDbEntity
  8
0
  6
Continuous
 62
     8
370
    15
100
AcDbCircle
 10
485.1641477933
 20
132.6315693954
 30
0.0
 40
2.543921880708398
100
AcDbArc
 50
335.3384580447
 51
22.3491206438
  0
LWPOLYLINE
  5
245
330
1F
100
AcDbEntity
  8
0
  6
Continuous
 62
     8
370
    15
100
AcDbPolyline
 90
       26
 70
   128
 43
0.0
 10
485.2765276983
 20
129.4233135582
 10
484.5867519632
 20
129.0763680753
 10
483.830218236
 20
128.7685382726
 10
483.0152478525
 20
128.5032100602
 10
482.1508049105
 20
128.2833018609
 10
481.2463976712
 20
128.1112325093
 10
480.3119739743
 20
127.9888946465
 10
479.3578118198
 20
127.9176339026
 10
478.3944063164
 20
127.8982340952
 10
477.4323542434
 20
127.9309086086
 10
476.482237493
 20
128.0152980463
 10
475.5545066777
 20
128.150474184
 10
474.6593661801
 20
128.33495018
 10
473.8066619126
 20
128.5666969286
 10
473.0057730192
 20
128.8431653797
 10
472.2655087112
 20
129.1613145756
 10
471.5940113724
 20
129.5176451004
 10
470.9986669986
 20
129.9082375703
 10
470.4860239569
 20
130.3287957443
 10
470.0617209582
 20
130.77469378
 10
469.7304250353
 20
131.2410271143
 10
469.495780209
 20
131.7226664104
 10
469.3603674066
 20
132.2143139767
 10
469.3256760731
 20
132.7105620377
 10
469.3920877886
 20
133.2059522157
 10
469.5180596119
 20
133.5992234893
  0
LWPOLYLINE
  5
246
330
1F
100
AcDbEntity
  8
0
  6
Continuous
 62
     8
370
    15
100
AcDbPolyline
 90
       35
 70
   128
 43
0.0
 10
472.0944802412
 20
121.2786212684
 10
473.1498727062
 20
121.0206610617
 10
474.2439387127
 20
120.8097278872
 10
475.36879549
 20
120.6473415233
 10
476.5163384194
 20
120.5346719676
 10
477.6782994277
 20
120.4725310067
 10
478.8463065593
 20
120.4613663676
 10
480.0119442959
 20
120.501258492
 10
481.1668141909
 20
120.591919956
 10
482.3025953804
 20
120.7326975419
 10
483.4111045348
 20
120.9225769437
 10
484.4843548203
 20
121.1601900762
 10
485.5146134439
 20
121.4438249312
 10
486.4944573687
 20
121.7714379131
 10
487.4168267968
 20
122.1406685629
 10
488.2750760352
 20
122.5488565652
 10
489.0630213785
 20
122.9930609162
 10
489.7749856626
 20
123.4700811134
 10
490.4058391683
 20
123.9764802152
 10
490.9510365818
 20
124.5086096046
 10
491.4066497432
 20
125.062635277
 10
491.7693959492
 20
125.634565465
 10
492.0366616051
 20
126.2202793982
 10
492.2065210557
 20
126.8155569945
 10
492.2777504598
 20
127.416109265
 10
492.2498366079
 20
128.017609217
 10
492.1229806199
 20
128.6157230295
 10
491.8980964961
 20
129.2061412787
 10
491.5768045319
 20
129.7846099877
 10
491.1614196431
 20
130.3469612761
 10
490.6549346874
 20
130.8891433901
 10
490.0609989006
 20
131.407249895
 10
489.3838916035
 20
131.8975478217
 10
488.6284913697
 20
132.3565045623
 10
488.0306745586
 20
132.669864299
  0
LWPOLYLINE
  5
247
330
1F
100
AcDbEntity
  8
0
  6
Continuous
 62
     8
370
    15
100
AcDbPolyline
 90
       24
 70
   128
 43
0.0
 10
468.9784209707
 20
132.6571150417
 10
468.7598306607
 20
132.5464232867
 10
467.9718853174
 20
132.1022189357
 10
467.2599210333
 20
131.6251987386
 10
466.6290675276
 20
131.1187996368
 10
466.0838701141
 20
130.5866702474
 10
465.6282569527
 20
130.0326445749
 10
465.2655107467
 20
129.460714387
 10
464.9982450908
 20
128.8750004538
 10
464.8283856402
 20
128.2797228575
 10
464.7571562362
 20
127.6791705869
 10
464.7850700881
 20
127.0776706349
 10
464.9119260761
 20
126.4795568225
 10
465.1368101998
 20
125.8891385732
 10
465.4581021641
 20
125.3106698642
 10
465.8734870529
 20
124.7483185758
 10
466.3799720085
 20
124.2061364619
 10
466.9739077954
 20
123.6880299569
 10
467.6510150925
 20
123.1977320303
 10
468.4064153262
 20
122.7387752897
 10
469.2346658205
 20
122.314466529
 10
470.1297990118
 20
121.9278629025
 10
471.0853654447
 20
121.5817498983
 10
472.0944802412
 20
121.2786212684
  0
LWPOLYLINE
  5
248
330
1F
100
AcDbEntity
  8
0
  6
Continuous
 62
     8
370
    15
100
AcDbPolyline
 90
       15
 70
   128
 43
0.0
 10
471.0503271251
 20
116.6872905578
 10
469.9630954461
 20
117.0114997256
 10
468.9286042281
 20
117.3786438681
 10
467.9532314536
 20
117.7864594195
 10
467.04299062
 20
118.2324320614
 10
466.2034936648
 20
118.7138122241
 10
465.4399163658
 20
119.2276320388
 10
464.7569664311
 20
119.7707236355
 10
464.158854474
 20
120.3397386739
 10
463.6492680537
 20
120.9311689871
 10
463.2313489399
 20
121.5413682105
 10
462.907673743
 20
122.1665742631
 10
462.680238028
 20
122.8029325415
 10
462.550444012
 20
123.4465196855
 10
462.517453508
 20
123.976600186
  0
LWPOLYLINE
  5
249
330
1F
100
AcDbEntity
  8
0
  6
Continuous
 62
     8
370
    15
100
AcDbPolyline
 90
       28
 70
   128
 43
0.0
 10
494.5174533047
 20
123.9760405951
 10
494.5158147779
 20
123.8575015671
 10
494.4485316536
 20
123.2113805832
 10
494.283028134
 20
122.5699702468
 10
494.0203246032
 20
121.9372250659
 10
493.6620407159
 20
121.3170461249
 10
493.2103854114
 20
120.7132570334
 10
492.6681432948
 20
120.1295803517
 10
492.0386574691
 20
119.5696146407
 10
491.3258089238
 20
119.0368122753
 10
490.5339926071
 20
118.5344581592
 10
489.66809033
 20
118.0656494726
 10
488.7334406679
 20
117.6332765769
 10
487.7358060468
 20
117.2400051948
 10
486.681337216
 20
116.8882599751
 10
485.5765353263
 20
116.5802095442
 10
484.4282118488
 20
116.3177531353
 10
483.2434465797
 20
116.1025088794
 10
482.0295439907
 20
115.9358038291
 10
480.793988195
 20
115.8186657763
 10
479.544396805
 20
115.7518169161
 10
478.2884739671
 20
115.735669394
 10
477.0339628632
 20
115.7703227648
 10
475.7885979714
 20
115.855563379
 10
474.5600573805
 20
115.9908656998
 10
473.3559154517
 20
116.1753955433
 10
472.1835961204
 20
116.4080152219
 10
471.0503271251
 20
116.6872905578
  0
LWPOLYLINE
  5
24A
330
1F
100
AcDbEntity
  8
0
  6
Continuous
 62
     8
370
    15
100
AcDbPolyline
 90
       42
 70
   128
 43
0.0
 10
462.517453348
 20
121.4146465253
 10
462.550444012
 20
120.8857315442
 10
462.680238028
 20
120.2421444002
 10
462.907673743
 20
119.6057861218
 10
463.2313489399
 20
118.9805800692
 10
463.6492680537
 20
118.3703808458
 10
464.158854474
 20
117.7789505326
 10
464.7569664311
 20
117.2099354942
 10
465.4399163658
 20
116.6668438975
 10
466.2034936648
 20
116.1530240828
 10
467.04299062
 20
115.6716439201
 10
467.9532314536
 20
115.2256712782
 10
468.9286042281
 20
114.8178557268
 10
469.9630954461
 20
114.4507115843
 10
471.0503271251
 20
114.1265024165
 10
472.1835961204
 20
113.8472270806
 10
473.3559154517
 20
113.614607402
 10
474.5600573805
 20
113.4300775585
 10
475.7885979714
 20
113.2947752377
 10
477.0339628632
 20
113.2095346235
 10
478.2884739671
 20
113.1748812527
 10
479.544396805
 20
113.1910287748
 10
480.793988195
 20
113.257877635
 10
482.0295439907
 20
113.3750156878
 10
483.2434465797
 20
113.5417207381
 10
484.4282118488
 20
113.756964994
 10
485.5765353263
 20
114.0194214029
 10
486.681337216
 20
114.3274718338
 10
487.7358060468
 20
114.6792170535
 10
488.7334406679
 20
115.0724884356
 10
489.66809033
 20
115.5048613313
 10
490.5339926071
 20
115.9736700179
 10
491.3258089238
 20
116.476024134
 10
492.0386574691
 20
117.0088264994
 10
492.6681432948
 20
117.5687922104
 10
493.2103854114
 20
118.1524688921
 10
493.6620407159
 20
118.7562579836
 10
494.0203246032
 20
119.3764369246
 10
494.283028134
 20
120.0091821055
 10
494.4485316536
 20
120.6505924419
 10
494.5158147779
 20
121.2967134258
 10
494.517453348
 20
121.4146465253
  0
ARC
  5
24B
330
1F
100
AcDbEntity
  8
0
  6
Continuous
 62
     8
370
    15
100
AcDbCircle
 10
485.7485473355
 20
134.0868913889
 30
0.0
 40
0.6908362337319693
100
AcDbArc
 50
312.7319439841
 51
1.4864919734
  0
ARC
  5
24C
330
1F
100
AcDbEntity
  8
0
  6
Continuous
 62
     8
370
    15
100
AcDbCircle
 10
472.020553478
 20
137.1403766476
 30
0.0
 40
1.441474979781525
100
AcDbArc
 50
188.9296614526
 51
261.0125008401
  0
ARC
  5
24D
330
1F
100
AcDbEntity
  8
0
  6
Continuous
 62
     8
370
    15
100
AcDbCircle
 10
484.3941722339
 20
133.7109540605
 30
0.0
 40
2.254461297451101
100
AcDbArc
 50
346.9072974923
 51
24.2258817307
  0
ARC
  5
24E
330
1F
100
AcDbEntity
  8
0
  6
Continuous
 62
     8
370
    15
100
AcDbCircle
 10
485.3018069737
 20
130.7346805346
 30
0.0
 40
2.329203971271022
100
AcDbArc
 50
21.01863413
 51
54.0950143554
  0
ENDSEC
  0
SECTION
  2
OBJECTS
  0
DICTIONARY
  5
C
330
0
100
AcDbDictionary
281
     1
  3
ACAD_GROUP
350
D
  3
ACAD_LAYOUT
350
1A
  3
ACAD_MLINESTYLE
350
17
  3
ACAD_PLOTSETTINGS
350
19
  3
ACAD_PLOTSTYLENAME
350
E
  3
ACAD_SCALELIST
350
47
  0
DICTIONARY
  5
D
102
{ACAD_REACTORS
330
C
102
}
330
C
100
AcDbDictionary
281
     1
  0
DICTIONARY
  5
1A
102
{ACAD_REACTORS
330
C
102
}
330
C
100
AcDbDictionary
281
     1
  3
Layout1
350
1E
  3
Layout2
350
26
  3
Model
350
22
  0
DICTIONARY
  5
17
102
{ACAD_REACTORS
330
C
102
}
330
C
100
AcDbDictionary
281
     1
  3
Standard
350
18
  0
DICTIONARY
  5
19
102
{ACAD_REACTORS
330
C
102
}
330
C
100
AcDbDictionary
281
     1
  0
ACDBDICTIONARYWDFLT
  5
E
102
{ACAD_REACTORS
330
C
102
}
330
C
100
AcDbDictionary
281
     1
  3
Normal
350
F
100
AcDbDictionaryWithDefault
340
F
  0
DICTIONARY
  5
47
102
{ACAD_REACTORS
330
C
102
}
330
C
100
AcDbDictionary
281
     1
  3
A0
350
48
  3
A1
350
49
  3
A2
350
4A
  3
A3
350
4B
  3
A4
350
4C
  3
A5
350
4D
  3
A6
350
4E
  3
A7
350
4F
  3
A8
350
50
  3
A9
350
51
  3
B0
350
52
  3
B1
350
53
  3
B2
350
54
  3
B3
350
55
  3
B4
350
56
  3
B5
350
57
  3
B6
350
58
  3
B7
350
59
  3
B8
350
5A
  3
B9
350
5B
  3
C0
350
5C
  3
C1
350
5D
  3
C2
350
5E
  3
C3
350
5F
  3
C4
350
60
  3
C5
350
61
  3
C6
350
62
  3
C7
350
63
  3
C8
350
64
  3
C9
350
65
  3
D0
350
66
  3
D1
350
67
  3
D2
350
68
  0
LAYOUT
  5
1E
102
{ACAD_REACTORS
330
1A
102
}
330
1A
100
AcDbPlotSettings
  1

  2
none_device
  4

  6

 40
0.0
 41
0.0
 42
0.0
 43
0.0
 44
0.0
 45
0.0
 46
0.0
 47
0.0
 48
0.0
 49
0.0
140
0.0
141
0.0
142
1.0
143
1.0
 70
   688
 72
     1
 73
     0
 74
     5
  7

 75
    16
147
1.0
148
0.0
149
0.0
100
AcDbLayout
  1
Layout1
 70
     1
 71
     1
 10
0.0
 20
0.0
 11
420.0
 21
297.0
 12
0.0
 22
0.0
 32
0.0
 14
1.0000000000E+20
 24
1.0000000000E+20
 34
1.0000000000E+20
 15
-1.0000000000E+20
 25
-1.0000000000E+20
 35
-1.0000000000E+20
146
0.0
 13
0.0
 23
0.0
 33
0.0
 16
1.0
 26
0.0
 36
0.0
 17
0.0
 27
1.0
 37
0.0
 76
     0
330
1B
  0
LAYOUT
  5
26
102
{ACAD_REACTORS
330
1A
102
}
330
1A
100
AcDbPlotSettings
  1

  2
none_device
  4

  6

 40
0.0
 41
0.0
 42
0.0
 43
0.0
 44
0.0
 45
0.0
 46
0.0
 47
0.0
 48
0.0
 49
0.0
140
0.0
141
0.0
142
1.0
143
1.0
 70
   688
 72
     1
 73
     0
 74
     5
  7

 75
    16
147
1.0
148
0.0
149
0.0
100
AcDbLayout
  1
Layout2
 70
     1
 71
     2
 10
0.0
 20
0.0
 11
0.0
 21
0.0
 12
0.0
 22
0.0
 32
0.0
 14
0.0
 24
0.0
 34
0.0
 15
0.0
 25
0.0
 35
0.0
146
0.0
 13
0.0
 23
0.0
 33
0.0
 16
1.0
 26
0.0
 36
0.0
 17
0.0
 27
1.0
 37
0.0
 76
     0
330
23
  0
LAYOUT
  5
22
102
{ACAD_REACTORS
330
1A
102
}
330
1A
100
AcDbPlotSettings
  1

  2
none_device
  4
Letter_(8.50_x_11.00_Inches)
  6

 40
6.35
 41
6.35
 42
6.35000508
 43
6.35000508
 44
215.9
 45
279.4
 46
0.0
 47
0.0
 48
0.0
 49
0.0
140
0.0
141
0.0
142
1.0
143
1.0
 70
  1712
 72
     1
 73
     0
 74
     0
  7

 75
     0
147
1.0
148
0.0
149
0.0
100
AcDbLayout
  1
Model
 70
     1
 71
     0
 10
0.0
 20
0.0
 11
594.0
 21
420.0
 12
0.0
 22
0.0
 32
0.0
 14
0.0
 24
0.0
 34
0.0
 15
594.0
 25
420.0
 35
0.0
146
0.0
 13
0.0
 23
0.0
 33
0.0
 16
1.0
 26
0.0
 36
0.0
 17
0.0
 27
1.0
 37
0.0
 76
     0
330
1F
331
29
  0
MLINESTYLE
  5
18
102
{ACAD_REACTORS
330
17
102
}
330
17
100
AcDbMlineStyle
  2
Standard
 70
     0
  3

 62
   256
 51
90.0
 52
90.0
 71
     2
 49
0.5
 62
   256
  6
BYLAYER
 49
-0.5
 62
   256
  6
BYLAYER
  0
ACDBPLACEHOLDER
  5
F
102
{ACAD_REACTORS
330
E
102
}
330
E
  0
SCALE
  5
48
102
{ACAD_REACTORS
330
47
102
}
330
47
100
AcDbScale
 70
     0
300
1:1
140
1.0
141
1.0
290
     1
  0
SCALE
  5
49
102
{ACAD_REACTORS
330
47
102
}
330
47
100
AcDbScale
 70
     0
300
1:2
140
1.0
141
2.0
290
     0
  0
SCALE
  5
4A
102
{ACAD_REACTORS
330
47
102
}
330
47
100
AcDbScale
 70
     0
300
1:4
140
1.0
141
4.0
290
     0
  0
SCALE
  5
4B
102
{ACAD_REACTORS
330
47
102
}
330
47
100
AcDbScale
 70
     0
300
1:5
140
1.0
141
5.0
290
     0
  0
SCALE
  5
4C
102
{ACAD_REACTORS
330
47
102
}
330
47
100
AcDbScale
 70
     0
300
1:8
140
1.0
141
8.0
290
     0
  0
SCALE
  5
4D
102
{ACAD_REACTORS
330
47
102
}
330
47
100
AcDbScale
 70
     0
300
1:10
140
1.0
141
10.0
290
     0
  0
SCALE
  5
4E
102
{ACAD_REACTORS
330
47
102
}
330
47
100
AcDbScale
 70
     0
300
1:16
140
1.0
141
16.0
290
     0
  0
SCALE
  5
4F
102
{ACAD_REACTORS
330
47
102
}
330
47
100
AcDbScale
 70
     0
300
1:20
140
1.0
141
20.0
290
     0
  0
SCALE
  5
50
102
{ACAD_REACTORS
330
47
102
}
330
47
100
AcDbScale
 70
     0
300
1:30
140
1.0
141
30.0
290
     0
  0
SCALE
  5
51
102
{ACAD_REACTORS
330
47
102
}
330
47
100
AcDbScale
 70
     0
300
1:40
140
1.0
141
40.0
290
     0
  0
SCALE
  5
52
102
{ACAD_REACTORS
330
47
102
}
330
47
100
AcDbScale
 70
     0
300
1:50
140
1.0
141
50.0
290
     0
  0
SCALE
  5
53
102
{ACAD_REACTORS
330
47
102
}
330
47
100
AcDbScale
 70
     0
300
1:100
140
1.0
141
100.0
290
     0
  0
SCALE
  5
54
102
{ACAD_REACTORS
330
47
102
}
330
47
100
AcDbScale
 70
     0
300
2:1
140
2.0
141
1.0
290
     0
  0
SCALE
  5
55
102
{ACAD_REACTORS
330
47
102
}
330
47
100
AcDbScale
 70
     0
300
4:1
140
4.0
141
1.0
290
     0
  0
SCALE
  5
56
102
{ACAD_REACTORS
330
47
102
}
330
47
100
AcDbScale
 70
     0
300
8:1
140
8.0
141
1.0
290
     0
  0
SCALE
  5
57
102
{ACAD_REACTORS
330
47
102
}
330
47
100
AcDbScale
 70
     0
300
10:1
140
10.0
141
1.0
290
     0
  0
SCALE
  5
58
102
{ACAD_REACTORS
330
47
102
}
330
47
100
AcDbScale
 70
     0
300
100:1
140
100.0
141
1.0
290
     0
  0
SCALE
  5
59
102
{ACAD_REACTORS
330
47
102
}
330
47
100
AcDbScale
 70
     0
300
1/128" = 1'-0"
140
0.0078125
141
12.0
290
     0
  0
SCALE
  5
5A
102
{ACAD_REACTORS
330
47
102
}
330
47
100
AcDbScale
 70
     0
300
1/64" = 1'-0"
140
0.015625
141
12.0
290
     0
  0
SCALE
  5
5B
102
{ACAD_REACTORS
330
47
102
}
330
47
100
AcDbScale
 70
     0
300
1/32" = 1'-0"
140
0.03125
141
12.0
290
     0
  0
SCALE
  5
5C
102
{ACAD_REACTORS
330
47
102
}
330
47
100
AcDbScale
 70
     0
300
1/16" = 1'-0"
140
0.0625
141
12.0
290
     0
  0
SCALE
  5
5D
102
{ACAD_REACTORS
330
47
102
}
330
47
100
AcDbScale
 70
     0
300
3/32" = 1'-0"
140
0.09375
141
12.0
290
     0
  0
SCALE
  5
5E
102
{ACAD_REACTORS
330
47
102
}
330
47
100
AcDbScale
 70
     0
300
1/8" = 1'-0"
140
0.125
141
12.0
290
     0
  0
SCALE
  5
5F
102
{ACAD_REACTORS
330
47
102
}
330
47
100
AcDbScale
 70
     0
300
3/16" = 1'-0"
140
0.1875
141
12.0
290
     0
  0
SCALE
  5
60
102
{ACAD_REACTORS
330
47
102
}
330
47
100
AcDbScale
 70
     0
300
1/4" = 1'-0"
140
0.25
141
12.0
290
     0
  0
SCALE
  5
61
102
{ACAD_REACTORS
330
47
102
}
330
47
100
AcDbScale
 70
     0
300
3/8" = 1'-0"
140
0.375
141
12.0
290
     0
  0
SCALE
  5
62
102
{ACAD_REACTORS
330
47
102
}
330
47
100
AcDbScale
 70
     0
300
1/2" = 1'-0"
140
0.5
141
12.0
290
     0
  0
SCALE
  5
63
102
{ACAD_REACTORS
330
47
102
}
330
47
100
AcDbScale
 70
     0
300
3/4" = 1'-0"
140
0.75
141
12.0
290
     0
  0
SCALE
  5
64
102
{ACAD_REACTORS
330
47
102
}
330
47
100
AcDbScale
 70
     0
300
1" = 1'-0"
140
1.0
141
12.0
290
     0
  0
SCALE
  5
65
102
{ACAD_REACTORS
330
47
102
}
330
47
100
AcDbScale
 70
     0
300
1-1/2" = 1'-0"
140
1.5
141
12.0
290
     0
  0
SCALE
  5
66
102
{ACAD_REACTORS
330
47
102
}
330
47
100
AcDbScale
 70
     0
300
3" = 1'-0"
140
3.0
141
12.0
290
     0
  0
SCALE
  5
67
102
{ACAD_REACTORS
330
47
102
}
330
47
100
AcDbScale
 70
     0
300
6" = 1'-0"
140
6.0
141
12.0
290
     0
  0
SCALE
  5
68
102
{ACAD_REACTORS
330
47
102
}
330
47
100
AcDbScale
 70
     0
300
1'-0" = 1'-0"
140
12.0
141
12.0
290
     0
  0
ENDSEC
  0
EOF
