  0
SECTION
  2
HEADER
  9
$ACADVER
  1
AC1012
  9
$DWGCODEPAGE
  3
ansi_1252
  9
$INSBASE
 10
0.0
 20
0.0
 30
0.0
  9
$EXTMIN
 10
0.0
 20
0.0
 30
0.0
  9
$EXTMAX
 10
44.0
 20
34.0
 30
0.0
  9
$LIMMIN
 10
0.0
 20
0.0
  9
$LIMMAX
 10
44.0
 20
34.0
  9
$ORTHOMODE
 70
     0
  9
$REGENMODE
 70
     1
  9
$FILLMODE
 70
     1
  9
$QTEXTMODE
 70
     0
  9
$MIRRTEXT
 70
     1
  9
$DRAGMODE
 70
     2
  9
$LTSCALE
 40
1.0
  9
$OSMODE
 70
    37
  9
$ATTMODE
 70
     1
  9
$TEXTSIZE
 40
0.1377952756
  9
$TRACEWID
 40
0.05
  9
$TEXTSTYLE
  7
STANDARD
  9
$CLAYER
  8
0
  9
$CELTYPE
  6
BYLAYER
  9
$CECOLOR
 62
   256
  9
$CELTSCALE
 40
1.0
  9
$DELOBJ
 70
     1
  9
$DISPSILH
 70
     0
  9
$DIMSCALE
 40
1.0
  9
$DIMASZ
 40
0.13
  9
$DIMEXO
 40
0.0393700787
  9
$DIMDLI
 40
0.38
  9
$DIMRND
 40
0.0
  9
$DIMDLE
 40
0.0
  9
$DIMEXE
 40
0.0393700787
  9
$DIMTP
 40
0.0
  9
$DIMTM
 40
0.0
  9
$DIMTXT
 40
0.1377952756
  9
$DIMCEN
 40
0.09
  9
$DIMTSZ
 40
0.0
  9
$DIMTOL
 70
     0
  9
$DIMLIM
 70
     0
  9
$DIMTIH
 70
     1
  9
$DIMTOH
 70
     1
  9
$DIMSE1
 70
     0
  9
$DIMSE2
 70
     0
  9
$DIMTAD
 70
     1
  9
$DIMZIN
 70
     1
  9
$DIMBLK
  1

  9
$DIMASO
 70
     1
  9
$DIMSHO
 70
     1
  9
$DIMPOST
  1

  9
$DIMAPOST
  1

  9
$DIMALT
 70
     0
  9
$DIMALTD
 70
     2
  9
$DIMALTF
 40
25.4
  9
$DIMLFAC
 40
1.0
  9
$DIMTOFL
 70
     0
  9
$DIMTVP
 40
0.0
  9
$DIMTIX
 70
     0
  9
$DIMSOXD
 70
     0
  9
$DIMSAH
 70
     0
  9
$DIMBLK1
  1

  9
$DIMBLK2
  1

  9
$DIMSTYLE
  2
STANDARD
  9
$DIMCLRD
 70
     0
  9
$DIMCLRE
 70
     0
  9
$DIMCLRT
 70
     0
  9
$DIMTFAC
 40
1.0
  9
$DIMGAP
 40
0.06
  9
$DIMJUST
 70
     0
  9
$DIMSD1
 70
     0
  9
$DIMSD2
 70
     0
  9
$DIMTOLJ
 70
     1
  9
$DIMTZIN
 70
     1
  9
$DIMALTZ
 70
     0
  9
$DIMALTTZ
 70
     0
  9
$DIMFIT
 70
     3
  9
$DIMUPT
 70
     0
  9
$DIMUNIT
 70
     2
  9
$DIMDEC
 70
     0
  9
$DIMTDEC
 70
     4
  9
$DIMALTU
 70
     2
  9
$DIMALTTD
 70
     2
  9
$DIMTXSTY
  7
STANDARD
  9
$DIMAUNIT
 70
     0
  9
$LUNITS
 70
     2
  9
$LUPREC
 70
     4
  9
$SKETCHINC
 40
0.1
  9
$FILLETRAD
 40
0.5
  9
$AUNITS
 70
     0
  9
$AUPREC
 70
     0
  9
$MENU
  1
.
  9
$ELEVATION
 40
0.0
  9
$PELEVATION
 40
0.0
  9
$THICKNESS
 40
0.0
  9
$LIMCHECK
 70
     0
  9
$CHAMFERA
 40
0.0
  9
$CHAMFERB
 40
0.0
  9
$CHAMFERC
 40
0.0
  9
$CHAMFERD
 40
0.0
  9
$SKPOLY
 70
     0
  9
$TDCREATE
 40
2456813.577145405
  9
$TDUPDATE
 40
2456813.577146111
  9
$TDINDWG
 40
0.0000000116
  9
$TDUSRTIMER
 40
0.0000000116
  9
$USRTIMER
 70
     1
  9
$ANGBASE
 50
0.0
  9
$ANGDIR
 70
     0
  9
$PDMODE
 70
     0
  9
$PDSIZE
 40
-1.0
  9
$PLINEWID
 40
0.0
  9
$COORDS
 70
     1
  9
$SPLFRAME
 70
     0
  9
$SPLINETYPE
 70
     6
  9
$SPLINESEGS
 70
     8
  9
$ATTDIA
 70
     0
  9
$ATTREQ
 70
     1
  9
$HANDLING
 70
     1
  9
$HANDSEED
  5
E1
  9
$SURFTAB1
 70
     6
  9
$SURFTAB2
 70
     6
  9
$SURFTYPE
 70
     6
  9
$SURFU
 70
     6
  9
$SURFV
 70
     6
  9
$UCSNAME
  2

  9
$UCSORG
 10
0.0
 20
0.0
 30
0.0
  9
$UCSXDIR
 10
1.0
 20
0.0
 30
0.0
  9
$UCSYDIR
 10
0.0
 20
1.0
 30
0.0
  9
$PUCSNAME
  2

  9
$PUCSORG
 10
0.0
 20
0.0
 30
0.0
  9
$PUCSXDIR
 10
1.0
 20
0.0
 30
0.0
  9
$PUCSYDIR
 10
0.0
 20
1.0
 30
0.0
  9
$USERI1
 70
     0
  9
$USERI2
 70
     0
  9
$USERI3
 70
     0
  9
$USERI4
 70
     0
  9
$USERI5
 70
     0
  9
$USERR1
 40
0.0
  9
$USERR2
 40
0.0
  9
$USERR3
 40
0.0
  9
$USERR4
 40
0.0
  9
$USERR5
 40
0.0
  9
$WORLDVIEW
 70
     1
  9
$SHADEDGE
 70
     3
  9
$SHADEDIF
 70
    70
  9
$TILEMODE
 70
     1
  9
$MAXACTVP
 70
    64
  9
$PINSBASE
 10
0.0
 20
0.0
 30
0.0
  9
$PLIMCHECK
 70
     0
  9
$PEXTMIN
 10
1.0000000000E+20
 20
1.0000000000E+20
 30
1.0000000000E+20
  9
$PEXTMAX
 10
-1.0000000000E+20
 20
-1.0000000000E+20
 30
-1.0000000000E+20
  9
$PLIMMIN
 10
0.0
 20
0.0
  9
$PLIMMAX
 10
12.0
 20
9.0
  9
$UNITMODE
 70
     0
  9
$VISRETAIN
 70
     1
  9
$PLINEGEN
 70
     0
  9
$PSLTSCALE
 70
     1
  9
$TREEDEPTH
 70
  3020
  9
$PICKSTYLE
 70
     1
  9
$CMLSTYLE
  2
STANDARD
  9
$CMLJUST
 70
     0
  9
$CMLSCALE
 40
1.0
  9
$SAVEIMAGES
 70
     1
  0
ENDSEC
  0
SECTION
  2
CLASSES
  0
CLASS
  1
ACDBDICTIONARYWDFLT
  2
AcDbDictionaryWithDefault
  3
ObjectDBX Classes
 90
    32768
280
     0
281
     0
  0
CLASS
  1
VISUALSTYLE
  2
AcDbVisualStyle
  3
ObjectDBX Classes
 90
     4095
280
     0
281
     0
  0
CLASS
  1
MATERIAL
  2
AcDbMaterial
  3
ObjectDBX Classes
 90
     1153
280
     0
281
     0
  0
CLASS
  1
SCALE
  2
AcDbScale
  3
ObjectDBX Classes
 90
     1153
280
     0
281
     0
  0
CLASS
  1
SUN
  2
AcDbSun
  3
SCENEOE
 90
     1153
280
     0
281
     0
  0
CLASS
  1
XRECORD
  2
AcDbXrecord
  3
ObjectDBX Classes
 90
    32768
280
     0
281
     0
  0
ENDSEC
  0
SECTION
  2
TABLES
  0
TABLE
  2
VPORT
  5
8
330
0
100
AcDbSymbolTable
 70
     1
  0
VPORT
  5
29
330
8
100
AcDbSymbolTableRecord
100
AcDbViewportTableRecord
  2
*ACTIVE
 70
     0
 10
0.0
 20
0.0
 11
1.0
 21
1.0
 12
22.0
 22
17.0
 13
0.0
 23
0.0
 14
0.5
 24
0.5
 15
0.5
 25
0.5
 16
0.0
 26
0.0
 36
1.0
 17
0.0
 27
0.0
 37
0.0
 40
34.0
 41
1.2941176471
 42
50.0
 43
0.0
 44
0.0
 50
0.0
 51
0.0
 71
     0
 72
  2000
 73
     1
 74
     3
 75
     0
 76
     0
 77
     0
 78
     0
  0
ENDTAB
  0
TABLE
  2
LTYPE
  5
5
330
0
100
AcDbSymbolTable
 70
     8
  0
LTYPE
  5
14
330
5
100
AcDbSymbolTableRecord
100
AcDbLinetypeTableRecord
  2
BYBLOCK
 70
     0
  3

 72
    65
 73
     0
 40
0.0
  0
LTYPE
  5
15
330
5
100
AcDbSymbolTableRecord
100
AcDbLinetypeTableRecord
  2
BYLAYER
 70
     0
  3

 72
    65
 73
     0
 40
0.0
  0
LTYPE
  5
16
330
5
100
AcDbSymbolTableRecord
100
AcDbLinetypeTableRecord
  2
CONTINUOUS
 70
     0
  3
Solid line
 72
    65
 73
     0
 40
0.0
  0
LTYPE
  5
6A
330
5
100
AcDbSymbolTableRecord
100
AcDbLinetypeTableRecord
  2
SLD-DURCHGEHEND
 70
     0
  3
SolidWorks Line Style
 72
    65
 73
     0
 40
0.0
  0
LTYPE
  5
6B
330
5
100
AcDbSymbolTableRecord
100
AcDbLinetypeTableRecord
  2
SLD-GESTRICHELT
 70
     0
  3
SolidWorks Line Style
 72
    65
 73
     2
 40
0.075
 49
0.05
 74
     0
 49
-0.025
 74
     0
  0
LTYPE
  5
6C
330
5
100
AcDbSymbolTableRecord
100
AcDbLinetypeTableRecord
  2
SLD-PHANTOM
 70
     0
  3
SolidWorks Line Style
 72
    65
 73
     6
 40
0.5
 49
0.25
 74
     0
 49
-0.05
 74
     0
 49
0.05
 74
     0
 49
-0.05
 74
     0
 49
0.05
 74
     0
 49
-0.05
 74
     0
  0
LTYPE
  5
6D
330
5
100
AcDbSymbolTableRecord
100
AcDbLinetypeTableRecord
  2
SLD-KETTE
 70
     0
  3
SolidWorks Line Style
 72
    65
 73
     4
 40
0.4
 49
0.25
 74
     0
 49
-0.05
 74
     0
 49
0.05
 74
     0
 49
-0.05
 74
     0
  0
LTYPE
  5
6E
330
5
100
AcDbSymbolTableRecord
100
AcDbLinetypeTableRecord
  2
SLD-PUNKTSTRICH
 70
     0
  3
SolidWorks Line Style
 72
    65
 73
     4
 40
0.75
 49
0.6
 74
     0
 49
-0.05
 74
     0
 49
0.05
 74
     0
 49
-0.05
 74
     0
  0
LTYPE
  5
6F
330
5
100
AcDbSymbolTableRecord
100
AcDbLinetypeTableRecord
  2
SLD-NAHT
 70
     0
  3
SolidWorks Line Style
 72
    65
 73
     2
 40
0.025
 49
0.0
 74
     0
 49
-0.025
 74
     0
  0
LTYPE
  5
70
330
5
100
AcDbSymbolTableRecord
100
AcDbLinetypeTableRecord
  2
SLD-DICKE-DÜNNE-KETTE
 70
     0
  3
SolidWorks Line Style
 72
    65
 73
     4
 40
0.4
 49
0.25
 74
     0
 49
-0.05
 74
     0
 49
0.05
 74
     0
 49
-0.05
 74
     0
  0
ENDTAB
  0
TABLE
  2
LAYER
  5
2
330
0
100
AcDbSymbolTable
 70
     7
  0
LAYER
  5
10
330
2
100
AcDbSymbolTableRecord
100
AcDbLayerTableRecord
  2
0
 70
     0
 62
     7
  6
CONTINUOUS
  0
LAYER
  5
71
330
2
100
AcDbSymbolTableRecord
100
AcDbLayerTableRecord
  2
FORMAT
 70
     0
 62
     7
  6
SLD-DURCHGEHEND
  0
LAYER
  5
72
330
2
100
AcDbSymbolTableRecord
100
AcDbLayerTableRecord
  2
GRUNDEBENE
 70
     0
 62
     1
  6
SLD-DURCHGEHEND
  0
LAYER
  5
73
330
2
100
AcDbSymbolTableRecord
100
AcDbLayerTableRecord
  2
HILFSLINIEN
 70
     0
 62
     1
  6
SLD-DURCHGEHEND
  0
LAYER
  5
74
330
2
100
AcDbSymbolTableRecord
100
AcDbLayerTableRecord
  2
SCHRIFTFELD
 70
     0
 62
     1
  6
SLD-DURCHGEHEND
  0
LAYER
  5
75
330
2
100
AcDbSymbolTableRecord
100
AcDbLayerTableRecord
  2
SLD-0
 70
     0
 62
     1
  6
SLD-DURCHGEHEND
  0
LAYER
  5
76
330
2
100
AcDbSymbolTableRecord
100
AcDbLayerTableRecord
  2
LAYER9
 70
     0
 62
     1
  6
SLD-DURCHGEHEND
  0
ENDTAB
  0
TABLE
  2
STYLE
  5
3
330
0
100
AcDbSymbolTable
 70
    17
  0
STYLE
  5
11
330
3
100
AcDbSymbolTableRecord
100
AcDbTextStyleTableRecord
  2
STANDARD
 70
     0
 40
0.0
 41
1.0
 50
0.0
 71
     0
 42
0.1377952756
  3
txt
  4

  0
STYLE
  5
7E
330
3
100
AcDbSymbolTableRecord
100
AcDbTextStyleTableRecord
  2
SLDTEXTSTYLE0
 70
     0
 40
0.0
 41
0.6462264547
 50
0.0
 71
     0
 42
0.1377952756
  3
TXT
  4

  0
STYLE
  5
80
330
3
100
AcDbSymbolTableRecord
100
AcDbTextStyleTableRecord
  2
SLDTEXTSTYLE1
 70
     0
 40
0.0
 41
0.6474532474
 50
0.0
 71
     0
 42
0.1377952756
  3
TXT
  4

  0
STYLE
  5
BC
330
3
100
AcDbSymbolTableRecord
100
AcDbTextStyleTableRecord
  2
SLDTEXTSTYLE2
 70
     0
 40
0.0
 41
0.6520592552
 50
0.0
 71
     0
 42
0.1377952756
  3
TXT
  4

  0
STYLE
  5
BE
330
3
100
AcDbSymbolTableRecord
100
AcDbTextStyleTableRecord
  2
SLDTEXTSTYLE3
 70
     0
 40
0.0
 41
0.6520046347
 50
0.0
 71
     0
 42
0.1377952756
  3
TXT
  4

  0
STYLE
  5
C0
330
3
100
AcDbSymbolTableRecord
100
AcDbTextStyleTableRecord
  2
SLDTEXTSTYLE4
 70
     0
 40
0.0
 41
0.6507236826
 50
0.0
 71
     0
 42
0.1377952756
  3
TXT
  4

  0
STYLE
  5
C2
330
3
100
AcDbSymbolTableRecord
100
AcDbTextStyleTableRecord
  2
SLDTEXTSTYLE5
 70
     0
 40
0.0
 41
0.649976613
 50
0.0
 71
     0
 42
0.1377952756
  3
TXT
  4

  0
STYLE
  5
C4
330
3
100
AcDbSymbolTableRecord
100
AcDbTextStyleTableRecord
  2
SLDTEXTSTYLE6
 70
     0
 40
0.0
 41
0.6517962485
 50
0.0
 71
     0
 42
0.1377952756
  3
TXT
  4

  0
STYLE
  5
C6
330
3
100
AcDbSymbolTableRecord
100
AcDbTextStyleTableRecord
  2
SLDTEXTSTYLE7
 70
     0
 40
0.0
 41
0.6493129936
 50
0.0
 71
     0
 42
0.1377952756
  3
TXT
  4

  0
STYLE
  5
C8
330
3
100
AcDbSymbolTableRecord
100
AcDbTextStyleTableRecord
  2
SLDTEXTSTYLE8
 70
     0
 40
0.0
 41
0.6500273093
 50
0.0
 71
     0
 42
0.1377952756
  3
TXT
  4

  0
STYLE
  5
CA
330
3
100
AcDbSymbolTableRecord
100
AcDbTextStyleTableRecord
  2
SLDTEXTSTYLE9
 70
     0
 40
0.0
 41
0.649554898
 50
0.0
 71
     0
 42
0.1377952756
  3
TXT
  4

  0
STYLE
  5
CC
330
3
100
AcDbSymbolTableRecord
100
AcDbTextStyleTableRecord
  2
SLDTEXTSTYLE10
 70
     0
 40
0.0
 41
0.6511343484
 50
0.0
 71
     0
 42
0.1377952756
  3
TXT
  4

  0
STYLE
  5
CE
330
3
100
AcDbSymbolTableRecord
100
AcDbTextStyleTableRecord
  2
SLDTEXTSTYLE11
 70
     0
 40
0.0
 41
0.6511738902
 50
0.0
 71
     0
 42
0.1377952756
  3
TXT
  4

  0
STYLE
  5
D0
330
3
100
AcDbSymbolTableRecord
100
AcDbTextStyleTableRecord
  2
SLDTEXTSTYLE12
 70
     0
 40
0.0
 41
0.6493196962
 50
0.0
 71
     0
 42
0.1377952756
  3
TXT
  4

  0
STYLE
  5
D2
330
3
100
AcDbSymbolTableRecord
100
AcDbTextStyleTableRecord
  2
SLDTEXTSTYLE13
 70
     0
 40
0.0
 41
0.638185654
 50
0.0
 71
     0
 42
0.1377952756
  3
TXT
  4

  0
STYLE
  5
D4
330
3
100
AcDbSymbolTableRecord
100
AcDbTextStyleTableRecord
  2
SLDTEXTSTYLE14
 70
     0
 40
0.0
 41
0.6494791829
 50
0.0
 71
     0
 42
0.1377952756
  3
TXT
  4

  0
STYLE
  5
DD
330
3
100
AcDbSymbolTableRecord
100
AcDbTextStyleTableRecord
  2
SLDTEXTSTYLE15
 70
     0
 40
0.0
 41
0.6126582528
 50
0.0
 71
     0
 42
0.1377952756
  3
TXT
  4

  0
ENDTAB
  0
TABLE
  2
VIEW
  5
6
330
0
100
AcDbSymbolTable
 70
     0
  0
ENDTAB
  0
TABLE
  2
UCS
  5
7
330
0
100
AcDbSymbolTable
 70
     0
  0
ENDTAB
  0
TABLE
  2
APPID
  5
9
330
0
100
AcDbSymbolTable
 70
     1
  0
APPID
  5
12
330
9
100
AcDbSymbolTableRecord
100
AcDbRegAppTableRecord
  2
ACAD
 70
     0
  0
ENDTAB
  0
TABLE
  2
DIMSTYLE
  5
A
330
0
100
AcDbSymbolTable
 70
     1
  0
DIMSTYLE
105
27
330
A
100
AcDbSymbolTableRecord
100
AcDbDimStyleTableRecord
  2
STANDARD
 70
     0
  3

  4

  5

  6

  7

 40
1.0
 41
0.18
 42
0.0625
 43
0.38
 44
0.18
 45
0.0
 46
0.0
 47
0.0
 48
0.0
140
0.18
141
0.09
142
0.0
143
25.4
144
1.0
145
0.0
146
1.0
147
0.09
 71
     0
 72
     0
 73
     1
 74
     1
 75
     0
 76
     0
 77
     0
 78
     0
170
     0
171
     2
172
     0
173
     0
174
     0
175
     0
176
     0
177
     0
178
     0
270
     2
271
     4
272
     4
273
     2
274
     2
340
11
275
     0
280
     0
281
     0
282
     0
283
     1
284
     0
285
     0
286
     0
287
     3
288
     0
  0
ENDTAB
  0
TABLE
  2
BLOCK_RECORD
  5
1
330
0
100
AcDbSymbolTable
 70
     2
  0
BLOCK_RECORD
  5
1F
330
1
100
AcDbSymbolTableRecord
100
AcDbBlockTableRecord
  2
*MODEL_SPACE
  0
BLOCK_RECORD
  5
1B
330
1
100
AcDbSymbolTableRecord
100
AcDbBlockTableRecord
  2
*PAPER_SPACE
  0
BLOCK_RECORD
  5
23
330
1
100
AcDbSymbolTableRecord
100
AcDbBlockTableRecord
  2
*PAPER_SPACE0
  0
BLOCK_RECORD
  5
77
330
1
100
AcDbSymbolTableRecord
100
AcDbBlockTableRecord
  2
_LOGO-0
  0
ENDTAB
  0
ENDSEC
  0
SECTION
  2
BLOCKS
  0
BLOCK
  5
20
330
1F
100
AcDbEntity
  8
0
100
AcDbBlockBegin
  2
*MODEL_SPACE
 70
     0
 10
0.0
 20
0.0
 30
0.0
  3
*MODEL_SPACE
  1

  0
ENDBLK
  5
21
330
1F
100
AcDbEntity
  8
0
100
AcDbBlockEnd
  0
BLOCK
  5
1C
330
1B
100
AcDbEntity
 67
     1
  8
0
100
AcDbBlockBegin
  2
*PAPER_SPACE
 70
     0
 10
0.0
 20
0.0
 30
0.0
  3
*PAPER_SPACE
  1

  0
ENDBLK
  5
1D
330
1B
100
AcDbEntity
 67
     1
  8
0
100
AcDbBlockEnd
  0
BLOCK
  5
24
330
23
100
AcDbEntity
  8
0
100
AcDbBlockBegin
  2
*PAPER_SPACE0
 70
     0
 10
0.0
 20
0.0
 30
0.0
  3
*PAPER_SPACE0
  1
*PAPER_SPACE0
  0
ENDBLK
  5
25
330
23
100
AcDbEntity
  8
0
100
AcDbBlockEnd
  0
BLOCK
  5
78
330
77
100
AcDbEntity
  8
0
100
AcDbBlockBegin
  2
_LOGO-0
 70
     0
 10
0.0
 20
0.0
 30
0.0
  3
_LOGO-0
  1
_LOGO-0
  0
LINE
  5
7A
330
77
100
AcDbEntity
  8
SCHRIFTFELD
  6
SLD-DURCHGEHEND
 62
   250
100
AcDbLine
 10
0.00001596
 20
0.000000945
 30
0.0
 11
44.20008864
 21
0.000000945
 31
0.0
  0
LINE
  5
7B
330
77
100
AcDbEntity
  8
SCHRIFTFELD
  6
SLD-DURCHGEHEND
 62
   250
100
AcDbLine
 10
44.20008864
 20
0.000000945
 30
0.0
 11
44.20008864
 21
12.750007275
 31
0.0
  0
LINE
  5
7C
330
77
100
AcDbEntity
  8
SCHRIFTFELD
  6
SLD-DURCHGEHEND
 62
   250
100
AcDbLine
 10
44.20008864
 20
12.750007275
 30
0.0
 11
0.00001596
 21
12.750007275
 31
0.0
  0
LINE
  5
7D
330
77
100
AcDbEntity
  8
SCHRIFTFELD
  6
SLD-DURCHGEHEND
 62
   250
100
AcDbLine
 10
0.00001596
 20
12.750007275
 30
0.0
 11
0.00001596
 21
0.000000945
 31
0.0
  0
MTEXT
  5
7F
330
77
100
AcDbEntity
  8
SCHRIFTFELD
100
AcDbMText
 10
2.7788024546
 20
9.7047538047
 30
0.0
 40
3.7050486595
 41
0.0
 71
     1
 72
     1
  1
Feldmann GmbH
  7
SLDTEXTSTYLE0
  0
MTEXT
  5
81
330
77
100
AcDbEntity
  8
SCHRIFTFELD
100
AcDbMText
 10
5.5985829917
 20
5.2024675525
 30
0.0
 40
2.2476499255
 41
0.0
 71
     1
 72
     1
  1
Metall & Schmiedekunst
  7
SLDTEXTSTYLE1
  0
ENDBLK
  5
79
330
77
100
AcDbEntity
  8
0
100
AcDbBlockEnd
  0
ENDSEC
  0
SECTION
  2
ENTITIES
  0
LINE
  5
82
330
1F
100
AcDbEntity
  8
SCHRIFTFELD
  6
SLD-DURCHGEHEND
 62
   250
100
AcDbLine
 10
159.4
 20
60.25
 30
0.0
 11
292.0
 21
60.25
 31
0.0
  0
LINE
  5
83
330
1F
100
AcDbEntity
  8
SCHRIFTFELD
  6
SLD-DURCHGEHEND
 62
   250
100
AcDbLine
 10
292.0
 20
43.25
 30
0.0
 11
159.4
 21
43.25
 31
0.0
  0
LINE
  5
84
330
1F
100
AcDbEntity
  8
SCHRIFTFELD
  6
SLD-DURCHGEHEND
 62
   250
100
AcDbLine
 10
279.0
 20
22.0
 30
0.0
 11
279.0
 21
9.25
 31
0.0
  0
LINE
  5
85
330
1F
100
AcDbEntity
  8
SCHRIFTFELD
  6
SLD-DURCHGEHEND
 62
   250
100
AcDbLine
 10
292.0
 20
22.0
 30
0.0
 11
159.4
 21
22.0
 31
0.0
  0
LINE
  5
86
330
1F
100
AcDbEntity
  8
SCHRIFTFELD
  6
SLD-DURCHGEHEND
 62
   250
100
AcDbLine
 10
159.4
 20
5.0
 30
0.0
 11
159.4
 21
60.25
 31
0.0
  0
LINE
  5
87
330
1F
100
AcDbEntity
  8
SCHRIFTFELD
  6
SLD-DURCHGEHEND
 62
   250
100
AcDbLine
 10
203.6
 20
5.0
 30
0.0
 11
203.6
 21
60.25
 31
0.0
  0
LINE
  5
88
330
1F
100
AcDbEntity
  8
SCHRIFTFELD
  6
SLD-DURCHGEHEND
 62
   250
100
AcDbLine
 10
159.4
 20
34.75
 30
0.0
 11
203.6
 21
34.75
 31
0.0
  0
LINE
  5
89
330
1F
100
AcDbEntity
  8
SCHRIFTFELD
  6
SLD-DURCHGEHEND
 62
   250
100
AcDbLine
 10
159.4
 20
30.5
 30
0.0
 11
203.6
 21
30.5
 31
0.0
  0
LINE
  5
8A
330
1F
100
AcDbEntity
  8
SCHRIFTFELD
  6
SLD-DURCHGEHEND
 62
   250
100
AcDbLine
 10
159.4
 20
26.25
 30
0.0
 11
203.6
 21
26.25
 31
0.0
  0
LINE
  5
8B
330
1F
100
AcDbEntity
  8
SCHRIFTFELD
  6
SLD-DURCHGEHEND
 62
   250
100
AcDbLine
 10
292.0
 20
9.25
 30
0.0
 11
159.4
 21
9.25
 31
0.0
  0
LINE
  5
8C
330
1F
100
AcDbEntity
  8
SCHRIFTFELD
  6
SLD-DURCHGEHEND
 62
   250
100
AcDbLine
 10
247.8
 20
9.25
 30
0.0
 11
247.8
 21
5.0
 31
0.0
  0
LINE
  5
8D
330
1F
100
AcDbEntity
  8
SCHRIFTFELD
  6
SLD-DURCHGEHEND
 62
   250
100
AcDbLine
 10
169.8
 20
43.25
 30
0.0
 11
169.8
 21
26.25
 31
0.0
  0
LINE
  5
8E
330
1F
100
AcDbEntity
  8
SCHRIFTFELD
  6
SLD-DURCHGEHEND
 62
   250
100
AcDbLine
 10
159.4
 20
39.0
 30
0.0
 11
203.6
 21
39.0
 31
0.0
  0
LINE
  5
8F
330
1F
100
AcDbEntity
  8
SCHRIFTFELD
  6
SLD-DURCHGEHEND
 62
   250
100
AcDbLine
 10
185.4
 20
60.25
 30
0.0
 11
185.4
 21
22.0
 31
0.0
  0
LINE
  5
90
330
1F
100
AcDbEntity
  8
SCHRIFTFELD
  6
SLD-DURCHGEHEND
 62
   250
100
AcDbLine
 10
292.0
 20
13.5
 30
0.0
 11
279.0
 21
13.5
 31
0.0
  0
LINE
  5
91
330
1F
100
AcDbEntity
  8
SCHRIFTFELD
  6
SLD-DURCHGEHEND
 62
   250
100
AcDbLine
 10
255.6
 20
60.25
 30
0.0
 11
255.6
 21
53.875
 31
0.0
  0
LINE
  5
92
330
1F
100
AcDbEntity
  8
SCHRIFTFELD
  6
SLD-DURCHGEHEND
 62
   250
100
AcDbLine
 10
203.6
 20
53.875
 30
0.0
 11
292.0
 21
53.875
 31
0.0
  0
LINE
  5
93
330
1F
100
AcDbEntity
  8
SCHRIFTFELD
  6
SLD-DURCHGEHEND
 62
   250
100
AcDbLine
 10
5.0
 20
5.0
 30
0.0
 11
292.0
 21
5.0
 31
0.0
  0
LINE
  5
94
330
1F
100
AcDbEntity
  8
SCHRIFTFELD
  6
SLD-DURCHGEHEND
 62
   250
100
AcDbLine
 10
292.0
 20
5.0
 30
0.0
 11
292.0
 21
205.0
 31
0.0
  0
LINE
  5
95
330
1F
100
AcDbEntity
  8
SCHRIFTFELD
  6
SLD-DURCHGEHEND
 62
   250
100
AcDbLine
 10
292.0
 20
205.0
 30
0.0
 11
5.0
 21
205.0
 31
0.0
  0
LINE
  5
96
330
1F
100
AcDbEntity
  8
SCHRIFTFELD
  6
SLD-DURCHGEHEND
 62
   250
100
AcDbLine
 10
5.0
 20
205.0
 30
0.0
 11
5.0
 21
5.0
 31
0.0
  0
LINE
  5
97
330
1F
100
AcDbEntity
  8
SLD-0
  6
SLD-DURCHGEHEND
 62
   250
100
AcDbLine
 10
139.5443010003
 20
70.0024333777
 30
0.0
 11
157.4629694102
 21
70.0024333777
 31
0.0
  0
LINE
  5
98
330
1F
100
AcDbEntity
  8
SLD-0
  6
SLD-DURCHGEHEND
 62
   250
100
AcDbLine
 10
151.4796206213
 20
99.1777420575
 30
0.0
 11
149.530078068
 21
182.0572553948
 31
0.0
  0
LINE
  5
99
330
1F
100
AcDbEntity
  8
SLD-0
  6
SLD-DURCHGEHEND
 62
   250
100
AcDbLine
 10
145.5276514861
 20
99.1778141951
 30
0.0
 11
147.4771627768
 21
182.05599849
 31
0.0
  0
ARC
  5
9A
330
1F
100
AcDbEntity
  8
SLD-0
  6
SLD-DURCHGEHEND
 62
   250
100
AcDbCircle
 10
147.5400674455
 20
182.1700933388
 30
0.0
 40
87.15983683432776
100
AcDbArc
 50
280.5534553592
 51
290.9017966547
  0
ARC
  5
9B
330
1F
100
AcDbEntity
  8
SLD-0
  6
SLD-DURCHGEHEND
 62
   250
100
AcDbCircle
 10
149.4740851907
 20
182.2476037772
 30
0.0
 40
87.23729695707928
100
AcDbArc
 50
249.1076758565
 51
259.4514215306
  0
ARC
  5
9C
330
1F
100
AcDbEntity
  8
SLD-0
  6
SLD-DURCHGEHEND
 62
   250
100
AcDbCircle
 10
165.0930541612
 20
88.5204918498
 30
0.0
 40
8.121173998504261
100
AcDbArc
 50
101.2863754022
 51
185.0684619103
  0
ARC
  5
9D
330
1F
100
AcDbEntity
  8
SLD-0
  6
SLD-DURCHGEHEND
 62
   250
100
AcDbCircle
 10
161.8653681177
 20
88.2342192671
 30
0.0
 40
4.880817662069859
100
AcDbArc
 50
185.0684619103
 51
237.4382387099
  0
ARC
  5
9E
330
1F
100
AcDbEntity
  8
SLD-0
  6
SLD-DURCHGEHEND
 62
   250
100
AcDbCircle
 10
153.1960367937
 20
74.6584103747
 30
0.0
 40
11.22694111084696
100
AcDbArc
 50
42.339533816
 51
57.4382391235
  0
ARC
  5
9F
330
1F
100
AcDbEntity
  8
SLD-0
  6
SLD-DURCHGEHEND
 62
   250
100
AcDbCircle
 10
155.8891844413
 20
77.1123851631
 30
0.0
 40
7.583448759632009
100
AcDbArc
 50
308.4424888867
 51
42.339533816
  0
ARC
  5
A0
330
1F
100
AcDbEntity
  8
SLD-0
  6
SLD-DURCHGEHEND
 62
   250
100
AcDbCircle
 10
157.2333023077
 20
75.4191113484
 30
0.0
 40
5.421544726060652
100
AcDbArc
 50
267.5721136301
 51
308.4424899295
  0
ARC
  5
A1
330
1F
100
AcDbEntity
  8
SLD-0
  6
SLD-DURCHGEHEND
 62
   250
100
AcDbCircle
 10
131.9142162493
 20
88.5204918498
 30
0.0
 40
8.121173998504254
100
AcDbArc
 50
354.9315381992
 51
78.713624359
  0
ARC
  5
A2
330
1F
100
AcDbEntity
  8
SLD-0
  6
SLD-DURCHGEHEND
 62
   250
100
AcDbCircle
 10
135.1419022929
 20
88.2342192671
 30
0.0
 40
4.880817662069822
100
AcDbArc
 50
302.5617614095
 51
354.9315382719
  0
ARC
  5
A3
330
1F
100
AcDbEntity
  8
SLD-0
  6
SLD-DURCHGEHEND
 62
   250
100
AcDbCircle
 10
143.8112336168
 20
74.6584103747
 30
0.0
 40
11.22694111084698
100
AcDbArc
 50
122.5617608245
 51
137.660466184
  0
ARC
  5
A4
330
1F
100
AcDbEntity
  8
SLD-0
  6
SLD-DURCHGEHEND
 62
   250
100
AcDbCircle
 10
141.1180859692
 20
77.1123851631
 30
0.0
 40
7.583448759632009
100
AcDbArc
 50
137.660466184
 51
231.5575137284
  0
ARC
  5
A5
330
1F
100
AcDbEntity
  8
SLD-0
  6
SLD-DURCHGEHEND
 62
   250
100
AcDbCircle
 10
139.7739681028
 20
75.4191113484
 30
0.0
 40
5.421544726060635
100
AcDbArc
 50
231.5575137284
 51
272.4278864363
  0
ARC
  5
A6
330
1F
100
AcDbEntity
  8
SLD-0
  6
SLD-DURCHGEHEND
 62
   250
100
AcDbCircle
 10
-223.9362105309
 20
268.179678532
 30
0.0
 40
377.8720243649342
100
AcDbArc
 50
334.3798085083
 51
346.5054934026
  0
ARC
  5
A7
330
1F
100
AcDbEntity
  8
SLD-0
  6
SLD-DURCHGEHEND
 62
   250
100
AcDbCircle
 10
520.9289903104
 20
268.1415977191
 30
0.0
 40
377.8490490459741
100
AcDbArc
 50
193.4894041665
 51
205.6154579468
  0
ARC
  5
A8
330
1F
100
AcDbEntity
  8
SLD-0
  6
SLD-DURCHGEHEND
 62
   250
100
AcDbCircle
 10
207.7429066464
 20
165.4434102312
 30
0.0
 40
65.8684230133196
100
AcDbArc
 50
161.2159585746
 51
167.2303509256
  0
ARC
  5
A9
330
1F
100
AcDbEntity
  8
SLD-0
  6
SLD-DURCHGEHEND
 62
   250
100
AcDbCircle
 10
151.3612157695
 20
184.7099307377
 30
0.0
 40
6.286399292199094
100
AcDbArc
 50
126.5402333235
 51
161.9938659129
  0
ARC
  5
AA
330
1F
100
AcDbEntity
  8
SLD-0
  6
SLD-DURCHGEHEND
 62
   250
100
AcDbCircle
 10
89.2643637641
 20
165.4434102312
 30
0.0
 40
65.86842301331957
100
AcDbArc
 50
12.7696490744
 51
18.7840414254
  0
ARC
  5
AB
330
1F
100
AcDbEntity
  8
SLD-0
  6
SLD-DURCHGEHEND
 62
   250
100
AcDbCircle
 10
145.646054641
 20
184.7099307377
 30
0.0
 40
6.286399292198651
100
AcDbArc
 50
18.0061340871
 51
53.4597666765
  0
ARC
  5
AC
330
1F
100
AcDbEntity
  8
SLD-0
  6
SLD-DURCHGEHEND
 62
   250
100
AcDbCircle
 10
148.5036352053
 20
188.2607870227
 30
0.0
 40
1.741646354946452
100
AcDbArc
 50
59.4500388846
 51
120.5499611154
  0
ARC
  5
AD
330
1F
100
AcDbEntity
  8
SLD-0
  6
SLD-DURCHGEHEND
 62
   250
100
AcDbCircle
 10
119.503607878
 20
103.5211423671
 30
0.0
 40
3.000000000000017
100
AcDbArc
 50
155.0531089358
 51
247.6775816242
  0
ARC
  5
AE
330
1F
100
AcDbEntity
  8
SLD-0
  6
SLD-DURCHGEHEND
 62
   250
100
AcDbCircle
 10
177.496392122
 20
103.5211423671
 30
0.0
 40
2.999999999999992
100
AcDbArc
 50
292.3224181371
 51
24.9468913239
  0
ARC
  5
AF
330
1F
100
AcDbEntity
  8
SLD-0
  6
SLD-DURCHGEHEND
 62
   250
100
AcDbCircle
 10
520.9289903104
 20
268.1415977191
 30
0.0
 40
380.8490490459742
100
AcDbArc
 50
193.0559078591
 51
205.1138303942
  0
ARC
  5
B0
330
1F
100
AcDbEntity
  8
SLD-0
  6
SLD-DURCHGEHEND
 62
   250
100
AcDbCircle
 10
-223.9362105309
 20
268.179678532
 30
0.0
 40
380.8720243649341
100
AcDbArc
 50
334.8815628434
 51
346.9388208805
  0
ARC
  5
B1
330
1F
100
AcDbEntity
  8
SLD-0
  6
SLD-DURCHGEHEND
 62
   250
100
AcDbCircle
 10
149.4740851907
 20
182.2476037772
 30
0.0
 40
84.23729695707914
100
AcDbArc
 50
251.4529797103
 51
259.4514244145
  0
ARC
  5
B2
330
1F
100
AcDbEntity
  8
SLD-0
  6
SLD-DURCHGEHEND
 62
   250
100
AcDbCircle
 10
147.5400674455
 20
182.1700933388
 30
0.0
 40
84.15983683432775
100
AcDbArc
 50
280.5534554921
 51
288.5551904274
  0
ARC
  5
B3
330
1F
100
AcDbEntity
  8
SLD-0
  6
SLD-DURCHGEHEND
 62
   250
100
AcDbCircle
 10
148.5043422292
 20
177.0399823626
 30
0.0
 40
78.94015412256275
100
AcDbArc
 50
272.9233927049
 51
280.5195280002
  0
ARC
  5
B4
330
1F
100
AcDbEntity
  8
SLD-0
  6
SLD-DURCHGEHEND
 62
   250
100
AcDbCircle
 10
148.5043422292
 20
177.0399823626
 30
0.0
 40
78.94015412256272
100
AcDbArc
 50
259.4514248138
 51
267.0755676867
  0
ARC
  5
B5
330
1F
100
AcDbEntity
  8
SLD-0
  6
SLD-DURCHGEHEND
 62
   250
100
AcDbCircle
 10
123.6338992348
 20
105.2295331272
 30
0.0
 40
2.999999999999995
100
AcDbArc
 50
154.8815625866
 51
251.4529803793
  0
ARC
  5
B6
330
1F
100
AcDbEntity
  8
SLD-0
  6
SLD-DURCHGEHEND
 62
   250
100
AcDbCircle
 10
173.3665869882
 20
105.2291419326
 30
0.0
 40
3.000000000000192
100
AcDbArc
 50
288.5551964519
 51
25.1138316736
  0
ARC
  5
B7
330
1F
100
AcDbEntity
  8
SLD-0
  6
SLD-DURCHGEHEND
 62
   250
100
AcDbCircle
 10
152.4793440794
 20
99.2012581635
 30
0.0
 40
1.000000000000016
100
AcDbArc
 50
181.3474978414
 51
272.9233927049
  0
ARC
  5
B8
330
1F
100
AcDbEntity
  8
SLD-0
  6
SLD-DURCHGEHEND
 62
   250
100
AcDbCircle
 10
144.527928028
 20
99.2013303011
 30
0.0
 40
1.00000000000007
100
AcDbArc
 50
267.0755676867
 51
358.6525021586
  0
ARC
  5
B9
330
1F
100
AcDbEntity
  8
SLD-0
  6
SLD-DURCHGEHEND
 62
   250
100
AcDbCircle
 10
149.7300227597
 20
182.061958616
 30
0.0
 40
0.200000000000196
100
AcDbArc
 50
13.0559087412
 51
181.3474978414
  0
ARC
  5
BA
330
1F
100
AcDbEntity
  8
SLD-0
  6
SLD-DURCHGEHEND
 62
   250
100
AcDbCircle
 10
147.2772180852
 20
182.0607017112
 30
0.0
 40
0.2000000000000269
100
AcDbArc
 50
358.6525021586
 51
166.9388207334
  0
INSERT
  5
BB
330
1F
100
AcDbEntity
  8
0
  6
CONTINUOUS
 62
     7
100
AcDbBlockReference
  2
_LOGO-0
 10
159.39995212
 20
9.249997165
 30
0.0
  0
MTEXT
  5
BD
330
1F
100
AcDbEntity
  8
SCHRIFTFELD
 62
   250
100
AcDbMText
 10
189.2695853339
 20
42.2663161982
 30
0.0
 40
2.5
 41
0.0
 71
     1
 72
     1
  1
Name
  7
SLDTEXTSTYLE2
  0
MTEXT
  5
BF
330
1F
100
AcDbEntity
  8
SCHRIFTFELD
 62
   250
100
AcDbMText
 10
171.9435757311
 20
42.2663161982
 30
0.0
 40
2.5
 41
0.0
 71
     1
 72
     1
  1
Datum
  7
SLDTEXTSTYLE3
  0
MTEXT
  5
C1
330
1F
100
AcDbEntity
  8
SCHRIFTFELD
 62
   250
100
AcDbMText
 10
160.0889375818
 20
38.1627876081
 30
0.0
 40
2.5
 41
0.0
 71
     1
 72
     1
  1
Bearb.
  7
SLDTEXTSTYLE4
  0
MTEXT
  5
C3
330
1F
100
AcDbEntity
  8
SCHRIFTFELD
 62
   250
100
AcDbMText
 10
160.0889375818
 20
33.9072764776
 30
0.0
 40
2.5
 41
0.0
 71
     1
 72
     1
  1
Gepr.
  7
SLDTEXTSTYLE5
  0
MTEXT
  5
C5
330
1F
100
AcDbEntity
  8
SCHRIFTFELD
 62
   250
100
AcDbMText
 10
160.0889375818
 20
29.6517653471
 30
0.0
 40
2.5
 41
0.0
 71
     1
 72
     1
  1
Norm
  7
SLDTEXTSTYLE6
  0
MTEXT
  5
C7
330
1F
100
AcDbEntity
  8
SCHRIFTFELD
 62
   250
100
AcDbMText
 10
160.0625403754
 20
7.795873671
 30
0.0
 40
1.8
 41
0.0
 71
     1
 72
     1
  1
Urspr.:
  7
SLDTEXTSTYLE7
  0
MTEXT
  5
C9
330
1F
100
AcDbEntity
  8
SCHRIFTFELD
 62
   250
100
AcDbMText
 10
204.1374770842
 20
7.795873671
 30
0.0
 40
1.8
 41
0.0
 71
     1
 72
     1
  1
Ers. für:
  7
SLDTEXTSTYLE8
  0
MTEXT
  5
CB
330
1F
100
AcDbEntity
  8
SCHRIFTFELD
 62
   250
100
AcDbMText
 10
248.5163788739
 20
7.795873671
 30
0.0
 40
1.8
 41
0.0
 71
     1
 72
     1
  1
Ers. durch:
  7
SLDTEXTSTYLE9
  0
MTEXT
  5
CD
330
1F
100
AcDbEntity
  8
SCHRIFTFELD
 62
   250
100
AcDbMText
 10
279.9271706678
 20
20.8985100743
 30
0.0
 40
1.8
 41
0.0
 71
     1
 72
     1
  1
Blatt
  7
SLDTEXTSTYLE10
  0
MTEXT
  5
CF
330
1F
100
AcDbEntity
  8
SCHRIFTFELD
 62
   250
100
AcDbMText
 10
284.2374867241
 20
12.0835227325
 30
0.0
 40
1.8
 41
0.0
 71
     1
 72
     1
  1
Blätter
  7
SLDTEXTSTYLE11
  0
MTEXT
  5
D1
330
1F
100
AcDbEntity
  8
SCHRIFTFELD
 62
   250
100
AcDbMText
 10
256.8349287671
 20
58.4891859068
 30
0.0
 40
2.5
 41
0.0
 71
     1
 72
     1
  1
Gewicht
  7
SLDTEXTSTYLE12
  0
MTEXT
  5
D3
330
1F
100
AcDbEntity
  8
SCHRIFTFELD
 62
   250
100
AcDbMText
 10
204.9811513221
 20
58.4891859068
 30
0.0
 40
2.5
 41
0.0
 71
     1
 72
     1
  1
Maßstab 1:1
  7
SLDTEXTSTYLE13
  0
MTEXT
  5
D5
330
1F
100
AcDbEntity
  8
SCHRIFTFELD
 62
   250
100
AcDbMText
 10
204.9811513221
 20
52.1141859068
 30
0.0
 40
2.5
 41
0.0
 71
     1
 72
     1
  1
Werkstoff
  7
SLDTEXTSTYLE14
  0
MTEXT
  5
D6
330
1F
100
AcDbEntity
  8
SCHRIFTFELD
 62
   250
100
AcDbMText
 10
170.675
 20
37.6198021591
 30
0.0
 40
2.0
 41
0.0
 71
     1
 72
     1
  1
14.01.2014
  7
SLDTEXTSTYLE13
  0
MTEXT
  5
D7
330
1F
100
AcDbEntity
  8
SCHRIFTFELD
 62
   250
100
AcDbMText
 10
186.275
 20
37.6198021591
 30
0.0
 40
2.0
 41
0.0
 71
     1
 72
     1
  1
CH
  7
SLDTEXTSTYLE13
  0
MTEXT
  5
D8
330
1F
100
AcDbEntity
  8
SCHRIFTFELD
 62
   250
100
AcDbMText
 10
271.0049287671
 20
58.4891859068
 30
0.0
 40
2.5
 41
0.0
 71
     1
 72
     1
  1
0,240kg
  7
SLDTEXTSTYLE13
  0
MTEXT
  5
D9
330
1F
100
AcDbEntity
  8
SCHRIFTFELD
 62
   250
100
AcDbMText
 10
279.8624867241
 20
12.7817033654
 30
0.0
 40
2.5
 41
0.0
 71
     1
 72
     1
  1
1
  7
SLDTEXTSTYLE13
  0
MTEXT
  5
DA
330
1F
100
AcDbEntity
  8
SCHRIFTFELD
 62
   250
100
AcDbMText
 10
285.1124867241
 20
18.0317033654
 30
0.0
 40
2.5
 41
0.0
 71
     1
 72
     1
  1
1
  7
SLDTEXTSTYLE13
  0
MTEXT
  5
DB
330
1F
100
AcDbEntity
  8
SCHRIFTFELD
 62
   250
100
AcDbMText
 10
220.3861513221
 20
49.2352876453
 30
0.0
 40
4.0
 41
0.0
 71
     1
 72
     1
  1
Stahl
  7
SLDTEXTSTYLE13
  0
MTEXT
  5
DC
330
1F
100
AcDbEntity
  8
SCHRIFTFELD
 62
   250
100
AcDbMText
 10
239.1671875
 20
35.1120051594
 30
0.0
 40
5.0
 41
0.0
 71
     1
 72
     1
  1
727-2
  7
SLDTEXTSTYLE13
  0
MTEXT
  5
DE
330
1F
100
AcDbEntity
  8
SLD-0
 62
   250
100
AcDbMText
 10
135.4357943404
 20
151.4004256883
 30
0.0
 40
0.002
 41
0.0
 71
     1
 72
     1
  1
Bo
  7
SLDTEXTSTYLE15
  0
MTEXT
  5
DF
330
1F
100
AcDbEntity
  8
SLD-0
 62
   250
100
AcDbMText
 10
146.9936159108
 20
161.5787308303
 30
0.0
 40
0.002
 41
0.0
 71
     1
 72
     1
  1
Bo
  7
SLDTEXTSTYLE15
  0
MTEXT
  5
E0
330
1F
100
AcDbEntity
  8
SLD-0
 62
   250
100
AcDbMText
 10
131.0052466382
 20
96.9886704721
 30
0.0
 40
0.002
 41
0.0
 71
     1
 72
     1
  1
Bo
  7
SLDTEXTSTYLE15
  0
ENDSEC
  0
SECTION
  2
OBJECTS
  0
DICTIONARY
  5
C
330
0
100
AcDbDictionary
  3
ACAD_GROUP
350
D
  3
ACAD_MLINESTYLE
350
17
  3
ACAD_SCALELIST
350
47
1001
ACAD
1000
TREAT_AS_HARD
1070
     0
  0
DICTIONARY
  5
D
102
{ACAD_REACTORS
330
C
102
}
330
C
100
AcDbDictionary
1001
ACAD
1000
TREAT_AS_HARD
1070
     0
  0
DICTIONARY
  5
17
102
{ACAD_REACTORS
330
C
102
}
330
C
100
AcDbDictionary
  3
STANDARD
350
18
1001
ACAD
1000
TREAT_AS_HARD
1070
     0
  0
DICTIONARY
  5
47
102
{ACAD_REACTORS
330
C
102
}
330
C
100
AcDbDictionary
1001
ACAD
1000
TREAT_AS_HARD
1070
     0
  0
MLINESTYLE
  5
18
102
{ACAD_REACTORS
330
17
102
}
330
17
100
AcDbMlineStyle
  2
Standard
 70
     0
  3

 62
   256
 51
90.0
 52
90.0
 71
     2
 49
0.5
 62
   256
  6
BYLAYER
 49
-0.5
 62
   256
  6
BYLAYER
  0
ENDSEC
  0
EOF
