  0
SECTION
  2
HEADER
  9
$ACADVER
  1
AC1012
  9
$DWGCODEPAGE
  3
ansi_1252
  9
$INSBASE
 10
0.0
 20
0.0
 30
0.0
  9
$EXTMIN
 10
0.0
 20
0.0
 30
0.0
  9
$EXTMAX
 10
44.0
 20
34.0
 30
0.0
  9
$LIMMIN
 10
0.0
 20
0.0
  9
$LIMMAX
 10
44.0
 20
34.0
  9
$ORTHOMODE
 70
     0
  9
$REGENMODE
 70
     1
  9
$FILLMODE
 70
     1
  9
$QTEXTMODE
 70
     0
  9
$MIRRTEXT
 70
     1
  9
$DRAGMODE
 70
     2
  9
$LTSCALE
 40
1.0
  9
$OSMODE
 70
    37
  9
$ATTMODE
 70
     1
  9
$TEXTSIZE
 40
0.1377952756
  9
$TRACEWID
 40
0.05
  9
$TEXTSTYLE
  7
STANDARD
  9
$CLAYER
  8
0
  9
$CELTYPE
  6
BYLAYER
  9
$CECOLOR
 62
   256
  9
$CELTSCALE
 40
1.0
  9
$DELOBJ
 70
     1
  9
$DISPSILH
 70
     0
  9
$DIMSCALE
 40
1.0
  9
$DIMASZ
 40
0.13
  9
$DIMEXO
 40
0.0393700787
  9
$DIMDLI
 40
0.38
  9
$DIMRND
 40
0.0
  9
$DIMDLE
 40
0.0
  9
$DIMEXE
 40
0.0393700787
  9
$DIMTP
 40
0.0
  9
$DIMTM
 40
0.0
  9
$DIMTXT
 40
0.1377952756
  9
$DIMCEN
 40
0.09
  9
$DIMTSZ
 40
0.0
  9
$DIMTOL
 70
     0
  9
$DIMLIM
 70
     0
  9
$DIMTIH
 70
     1
  9
$DIMTOH
 70
     1
  9
$DIMSE1
 70
     0
  9
$DIMSE2
 70
     0
  9
$DIMTAD
 70
     1
  9
$DIMZIN
 70
     1
  9
$DIMBLK
  1

  9
$DIMASO
 70
     1
  9
$DIMSHO
 70
     1
  9
$DIMPOST
  1

  9
$DIMAPOST
  1

  9
$DIMALT
 70
     0
  9
$DIMALTD
 70
     2
  9
$DIMALTF
 40
25.4
  9
$DIMLFAC
 40
1.0
  9
$DIMTOFL
 70
     0
  9
$DIMTVP
 40
0.0
  9
$DIMTIX
 70
     0
  9
$DIMSOXD
 70
     0
  9
$DIMSAH
 70
     0
  9
$DIMBLK1
  1

  9
$DIMBLK2
  1

  9
$DIMSTYLE
  2
STANDARD
  9
$DIMCLRD
 70
     0
  9
$DIMCLRE
 70
     0
  9
$DIMCLRT
 70
     0
  9
$DIMTFAC
 40
1.0
  9
$DIMGAP
 40
0.06
  9
$DIMJUST
 70
     0
  9
$DIMSD1
 70
     0
  9
$DIMSD2
 70
     0
  9
$DIMTOLJ
 70
     1
  9
$DIMTZIN
 70
     1
  9
$DIMALTZ
 70
     0
  9
$DIMALTTZ
 70
     0
  9
$DIMFIT
 70
     3
  9
$DIMUPT
 70
     0
  9
$DIMUNIT
 70
     2
  9
$DIMDEC
 70
     0
  9
$DIMTDEC
 70
     4
  9
$DIMALTU
 70
     2
  9
$DIMALTTD
 70
     2
  9
$DIMTXSTY
  7
STANDARD
  9
$DIMAUNIT
 70
     0
  9
$LUNITS
 70
     2
  9
$LUPREC
 70
     4
  9
$SKETCHINC
 40
0.1
  9
$FILLETRAD
 40
0.5
  9
$AUNITS
 70
     0
  9
$AUPREC
 70
     0
  9
$MENU
  1
.
  9
$ELEVATION
 40
0.0
  9
$PELEVATION
 40
0.0
  9
$THICKNESS
 40
0.0
  9
$LIMCHECK
 70
     0
  9
$CHAMFERA
 40
0.0
  9
$CHAMFERB
 40
0.0
  9
$CHAMFERC
 40
0.0
  9
$CHAMFERD
 40
0.0
  9
$SKPOLY
 70
     0
  9
$TDCREATE
 40
2456813.561199954
  9
$TDUPDATE
 40
2456813.561200324
  9
$TDINDWG
 40
0.0000000116
  9
$TDUSRTIMER
 40
0.0000000116
  9
$USRTIMER
 70
     1
  9
$ANGBASE
 50
0.0
  9
$ANGDIR
 70
     0
  9
$PDMODE
 70
     0
  9
$PDSIZE
 40
-1.0
  9
$PLINEWID
 40
0.0
  9
$COORDS
 70
     1
  9
$SPLFRAME
 70
     0
  9
$SPLINETYPE
 70
     6
  9
$SPLINESEGS
 70
     8
  9
$ATTDIA
 70
     0
  9
$ATTREQ
 70
     1
  9
$HANDLING
 70
     1
  9
$HANDSEED
  5
264
  9
$SURFTAB1
 70
     6
  9
$SURFTAB2
 70
     6
  9
$SURFTYPE
 70
     6
  9
$SURFU
 70
     6
  9
$SURFV
 70
     6
  9
$UCSNAME
  2

  9
$UCSORG
 10
0.0
 20
0.0
 30
0.0
  9
$UCSXDIR
 10
1.0
 20
0.0
 30
0.0
  9
$UCSYDIR
 10
0.0
 20
1.0
 30
0.0
  9
$PUCSNAME
  2

  9
$PUCSORG
 10
0.0
 20
0.0
 30
0.0
  9
$PUCSXDIR
 10
1.0
 20
0.0
 30
0.0
  9
$PUCSYDIR
 10
0.0
 20
1.0
 30
0.0
  9
$USERI1
 70
     0
  9
$USERI2
 70
     0
  9
$USERI3
 70
     0
  9
$USERI4
 70
     0
  9
$USERI5
 70
     0
  9
$USERR1
 40
0.0
  9
$USERR2
 40
0.0
  9
$USERR3
 40
0.0
  9
$USERR4
 40
0.0
  9
$USERR5
 40
0.0
  9
$WORLDVIEW
 70
     1
  9
$SHADEDGE
 70
     3
  9
$SHADEDIF
 70
    70
  9
$TILEMODE
 70
     1
  9
$MAXACTVP
 70
    64
  9
$PINSBASE
 10
0.0
 20
0.0
 30
0.0
  9
$PLIMCHECK
 70
     0
  9
$PEXTMIN
 10
1.0000000000E+20
 20
1.0000000000E+20
 30
1.0000000000E+20
  9
$PEXTMAX
 10
-1.0000000000E+20
 20
-1.0000000000E+20
 30
-1.0000000000E+20
  9
$PLIMMIN
 10
0.0
 20
0.0
  9
$PLIMMAX
 10
12.0
 20
9.0
  9
$UNITMODE
 70
     0
  9
$VISRETAIN
 70
     1
  9
$PLINEGEN
 70
     0
  9
$PSLTSCALE
 70
     1
  9
$TREEDEPTH
 70
  3020
  9
$PICKSTYLE
 70
     1
  9
$CMLSTYLE
  2
STANDARD
  9
$CMLJUST
 70
     0
  9
$CMLSCALE
 40
1.0
  9
$SAVEIMAGES
 70
     1
  0
ENDSEC
  0
SECTION
  2
CLASSES
  0
CLASS
  1
ACDBDICTIONARYWDFLT
  2
AcDbDictionaryWithDefault
  3
ObjectDBX Classes
 90
    32768
280
     0
281
     0
  0
CLASS
  1
VISUALSTYLE
  2
AcDbVisualStyle
  3
ObjectDBX Classes
 90
     4095
280
     0
281
     0
  0
CLASS
  1
MATERIAL
  2
AcDbMaterial
  3
ObjectDBX Classes
 90
     1153
280
     0
281
     0
  0
CLASS
  1
SCALE
  2
AcDbScale
  3
ObjectDBX Classes
 90
     1153
280
     0
281
     0
  0
CLASS
  1
SUN
  2
AcDbSun
  3
SCENEOE
 90
     1153
280
     0
281
     0
  0
CLASS
  1
XRECORD
  2
AcDbXrecord
  3
ObjectDBX Classes
 90
    32768
280
     0
281
     0
  0
ENDSEC
  0
SECTION
  2
TABLES
  0
TABLE
  2
VPORT
  5
8
330
0
100
AcDbSymbolTable
 70
     1
  0
VPORT
  5
29
330
8
100
AcDbSymbolTableRecord
100
AcDbViewportTableRecord
  2
*ACTIVE
 70
     0
 10
0.0
 20
0.0
 11
1.0
 21
1.0
 12
22.0
 22
17.0
 13
0.0
 23
0.0
 14
0.5
 24
0.5
 15
0.5
 25
0.5
 16
0.0
 26
0.0
 36
1.0
 17
0.0
 27
0.0
 37
0.0
 40
34.0
 41
1.2941176471
 42
50.0
 43
0.0
 44
0.0
 50
0.0
 51
0.0
 71
     0
 72
  2000
 73
     1
 74
     3
 75
     0
 76
     0
 77
     0
 78
     0
  0
ENDTAB
  0
TABLE
  2
LTYPE
  5
5
330
0
100
AcDbSymbolTable
 70
     8
  0
LTYPE
  5
14
330
5
100
AcDbSymbolTableRecord
100
AcDbLinetypeTableRecord
  2
BYBLOCK
 70
     0
  3

 72
    65
 73
     0
 40
0.0
  0
LTYPE
  5
15
330
5
100
AcDbSymbolTableRecord
100
AcDbLinetypeTableRecord
  2
BYLAYER
 70
     0
  3

 72
    65
 73
     0
 40
0.0
  0
LTYPE
  5
16
330
5
100
AcDbSymbolTableRecord
100
AcDbLinetypeTableRecord
  2
CONTINUOUS
 70
     0
  3
Solid line
 72
    65
 73
     0
 40
0.0
  0
LTYPE
  5
6A
330
5
100
AcDbSymbolTableRecord
100
AcDbLinetypeTableRecord
  2
SLD-DURCHGEHEND
 70
     0
  3
SolidWorks Line Style
 72
    65
 73
     0
 40
0.0
  0
LTYPE
  5
6B
330
5
100
AcDbSymbolTableRecord
100
AcDbLinetypeTableRecord
  2
SLD-GESTRICHELT
 70
     0
  3
SolidWorks Line Style
 72
    65
 73
     2
 40
0.075
 49
0.05
 74
     0
 49
-0.025
 74
     0
  0
LTYPE
  5
6C
330
5
100
AcDbSymbolTableRecord
100
AcDbLinetypeTableRecord
  2
SLD-PHANTOM
 70
     0
  3
SolidWorks Line Style
 72
    65
 73
     6
 40
0.5
 49
0.25
 74
     0
 49
-0.05
 74
     0
 49
0.05
 74
     0
 49
-0.05
 74
     0
 49
0.05
 74
     0
 49
-0.05
 74
     0
  0
LTYPE
  5
6D
330
5
100
AcDbSymbolTableRecord
100
AcDbLinetypeTableRecord
  2
SLD-KETTE
 70
     0
  3
SolidWorks Line Style
 72
    65
 73
     4
 40
0.4
 49
0.25
 74
     0
 49
-0.05
 74
     0
 49
0.05
 74
     0
 49
-0.05
 74
     0
  0
LTYPE
  5
6E
330
5
100
AcDbSymbolTableRecord
100
AcDbLinetypeTableRecord
  2
SLD-PUNKTSTRICH
 70
     0
  3
SolidWorks Line Style
 72
    65
 73
     4
 40
0.75
 49
0.6
 74
     0
 49
-0.05
 74
     0
 49
0.05
 74
     0
 49
-0.05
 74
     0
  0
LTYPE
  5
6F
330
5
100
AcDbSymbolTableRecord
100
AcDbLinetypeTableRecord
  2
SLD-NAHT
 70
     0
  3
SolidWorks Line Style
 72
    65
 73
     2
 40
0.025
 49
0.0
 74
     0
 49
-0.025
 74
     0
  0
LTYPE
  5
70
330
5
100
AcDbSymbolTableRecord
100
AcDbLinetypeTableRecord
  2
SLD-DICKE-DÜNNE-KETTE
 70
     0
  3
SolidWorks Line Style
 72
    65
 73
     4
 40
0.4
 49
0.25
 74
     0
 49
-0.05
 74
     0
 49
0.05
 74
     0
 49
-0.05
 74
     0
  0
ENDTAB
  0
TABLE
  2
LAYER
  5
2
330
0
100
AcDbSymbolTable
 70
     6
  0
LAYER
  5
10
330
2
100
AcDbSymbolTableRecord
100
AcDbLayerTableRecord
  2
0
 70
     0
 62
     7
  6
CONTINUOUS
  0
LAYER
  5
71
330
2
100
AcDbSymbolTableRecord
100
AcDbLayerTableRecord
  2
FORMAT
 70
     0
 62
     7
  6
SLD-DURCHGEHEND
  0
LAYER
  5
72
330
2
100
AcDbSymbolTableRecord
100
AcDbLayerTableRecord
  2
SLD-0
 70
     0
 62
    -1
  6
SLD-DURCHGEHEND
  0
LAYER
  5
73
330
2
100
AcDbSymbolTableRecord
100
AcDbLayerTableRecord
  2
GRUNDEBENE
 70
     0
 62
     1
  6
SLD-DURCHGEHEND
  0
LAYER
  5
74
330
2
100
AcDbSymbolTableRecord
100
AcDbLayerTableRecord
  2
HILFSLINIEN
 70
     0
 62
     1
  6
SLD-DURCHGEHEND
  0
LAYER
  5
75
330
2
100
AcDbSymbolTableRecord
100
AcDbLayerTableRecord
  2
SCHRIFTFELD
 70
     0
 62
     1
  6
SLD-DURCHGEHEND
  0
ENDTAB
  0
TABLE
  2
STYLE
  5
3
330
0
100
AcDbSymbolTable
 70
    13
  0
STYLE
  5
11
330
3
100
AcDbSymbolTableRecord
100
AcDbTextStyleTableRecord
  2
STANDARD
 70
     0
 40
0.0
 41
1.0
 50
0.0
 71
     0
 42
0.1377952756
  3
txt
  4

  0
STYLE
  5
7D
330
3
100
AcDbSymbolTableRecord
100
AcDbTextStyleTableRecord
  2
SLDTEXTSTYLE0
 70
     0
 40
0.0
 41
0.6336212573
 50
0.0
 71
     0
 42
0.1377952756
  3
TXT
  4

  0
STYLE
  5
7F
330
3
100
AcDbSymbolTableRecord
100
AcDbTextStyleTableRecord
  2
SLDTEXTSTYLE1
 70
     0
 40
0.0
 41
0.6350511469
 50
0.0
 71
     0
 42
0.1377952756
  3
TXT
  4

  0
STYLE
  5
246
330
3
100
AcDbSymbolTableRecord
100
AcDbTextStyleTableRecord
  2
SLDTEXTSTYLE2
 70
     0
 40
0.0
 41
0.6409129431
 50
0.0
 71
     0
 42
0.1377952756
  3
TXT
  4

  0
STYLE
  5
248
330
3
100
AcDbSymbolTableRecord
100
AcDbTextStyleTableRecord
  2
SLDTEXTSTYLE3
 70
     0
 40
0.0
 41
0.6406544573
 50
0.0
 71
     0
 42
0.1377952756
  3
TXT
  4

  0
STYLE
  5
24A
330
3
100
AcDbSymbolTableRecord
100
AcDbTextStyleTableRecord
  2
SLDTEXTSTYLE4
 70
     0
 40
0.0
 41
0.638185654
 50
0.0
 71
     0
 42
0.1377952756
  3
TXT
  4

  0
STYLE
  5
24D
330
3
100
AcDbSymbolTableRecord
100
AcDbTextStyleTableRecord
  2
SLDTEXTSTYLE5
 70
     0
 40
0.0
 41
0.6411608785
 50
0.0
 71
     0
 42
0.1377952756
  3
TXT
  4

  0
STYLE
  5
24F
330
3
100
AcDbSymbolTableRecord
100
AcDbTextStyleTableRecord
  2
SLDTEXTSTYLE6
 70
     0
 40
0.0
 41
0.6382660807
 50
0.0
 71
     0
 42
0.1377952756
  3
TXT
  4

  0
STYLE
  5
251
330
3
100
AcDbSymbolTableRecord
100
AcDbTextStyleTableRecord
  2
SLDTEXTSTYLE7
 70
     0
 40
0.0
 41
0.6384384918
 50
0.0
 71
     0
 42
0.1377952756
  3
TXT
  4

  0
STYLE
  5
253
330
3
100
AcDbSymbolTableRecord
100
AcDbTextStyleTableRecord
  2
SLDTEXTSTYLE8
 70
     0
 40
0.0
 41
0.6381190723
 50
0.0
 71
     0
 42
0.1377952756
  3
TXT
  4

  0
STYLE
  5
256
330
3
100
AcDbSymbolTableRecord
100
AcDbTextStyleTableRecord
  2
SLDTEXTSTYLE9
 70
     0
 40
0.0
 41
0.63838069
 50
0.0
 71
     0
 42
0.1377952756
  3
TXT
  4

  0
STYLE
  5
258
330
3
100
AcDbSymbolTableRecord
100
AcDbTextStyleTableRecord
  2
SLDTEXTSTYLE10
 70
     0
 40
0.0
 41
0.6380893241
 50
0.0
 71
     0
 42
0.1377952756
  3
TXT
  4

  0
STYLE
  5
25B
330
3
100
AcDbSymbolTableRecord
100
AcDbTextStyleTableRecord
  2
SLDTEXTSTYLE11
 70
     0
 40
0.0
 41
0.6381307563
 50
0.0
 71
     0
 42
0.1377952756
  3
TXT
  4

  0
ENDTAB
  0
TABLE
  2
VIEW
  5
6
330
0
100
AcDbSymbolTable
 70
     0
  0
ENDTAB
  0
TABLE
  2
UCS
  5
7
330
0
100
AcDbSymbolTable
 70
     0
  0
ENDTAB
  0
TABLE
  2
APPID
  5
9
330
0
100
AcDbSymbolTable
 70
     1
  0
APPID
  5
12
330
9
100
AcDbSymbolTableRecord
100
AcDbRegAppTableRecord
  2
ACAD
 70
     0
  0
ENDTAB
  0
TABLE
  2
DIMSTYLE
  5
A
330
0
100
AcDbSymbolTable
 70
     1
  0
DIMSTYLE
105
27
330
A
100
AcDbSymbolTableRecord
100
AcDbDimStyleTableRecord
  2
STANDARD
 70
     0
  3

  4

  5

  6

  7

 40
1.0
 41
0.18
 42
0.0625
 43
0.38
 44
0.18
 45
0.0
 46
0.0
 47
0.0
 48
0.0
140
0.18
141
0.09
142
0.0
143
25.4
144
1.0
145
0.0
146
1.0
147
0.09
 71
     0
 72
     0
 73
     1
 74
     1
 75
     0
 76
     0
 77
     0
 78
     0
170
     0
171
     2
172
     0
173
     0
174
     0
175
     0
176
     0
177
     0
178
     0
270
     2
271
     4
272
     4
273
     2
274
     2
340
11
275
     0
280
     0
281
     0
282
     0
283
     1
284
     0
285
     0
286
     0
287
     3
288
     0
  0
ENDTAB
  0
TABLE
  2
BLOCK_RECORD
  5
1
330
0
100
AcDbSymbolTable
 70
     2
  0
BLOCK_RECORD
  5
1F
330
1
100
AcDbSymbolTableRecord
100
AcDbBlockTableRecord
  2
*MODEL_SPACE
  0
BLOCK_RECORD
  5
1B
330
1
100
AcDbSymbolTableRecord
100
AcDbBlockTableRecord
  2
*PAPER_SPACE
  0
BLOCK_RECORD
  5
23
330
1
100
AcDbSymbolTableRecord
100
AcDbBlockTableRecord
  2
*PAPER_SPACE0
  0
BLOCK_RECORD
  5
76
330
1
100
AcDbSymbolTableRecord
100
AcDbBlockTableRecord
  2
_LOGO-0
  0
ENDTAB
  0
ENDSEC
  0
SECTION
  2
BLOCKS
  0
BLOCK
  5
20
330
1F
100
AcDbEntity
  8
0
100
AcDbBlockBegin
  2
*MODEL_SPACE
 70
     0
 10
0.0
 20
0.0
 30
0.0
  3
*MODEL_SPACE
  1

  0
ENDBLK
  5
21
330
1F
100
AcDbEntity
  8
0
100
AcDbBlockEnd
  0
BLOCK
  5
1C
330
1B
100
AcDbEntity
 67
     1
  8
0
100
AcDbBlockBegin
  2
*PAPER_SPACE
 70
     0
 10
0.0
 20
0.0
 30
0.0
  3
*PAPER_SPACE
  1

  0
ENDBLK
  5
1D
330
1B
100
AcDbEntity
 67
     1
  8
0
100
AcDbBlockEnd
  0
BLOCK
  5
24
330
23
100
AcDbEntity
  8
0
100
AcDbBlockBegin
  2
*PAPER_SPACE0
 70
     0
 10
0.0
 20
0.0
 30
0.0
  3
*PAPER_SPACE0
  1
*PAPER_SPACE0
  0
ENDBLK
  5
25
330
23
100
AcDbEntity
  8
0
100
AcDbBlockEnd
  0
BLOCK
  5
77
330
76
100
AcDbEntity
  8
0
100
AcDbBlockBegin
  2
_LOGO-0
 70
     0
 10
0.0
 20
0.0
 30
0.0
  3
_LOGO-0
  1
_LOGO-0
  0
LINE
  5
79
330
76
100
AcDbEntity
  8
SCHRIFTFELD
  6
SLD-DURCHGEHEND
 62
   250
100
AcDbLine
 10
0.00001596
 20
0.000000945
 30
0.0
 11
44.20008864
 21
0.000000945
 31
0.0
  0
LINE
  5
7A
330
76
100
AcDbEntity
  8
SCHRIFTFELD
  6
SLD-DURCHGEHEND
 62
   250
100
AcDbLine
 10
44.20008864
 20
0.000000945
 30
0.0
 11
44.20008864
 21
12.750007275
 31
0.0
  0
LINE
  5
7B
330
76
100
AcDbEntity
  8
SCHRIFTFELD
  6
SLD-DURCHGEHEND
 62
   250
100
AcDbLine
 10
44.20008864
 20
12.750007275
 30
0.0
 11
0.00001596
 21
12.750007275
 31
0.0
  0
LINE
  5
7C
330
76
100
AcDbEntity
  8
SCHRIFTFELD
  6
SLD-DURCHGEHEND
 62
   250
100
AcDbLine
 10
0.00001596
 20
12.750007275
 30
0.0
 11
0.00001596
 21
0.000000945
 31
0.0
  0
MTEXT
  5
7E
330
76
100
AcDbEntity
  8
SCHRIFTFELD
100
AcDbMText
 10
2.7788024546
 20
9.6181423941
 30
0.0
 40
3.7050486595
 41
0.0
 71
     1
 72
     1
  1
Feldmann GmbH
  7
SLDTEXTSTYLE0
  0
MTEXT
  5
80
330
76
100
AcDbEntity
  8
SCHRIFTFELD
100
AcDbMText
 10
5.5985829917
 20
5.115856142
 30
0.0
 40
2.2476499255
 41
0.0
 71
     1
 72
     1
  1
Metall & Schmiedekunst
  7
SLDTEXTSTYLE1
  0
ENDBLK
  5
78
330
76
100
AcDbEntity
  8
0
100
AcDbBlockEnd
  0
ENDSEC
  0
SECTION
  2
ENTITIES
  0
LINE
  5
81
330
1F
100
AcDbEntity
  8
SCHRIFTFELD
  6
SLD-DURCHGEHEND
 62
   250
100
AcDbLine
 10
159.4
 20
60.25
 30
0.0
 11
292.0
 21
60.25
 31
0.0
  0
LINE
  5
82
330
1F
100
AcDbEntity
  8
SCHRIFTFELD
  6
SLD-DURCHGEHEND
 62
   250
100
AcDbLine
 10
292.0
 20
43.25
 30
0.0
 11
159.4
 21
43.25
 31
0.0
  0
LINE
  5
83
330
1F
100
AcDbEntity
  8
SCHRIFTFELD
  6
SLD-DURCHGEHEND
 62
   250
100
AcDbLine
 10
279.0
 20
22.0
 30
0.0
 11
279.0
 21
9.25
 31
0.0
  0
LINE
  5
84
330
1F
100
AcDbEntity
  8
SCHRIFTFELD
  6
SLD-DURCHGEHEND
 62
   250
100
AcDbLine
 10
292.0
 20
22.0
 30
0.0
 11
159.4
 21
22.0
 31
0.0
  0
LINE
  5
85
330
1F
100
AcDbEntity
  8
SCHRIFTFELD
  6
SLD-DURCHGEHEND
 62
   250
100
AcDbLine
 10
159.4
 20
5.0
 30
0.0
 11
159.4
 21
60.25
 31
0.0
  0
LINE
  5
86
330
1F
100
AcDbEntity
  8
SCHRIFTFELD
  6
SLD-DURCHGEHEND
 62
   250
100
AcDbLine
 10
203.6
 20
5.0
 30
0.0
 11
203.6
 21
60.25
 31
0.0
  0
LINE
  5
87
330
1F
100
AcDbEntity
  8
SCHRIFTFELD
  6
SLD-DURCHGEHEND
 62
   250
100
AcDbLine
 10
159.4
 20
34.75
 30
0.0
 11
203.6
 21
34.75
 31
0.0
  0
LINE
  5
88
330
1F
100
AcDbEntity
  8
SCHRIFTFELD
  6
SLD-DURCHGEHEND
 62
   250
100
AcDbLine
 10
159.4
 20
30.5
 30
0.0
 11
203.6
 21
30.5
 31
0.0
  0
LINE
  5
89
330
1F
100
AcDbEntity
  8
SCHRIFTFELD
  6
SLD-DURCHGEHEND
 62
   250
100
AcDbLine
 10
159.4
 20
26.25
 30
0.0
 11
203.6
 21
26.25
 31
0.0
  0
LINE
  5
8A
330
1F
100
AcDbEntity
  8
SCHRIFTFELD
  6
SLD-DURCHGEHEND
 62
   250
100
AcDbLine
 10
292.0
 20
9.25
 30
0.0
 11
159.4
 21
9.25
 31
0.0
  0
LINE
  5
8B
330
1F
100
AcDbEntity
  8
SCHRIFTFELD
  6
SLD-DURCHGEHEND
 62
   250
100
AcDbLine
 10
247.8
 20
9.25
 30
0.0
 11
247.8
 21
5.0
 31
0.0
  0
LINE
  5
8C
330
1F
100
AcDbEntity
  8
SCHRIFTFELD
  6
SLD-DURCHGEHEND
 62
   250
100
AcDbLine
 10
169.8
 20
43.25
 30
0.0
 11
169.8
 21
26.25
 31
0.0
  0
LINE
  5
8D
330
1F
100
AcDbEntity
  8
SCHRIFTFELD
  6
SLD-DURCHGEHEND
 62
   250
100
AcDbLine
 10
159.4
 20
39.0
 30
0.0
 11
203.6
 21
39.0
 31
0.0
  0
LINE
  5
8E
330
1F
100
AcDbEntity
  8
SCHRIFTFELD
  6
SLD-DURCHGEHEND
 62
   250
100
AcDbLine
 10
185.4
 20
60.25
 30
0.0
 11
185.4
 21
22.0
 31
0.0
  0
LINE
  5
8F
330
1F
100
AcDbEntity
  8
SCHRIFTFELD
  6
SLD-DURCHGEHEND
 62
   250
100
AcDbLine
 10
292.0
 20
13.5
 30
0.0
 11
279.0
 21
13.5
 31
0.0
  0
LINE
  5
90
330
1F
100
AcDbEntity
  8
SCHRIFTFELD
  6
SLD-DURCHGEHEND
 62
   250
100
AcDbLine
 10
255.6
 20
60.25
 30
0.0
 11
255.6
 21
53.875
 31
0.0
  0
LINE
  5
91
330
1F
100
AcDbEntity
  8
SCHRIFTFELD
  6
SLD-DURCHGEHEND
 62
   250
100
AcDbLine
 10
203.6
 20
53.875
 30
0.0
 11
292.0
 21
53.875
 31
0.0
  0
LINE
  5
92
330
1F
100
AcDbEntity
  8
SCHRIFTFELD
  6
SLD-DURCHGEHEND
 62
   250
100
AcDbLine
 10
5.0
 20
5.0
 30
0.0
 11
292.0
 21
5.0
 31
0.0
  0
LINE
  5
93
330
1F
100
AcDbEntity
  8
SCHRIFTFELD
  6
SLD-DURCHGEHEND
 62
   250
100
AcDbLine
 10
292.0
 20
5.0
 30
0.0
 11
292.0
 21
205.0
 31
0.0
  0
LINE
  5
94
330
1F
100
AcDbEntity
  8
SCHRIFTFELD
  6
SLD-DURCHGEHEND
 62
   250
100
AcDbLine
 10
292.0
 20
205.0
 30
0.0
 11
5.0
 21
205.0
 31
0.0
  0
LINE
  5
95
330
1F
100
AcDbEntity
  8
SCHRIFTFELD
  6
SLD-DURCHGEHEND
 62
   250
100
AcDbLine
 10
5.0
 20
205.0
 30
0.0
 11
5.0
 21
5.0
 31
0.0
  0
LINE
  5
96
330
1F
100
AcDbEntity
  8
GRUNDEBENE
  6
SLD-DURCHGEHEND
 62
   250
100
AcDbLine
 10
161.2236442928
 20
105.3913556019
 30
0.0
 11
161.4186443981
 21
105.3913556019
 31
0.0
  0
LINE
  5
97
330
1F
100
AcDbEntity
  8
GRUNDEBENE
  6
SLD-DURCHGEHEND
 62
   250
100
AcDbLine
 10
160.0686443981
 20
106.3913556019
 30
0.0
 11
161.4186443981
 21
106.3913556019
 31
0.0
  0
LINE
  5
98
330
1F
100
AcDbEntity
  8
GRUNDEBENE
  6
SLD-DURCHGEHEND
 62
   250
100
AcDbLine
 10
160.0686443981
 20
111.2197827266
 30
0.0
 11
160.0686443981
 21
113.3913556019
 31
0.0
  0
LINE
  5
99
330
1F
100
AcDbEntity
  8
GRUNDEBENE
  6
SLD-DURCHGEHEND
 62
   250
100
AcDbLine
 10
160.0686443981
 20
113.3913556019
 30
0.0
 11
155.4776659137
 21
133.408791438
 31
0.0
  0
LINE
  5
9A
330
1F
100
AcDbEntity
  8
GRUNDEBENE
  6
SLD-DURCHGEHEND
 62
   250
100
AcDbLine
 10
144.4136445035
 20
105.3913556019
 30
0.0
 11
144.2186443981
 21
105.3913556019
 31
0.0
  0
LINE
  5
9B
330
1F
100
AcDbEntity
  8
GRUNDEBENE
  6
SLD-DURCHGEHEND
 62
   250
100
AcDbLine
 10
145.5686443981
 20
106.3913556019
 30
0.0
 11
144.2186443981
 21
106.3913556019
 31
0.0
  0
LINE
  5
9C
330
1F
100
AcDbEntity
  8
GRUNDEBENE
  6
SLD-DURCHGEHEND
 62
   250
100
AcDbLine
 10
145.5686443981
 20
111.2197827266
 30
0.0
 11
145.5686443981
 21
113.3913556019
 31
0.0
  0
LINE
  5
9D
330
1F
100
AcDbEntity
  8
GRUNDEBENE
  6
SLD-DURCHGEHEND
 62
   250
100
AcDbLine
 10
145.5686443981
 20
113.3913556019
 30
0.0
 11
160.0686443981
 21
113.3913556019
 31
0.0
  0
LINE
  5
9E
330
1F
100
AcDbEntity
  8
GRUNDEBENE
  6
SLD-DURCHGEHEND
 62
   250
100
AcDbLine
 10
144.4136445035
 20
105.3913556019
 30
0.0
 11
161.2217968252
 21
105.3913535568
 31
0.0
  0
LINE
  5
9F
330
1F
100
AcDbEntity
  8
GRUNDEBENE
  6
SLD-DURCHGEHEND
 62
   250
100
AcDbLine
 10
145.5686443981
 20
106.3913556019
 30
0.0
 11
160.0686443981
 21
106.3913556019
 31
0.0
  0
LINE
  5
A0
330
1F
100
AcDbEntity
  8
GRUNDEBENE
  6
SLD-DURCHGEHEND
 62
   250
100
AcDbLine
 10
147.5719937357
 20
166.8831230281
 30
0.0
 11
158.0652950702
 21
166.8831230281
 31
0.0
  0
LINE
  5
A1
330
1F
100
AcDbEntity
  8
GRUNDEBENE
  6
SLD-DURCHGEHEND
 62
   250
100
AcDbLine
 10
147.8186443981
 20
173.6913556019
 30
0.0
 11
157.8186443981
 21
173.6913556019
 31
0.0
  0
LINE
  5
A2
330
1F
100
AcDbEntity
  8
GRUNDEBENE
  6
SLD-DURCHGEHEND
 62
   250
100
AcDbLine
 10
152.8186443981
 20
143.7614623013
 30
0.0
 11
152.8186443981
 21
166.8831230275
 31
0.0
  0
LINE
  5
A3
330
1F
100
AcDbEntity
  8
GRUNDEBENE
  6
SLD-DURCHGEHEND
 62
   250
100
AcDbLine
 10
145.1177206625
 20
98.6913556019
 30
0.0
 11
160.5177206625
 21
98.6913556019
 31
0.0
  0
LINE
  5
A4
330
1F
100
AcDbEntity
  8
GRUNDEBENE
  6
SLD-DURCHGEHEND
 62
   250
100
AcDbLine
 10
145.1226133289
 20
103.4703163735
 30
0.0
 11
160.512827996
 21
103.4703163735
 31
0.0
  0
LINE
  5
A5
330
1F
100
AcDbEntity
  8
GRUNDEBENE
  6
SLD-DURCHGEHEND
 62
   250
100
AcDbLine
 10
145.5686443981
 20
113.3913556019
 30
0.0
 11
150.1596228826
 21
133.408791438
 31
0.0
  0
LINE
  5
A6
330
1F
100
AcDbEntity
  8
GRUNDEBENE
  6
SLD-DURCHGEHEND
 62
   250
100
AcDbLine
 10
152.8186443981
 20
143.7614623013
 30
0.0
 11
152.8186443981
 21
166.8831230275
 31
0.0
  0
ARC
  5
A7
330
1F
100
AcDbEntity
  8
GRUNDEBENE
  6
SLD-DURCHGEHEND
 62
   250
100
AcDbCircle
 10
152.8186443981
 20
173.6913556019
 30
0.0
 40
5.000000000000028
100
AcDbArc
 50
0.0
 51
90.0
  0
ARC
  5
A8
330
1F
100
AcDbEntity
  8
GRUNDEBENE
  6
SLD-DURCHGEHEND
 62
   250
100
AcDbCircle
 10
161.4186443981
 20
105.8913556019
 30
0.0
 40
0.5000000000000284
100
AcDbArc
 50
270.0
 51
0.0
  0
ARC
  5
A9
330
1F
100
AcDbEntity
  8
GRUNDEBENE
  6
SLD-DURCHGEHEND
 62
   250
100
AcDbCircle
 10
161.4186443981
 20
105.8913556019
 30
0.0
 40
0.5000000000000284
100
AcDbArc
 50
0.0
 51
90.0
  0
ARC
  5
AA
330
1F
100
AcDbEntity
  8
GRUNDEBENE
  6
SLD-DURCHGEHEND
 62
   250
100
AcDbCircle
 10
160.0686443981
 20
108.3913556019
 30
0.0
 40
2.000000000000014
100
AcDbArc
 50
109.4712208242
 51
270.0
  0
ARC
  5
AB
330
1F
100
AcDbEntity
  8
GRUNDEBENE
  6
SLD-DURCHGEHEND
 62
   250
100
AcDbCircle
 10
159.0686443981
 20
111.2197827266
 30
0.0
 40
1.000000000001863
100
AcDbArc
 50
289.471220255
 51
0.0
  0
ARC
  5
AC
330
1F
100
AcDbEntity
  8
GRUNDEBENE
  6
SLD-DURCHGEHEND
 62
   250
100
AcDbCircle
 10
162.9579120489
 20
138.936854469
 30
0.0
 40
25.70631610858611
100
AcDbArc
 50
263.5877465082
 51
264.6405762372
  0
ARC
  5
AD
330
1F
100
AcDbEntity
  8
GRUNDEBENE
  6
SLD-DURCHGEHEND
 62
   250
100
AcDbCircle
 10
162.9581235997
 20
138.9391040909
 30
0.0
 40
25.70857565546267
100
AcDbArc
 50
264.640575114
 51
265.6933431518
  0
ARC
  5
AE
330
1F
100
AcDbEntity
  8
GRUNDEBENE
  6
SLD-DURCHGEHEND
 62
   250
100
AcDbCircle
 10
162.9582607478
 20
138.9409185203
 30
0.0
 40
25.71039526074928
100
AcDbArc
 50
265.6933420218
 51
266.7460603865
  0
ARC
  5
AF
330
1F
100
AcDbEntity
  8
GRUNDEBENE
  6
SLD-DURCHGEHEND
 62
   250
100
AcDbCircle
 10
162.9583394246
 20
138.9422934052
 30
0.0
 40
25.71177239479708
100
AcDbArc
 50
266.7460592512
 51
267.7987400257
  0
ARC
  5
B0
330
1F
100
AcDbEntity
  8
GRUNDEBENE
  6
SLD-DURCHGEHEND
 62
   250
100
AcDbCircle
 10
162.9583757621
 20
138.9432254459
 30
0.0
 40
25.71270514343163
100
AcDbArc
 50
267.7987388865
 51
268.8513942026
  0
ARC
  5
B1
330
1F
100
AcDbEntity
  8
GRUNDEBENE
  6
SLD-DURCHGEHEND
 62
   250
100
AcDbCircle
 10
162.9583860379
 20
138.9437124035
 30
0.0
 40
25.71319220921765
100
AcDbArc
 50
268.851393061
 51
269.9040350838
  0
ARC
  5
B2
330
1F
100
AcDbEntity
  8
GRUNDEBENE
  6
SLD-DURCHGEHEND
 62
   250
100
AcDbCircle
 10
162.9583866188
 20
138.9437531075
 30
0.0
 40
25.71323291413239
100
AcDbArc
 50
269.9040339413
 51
270.9566748532
  0
ARC
  5
B3
330
1F
100
AcDbEntity
  8
GRUNDEBENE
  6
SLD-DURCHGEHEND
 62
   250
100
AcDbCircle
 10
162.958393905
 20
138.9433474609
 30
0.0
 40
25.71282720246787
100
AcDbArc
 50
270.9566737113
 51
272.0093256961
  0
ARC
  5
B4
330
1F
100
AcDbEntity
  8
GRUNDEBENE
  6
SLD-DURCHGEHEND
 62
   250
100
AcDbCircle
 10
162.9584242738
 20
138.9424964387
 30
0.0
 40
25.71197563873943
100
AcDbArc
 50
272.0093245563
 51
273.0619997833
  0
ARC
  5
B5
330
1F
100
AcDbEntity
  8
GRUNDEBENE
  6
SLD-DURCHGEHEND
 62
   250
100
AcDbCircle
 10
162.9584940232
 20
138.9412020838
 30
0.0
 40
25.71067940591632
100
AcDbArc
 50
273.0619986472
 51
274.1147092556
  0
ARC
  5
B6
330
1F
100
AcDbEntity
  8
GRUNDEBENE
  6
SLD-DURCHGEHEND
 62
   250
100
AcDbCircle
 10
162.9586193159
 20
138.9394675044
 30
0.0
 40
25.70894030740665
100
AcDbArc
 50
274.1147081245
 51
275.1674662073
  0
ARC
  5
B7
330
1F
100
AcDbEntity
  8
GRUNDEBENE
  6
SLD-DURCHGEHEND
 62
   250
100
AcDbCircle
 10
162.9588161238
 20
138.9372968606
 30
0.0
 40
25.70676075989491
100
AcDbArc
 50
275.1674650828
 51
276.220282671
  0
ARC
  5
B8
330
1F
100
AcDbEntity
  8
GRUNDEBENE
  6
SLD-DURCHGEHEND
 62
   250
100
AcDbCircle
 10
162.9591001734
 20
138.934695356
 30
0.0
 40
25.70414379404192
100
AcDbArc
 50
276.2202815544
 51
277.2731706014
  0
ARC
  5
B9
330
1F
100
AcDbEntity
  8
GRUNDEBENE
  6
SLD-DURCHGEHEND
 62
   250
100
AcDbCircle
 10
162.9594868908
 20
138.9316692195
 30
0.0
 40
25.7010930478693
100
AcDbArc
 50
277.2731694943
 51
278.3261418601
  0
ARC
  5
BA
330
1F
100
AcDbEntity
  8
GRUNDEBENE
  6
SLD-DURCHGEHEND
 62
   250
100
AcDbCircle
 10
162.9599913495
 20
138.9282256865
 30
0.0
 40
25.69761276082111
100
AcDbArc
 50
278.326140764
 51
279.3792082
  0
ARC
  5
BB
330
1F
100
AcDbEntity
  8
GRUNDEBENE
  6
SLD-DURCHGEHEND
 62
   250
100
AcDbCircle
 10
162.9606282172
 20
138.9243729803
 30
0.0
 40
25.6937077710049
100
AcDbArc
 50
279.3792071163
 51
280.4323812495
  0
ARC
  5
BC
330
1F
100
AcDbEntity
  8
GRUNDEBENE
  6
SLD-DURCHGEHEND
 62
   250
100
AcDbCircle
 10
162.9614117057
 20
138.9201202828
 30
0.0
 40
25.68938350344832
100
AcDbArc
 50
280.4323801796
 51
281.4856724977
  0
ARC
  5
BD
330
1F
100
AcDbEntity
  8
GRUNDEBENE
  6
SLD-DURCHGEHEND
 62
   250
100
AcDbCircle
 10
162.9623555214
 20
138.9154777098
 30
0.0
 40
25.68464596487578
100
AcDbArc
 50
281.4856714429
 51
282.5390932789
  0
ARC
  5
BE
330
1F
100
AcDbEntity
  8
GRUNDEBENE
  6
SLD-DURCHGEHEND
 62
   250
100
AcDbCircle
 10
162.9634728164
 20
138.9104562845
 30
0.0
 40
25.67950173900714
100
AcDbArc
 50
282.5390922407
 51
283.5926547579
  0
ARC
  5
BF
330
1F
100
AcDbEntity
  8
GRUNDEBENE
  6
SLD-DURCHGEHEND
 62
   250
100
AcDbCircle
 10
162.9647761439
 20
138.9050678961
 30
0.0
 40
25.67395796844897
100
AcDbArc
 50
283.5926537377
 51
284.6463679152
  0
ARC
  5
C0
330
1F
100
AcDbEntity
  8
GRUNDEBENE
  6
SLD-DURCHGEHEND
 62
   250
100
AcDbCircle
 10
162.9662774128
 20
138.899325271
 30
0.0
 40
25.66802235129634
100
AcDbArc
 50
284.6463669143
 51
285.7002435324
  0
ARC
  5
C1
330
1F
100
AcDbEntity
  8
GRUNDEBENE
  6
SLD-DURCHGEHEND
 62
   250
100
AcDbCircle
 10
162.9679878459
 20
138.8932419332
 30
0.0
 40
25.6617031282008
100
AcDbArc
 50
285.7002425521
 51
286.7542921778
  0
ARC
  5
C2
330
1F
100
AcDbEntity
  8
GRUNDEBENE
  6
SLD-DURCHGEHEND
 62
   250
100
AcDbCircle
 10
162.96991794
 20
138.8868321617
 30
0.0
 40
25.65500906859513
100
AcDbArc
 50
286.7542912195
 51
287.8085241924
  0
ARC
  5
C3
330
1F
100
AcDbEntity
  8
GRUNDEBENE
  6
SLD-DURCHGEHEND
 62
   250
100
AcDbCircle
 10
162.9720774271
 20
138.8801109517
 30
0.0
 40
25.64794946185854
100
AcDbArc
 50
287.8085232574
 51
288.8629496762
  0
ARC
  5
C4
330
1F
100
AcDbEntity
  8
GRUNDEBENE
  6
SLD-DURCHGEHEND
 62
   250
100
AcDbCircle
 10
162.9744752401
 20
138.8730939674
 30
0.0
 40
25.64053410100206
100
AcDbArc
 50
288.8629487657
 51
289.9175784742
  0
ARC
  5
C5
330
1F
100
AcDbEntity
  8
GRUNDEBENE
  6
SLD-DURCHGEHEND
 62
   250
100
AcDbCircle
 10
162.9771194792
 20
138.8657974956
 30
0.0
 40
25.63277326978591
100
AcDbArc
 50
289.9175775894
 51
290.9724201636
  0
ARC
  5
C6
330
1F
100
AcDbEntity
  8
GRUNDEBENE
  6
SLD-DURCHGEHEND
 62
   250
100
AcDbCircle
 10
162.9800173817
 20
138.8582383982
 30
0.0
 40
25.62467772836511
100
AcDbArc
 50
290.9724193058
 51
292.0274840407
  0
ARC
  5
C7
330
1F
100
AcDbEntity
  8
GRUNDEBENE
  6
SLD-DURCHGEHEND
 62
   250
100
AcDbCircle
 10
162.9831752944
 20
138.8504340609
 30
0.0
 40
25.61625869667732
100
AcDbArc
 50
292.0274832109
 51
293.0827791079
  0
ARC
  5
C8
330
1F
100
AcDbEntity
  8
GRUNDEBENE
  6
SLD-DURCHGEHEND
 62
   250
100
AcDbCircle
 10
162.9865986487
 20
138.8424023425
 30
0.0
 40
25.60752784022558
100
AcDbArc
 50
293.0827783074
 51
294.1383140621
  0
ARC
  5
C9
330
1F
100
AcDbEntity
  8
GRUNDEBENE
  6
SLD-DURCHGEHEND
 62
   250
100
AcDbCircle
 10
162.9902919385
 20
138.8341615216
 30
0.0
 40
25.59849725228768
100
AcDbArc
 50
294.138313292
 51
295.1940972822
  0
ARC
  5
CA
330
1F
100
AcDbEntity
  8
GRUNDEBENE
  6
SLD-DURCHGEHEND
 62
   250
100
AcDbCircle
 10
162.9942587016
 20
138.8257302411
 30
0.0
 40
25.58917943598495
100
AcDbArc
 50
295.1940965434
 51
296.2501368176
  0
ARC
  5
CB
330
1F
100
AcDbEntity
  8
GRUNDEBENE
  6
SLD-DURCHGEHEND
 62
   250
100
AcDbCircle
 10
162.9985015029
 20
138.817127456
 30
0.0
 40
25.57958728953674
100
AcDbArc
 50
296.2501361113
 51
297.3064403774
  0
ARC
  5
CC
330
1F
100
AcDbEntity
  8
GRUNDEBENE
  6
SLD-DURCHGEHEND
 62
   250
100
AcDbCircle
 10
173.8056561629
 20
117.8844615451
 30
0.0
 40
2.021762814862125
100
AcDbArc
 50
297.3059320599
 51
301.4541877504
  0
ARC
  5
CD
330
1F
100
AcDbEntity
  8
GRUNDEBENE
  6
SLD-DURCHGEHEND
 62
   250
100
AcDbCircle
 10
173.8073955647
 20
117.8816201715
 30
0.0
 40
2.018431310508758
100
AcDbArc
 50
301.4541555597
 51
305.6069755763
  0
ARC
  5
CE
330
1F
100
AcDbEntity
  8
GRUNDEBENE
  6
SLD-DURCHGEHEND
 62
   250
100
AcDbCircle
 10
173.8094553615
 20
117.8787452076
 30
0.0
 40
2.014894620022024
100
AcDbArc
 50
305.6069525637
 51
309.764631784
  0
ARC
  5
CF
330
1F
100
AcDbEntity
  8
GRUNDEBENE
  6
SLD-DURCHGEHEND
 62
   250
100
AcDbCircle
 10
173.8118012008
 20
117.8759268364
 30
0.0
 40
2.011227717000697
100
AcDbArc
 50
309.7646184939
 51
313.9273508578
  0
ARC
  5
D0
330
1F
100
AcDbEntity
  8
GRUNDEBENE
  6
SLD-DURCHGEHEND
 62
   250
100
AcDbCircle
 10
173.8143816822
 20
117.8732480428
 30
0.0
 40
2.007508198285017
100
AcDbArc
 50
313.9273476402
 51
318.0952213684
  0
ARC
  5
D1
330
1F
100
AcDbEntity
  8
GRUNDEBENE
  6
SLD-DURCHGEHEND
 62
   250
100
AcDbCircle
 10
173.817130478
 20
117.8707809467
 30
0.0
 40
2.003814630697546
100
AcDbArc
 50
318.0952283659
 51
322.2682233246
  0
ARC
  5
D2
330
1F
100
AcDbEntity
  8
GRUNDEBENE
  6
SLD-DURCHGEHEND
 62
   250
100
AcDbCircle
 10
173.8199691815
 20
117.8685836749
 30
0.0
 40
2.000224889641216
100
AcDbArc
 50
322.2682404629
 51
326.4462277949
  0
ARC
  5
D3
330
1F
100
AcDbEntity
  8
GRUNDEBENE
  6
SLD-DURCHGEHEND
 62
   250
100
AcDbCircle
 10
173.8228107494
 20
117.8666979162
 30
0.0
 40
1.996814524144002
100
AcDbArc
 50
326.4462547783
 51
330.6289988743
  0
ARC
  5
D4
330
1F
100
AcDbEntity
  8
GRUNDEBENE
  6
SLD-DURCHGEHEND
 62
   250
100
AcDbCircle
 10
173.8255633765
 20
117.8651472756
 30
0.0
 40
1.993655182315716
100
AcDbArc
 50
330.6290351862
 51
334.8161980191
  0
ARC
  5
D5
330
1F
100
AcDbEntity
  8
GRUNDEBENE
  6
SLD-DURCHGEHEND
 62
   250
100
AcDbCircle
 10
173.8281346214
 20
117.8639365031
 30
0.0
 40
1.99081312885731
100
AcDbArc
 50
334.8162429284
 51
339.0073907155
  0
ARC
  5
D6
330
1F
100
AcDbEntity
  8
GRUNDEBENE
  6
SLD-DURCHGEHEND
 62
   250
100
AcDbCircle
 10
173.8304355869
 20
117.8630516315
 30
0.0
 40
1.988347883037804
100
AcDbArc
 50
339.0074432885
 51
343.2020553815
  0
ARC
  5
D7
330
1F
100
AcDbEntity
  8
GRUNDEBENE
  6
SLD-DURCHGEHEND
 62
   250
100
AcDbCircle
 10
173.8323849603
 20
117.8624610164
 30
0.0
 40
1.986311003493533
100
AcDbArc
 50
343.2021145005
 51
347.3995943407
  0
ARC
  5
D8
330
1F
100
AcDbEntity
  8
GRUNDEBENE
  6
SLD-DURCHGEHEND
 62
   250
100
AcDbCircle
 10
173.8339127204
 20
117.8621172248
 30
0.0
 40
1.984745040961423
100
AcDbArc
 50
347.3996587281
 51
351.5993466411
  0
ARC
  5
D9
330
1F
100
AcDbEntity
  8
GRUNDEBENE
  6
SLD-DURCHGEHEND
 62
   250
100
AcDbCircle
 10
173.8349633391
 20
117.8619596822
 30
0.0
 40
1.983682678553168
100
AcDbArc
 50
351.5994148887
 51
355.8006024314
  0
ARC
  5
DA
330
1F
100
AcDbEntity
  8
GRUNDEBENE
  6
SLD-DURCHGEHEND
 62
   250
100
AcDbCircle
 10
173.8354983242
 20
117.8619179507
 30
0.0
 40
1.983146073845027
100
AcDbArc
 50
355.8006730343
 51
0.0026185566
  0
ARC
  5
DB
330
1F
100
AcDbEntity
  8
GRUNDEBENE
  6
SLD-DURCHGEHEND
 62
   250
100
AcDbCircle
 10
173.835497984
 20
117.8619154795
 30
0.0
 40
1.983146414228557
100
AcDbArc
 50
0.0026899507
 51
4.204634992
  0
ARC
  5
DC
330
1F
100
AcDbEntity
  8
GRUNDEBENE
  6
SLD-DURCHGEHEND
 62
   250
100
AcDbCircle
 10
158.8186443981
 20
173.691355599
 30
0.0
 40
1.000000000000028
100
AcDbArc
 50
179.9999998348
 51
257.345041898
  0
ARC
  5
DD
330
1F
100
AcDbEntity
  8
GRUNDEBENE
  6
SLD-DURCHGEHEND
 62
   250
100
AcDbCircle
 10
157.2336443979
 20
169.9213555997
 30
0.0
 40
3.150000000000014
100
AcDbArc
 50
0.0
 51
57.76353864
  0
ARC
  5
DE
330
1F
100
AcDbEntity
  8
GRUNDEBENE
  6
SLD-DURCHGEHEND
 62
   250
100
AcDbCircle
 10
157.2336443979
 20
169.9213555997
 30
0.0
 40
3.150000000000012
100
AcDbArc
 50
285.3084966985
 51
0.0
  0
ARC
  5
DF
330
1F
100
AcDbEntity
  8
GRUNDEBENE
  6
SLD-DURCHGEHEND
 62
   250
100
AcDbCircle
 10
158.3804859185
 20
171.7399414587
 30
0.0
 40
1.000000000011791
100
AcDbArc
 50
57.76353864
 51
77.3450419285
  0
ARC
  5
E0
330
1F
100
AcDbEntity
  8
GRUNDEBENE
  6
SLD-DURCHGEHEND
 62
   250
100
AcDbCircle
 10
223.037538787
 20
163.143519195
 30
0.0
 40
65.07853371205819
100
AcDbArc
 50
176.7058014993
 51
177.4310719304
  0
ARC
  5
E1
330
1F
100
AcDbEntity
  8
GRUNDEBENE
  6
SLD-DURCHGEHEND
 62
   250
100
AcDbCircle
 10
223.0364436246
 20
163.1435685753
 30
0.0
 40
65.07743743700291
100
AcDbArc
 50
177.4310721455
 51
178.1563507218
  0
ARC
  5
E2
330
1F
100
AcDbEntity
  8
GRUNDEBENE
  6
SLD-DURCHGEHEND
 62
   250
100
AcDbCircle
 10
223.0356567729
 20
163.143594148
 30
0.0
 40
65.07665016988315
100
AcDbArc
 50
178.1563509372
 51
178.881635363
  0
ARC
  5
E3
330
1F
100
AcDbEntity
  8
GRUNDEBENE
  6
SLD-DURCHGEHEND
 62
   250
100
AcDbCircle
 10
223.0351791069
 20
163.1436037179
 30
0.0
 40
65.07617240804143
100
AcDbArc
 50
178.8816355787
 51
179.6069235543
  0
ARC
  5
E4
330
1F
100
AcDbEntity
  8
GRUNDEBENE
  6
SLD-DURCHGEHEND
 62
   250
100
AcDbCircle
 10
223.0350111541
 20
163.1436051153
 30
0.0
 40
65.076004449608
100
AcDbArc
 50
179.6069237702
 51
180.3322129937
  0
ARC
  5
E5
330
1F
100
AcDbEntity
  8
GRUNDEBENE
  6
SLD-DURCHGEHEND
 62
   250
100
AcDbCircle
 10
223.0351531023
 20
163.1436061836
 30
0.0
 40
65.07614640164377
100
AcDbArc
 50
180.3322132096
 51
181.0575013784
  0
ARC
  5
E6
330
1F
100
AcDbEntity
  8
GRUNDEBENE
  6
SLD-DURCHGEHEND
 62
   250
100
AcDbCircle
 10
223.035604795
 20
163.1436147664
 30
0.0
 40
65.07659817580202
100
AcDbArc
 50
181.0575015941
 51
181.7827864062
  0
ARC
  5
E7
330
1F
100
AcDbEntity
  8
GRUNDEBENE
  6
SLD-DURCHGEHEND
 62
   250
100
AcDbCircle
 10
223.0363657294
 20
163.1436386957
 30
0.0
 40
65.0773594862837
100
AcDbArc
 50
181.7827866217
 51
182.5080657772
  0
ARC
  5
E8
330
1F
100
AcDbEntity
  8
GRUNDEBENE
  6
SLD-DURCHGEHEND
 62
   250
100
AcDbCircle
 10
223.037435062
 20
163.1436857791
 30
0.0
 40
65.07842985498822
100
AcDbArc
 50
182.5080659922
 51
183.233337195
  0
ARC
  5
E9
330
1F
100
AcDbEntity
  8
GRUNDEBENE
  6
SLD-DURCHGEHEND
 62
   250
100
AcDbCircle
 10
223.0388116045
 20
163.1437637873
 30
0.0
 40
65.07980860600068
100
AcDbArc
 50
183.2333374095
 51
183.9585983687
  0
ARC
  5
EA
330
1F
100
AcDbEntity
  8
GRUNDEBENE
  6
SLD-DURCHGEHEND
 62
   250
100
AcDbCircle
 10
223.0404938305
 20
163.143880442
 30
0.0
 40
65.08149487187768
100
AcDbArc
 50
183.9585985825
 51
184.6838470139
  0
ARC
  5
EB
330
1F
100
AcDbEntity
  8
GRUNDEBENE
  6
SLD-DURCHGEHEND
 62
   250
100
AcDbCircle
 10
223.0424798741
 20
163.1440434035
 30
0.0
 40
65.08348758997154
100
AcDbArc
 50
184.6838472268
 51
185.4090808543
  0
ARC
  5
EC
330
1F
100
AcDbEntity
  8
GRUNDEBENE
  6
SLD-DURCHGEHEND
 62
   250
100
AcDbCircle
 10
223.0447675339
 20
163.1442602587
 30
0.0
 40
65.0857855050828
100
AcDbArc
 50
185.4090810663
 51
186.1342976235
  0
ARC
  5
ED
330
1F
100
AcDbEntity
  8
GRUNDEBENE
  6
SLD-DURCHGEHEND
 62
   250
100
AcDbCircle
 10
223.0473542761
 20
163.1445385089
 30
0.0
 40
65.08838716956588
100
AcDbArc
 50
186.1342978344
 51
186.8594950661
  0
ARC
  5
EE
330
1F
100
AcDbEntity
  8
GRUNDEBENE
  6
SLD-DURCHGEHEND
 62
   250
100
AcDbCircle
 10
223.050237238
 20
163.1448855577
 30
0.0
 40
65.09129094505558
100
AcDbArc
 50
186.8594952757
 51
187.5846709394
  0
ARC
  5
EF
330
1F
100
AcDbEntity
  8
GRUNDEBENE
  6
SLD-DURCHGEHEND
 62
   250
100
AcDbCircle
 10
223.0534132322
 20
163.1453086996
 30
0.0
 40
65.09449500313113
100
AcDbArc
 50
187.5846711476
 51
188.3098230147
  0
ARC
  5
F0
330
1F
100
AcDbEntity
  8
GRUNDEBENE
  6
SLD-DURCHGEHEND
 62
   250
100
AcDbCircle
 10
223.0568787468
 20
163.1458151077
 30
0.0
 40
65.09799732246385
100
AcDbArc
 50
188.3098232214
 51
189.034949079
  0
ARC
  5
F1
330
1F
100
AcDbEntity
  8
GRUNDEBENE
  6
SLD-DURCHGEHEND
 62
   250
100
AcDbCircle
 10
223.0606299605
 20
163.1464118232
 30
0.0
 40
65.10179570024722
100
AcDbArc
 50
189.034949284
 51
189.7600469361
  0
ARC
  5
F2
330
1F
100
AcDbEntity
  8
GRUNDEBENE
  6
SLD-DURCHGEHEND
 62
   250
100
AcDbCircle
 10
223.0646627348
 20
163.147105743
 30
0.0
 40
65.10588774044747
100
AcDbArc
 50
189.7600471393
 51
190.4851144082
  0
ARC
  5
F3
330
1F
100
AcDbEntity
  8
GRUNDEBENE
  6
SLD-DURCHGEHEND
 62
   250
100
AcDbCircle
 10
223.0689726307
 20
163.1479036095
 30
0.0
 40
65.11027086646632
100
AcDbArc
 50
190.4851146095
 51
191.2101493376
  0
ARC
  5
F4
330
1F
100
AcDbEntity
  8
GRUNDEBENE
  6
SLD-DURCHGEHEND
 62
   250
100
AcDbCircle
 10
223.0735549083
 20
163.1488119993
 30
0.0
 40
65.11494231585642
100
AcDbArc
 50
191.2101495368
 51
191.9351495874
  0
ARC
  5
F5
330
1F
100
AcDbEntity
  8
GRUNDEBENE
  6
SLD-DURCHGEHEND
 62
   250
100
AcDbCircle
 10
223.0784045347
 20
163.1498373124
 30
0.0
 40
65.11989914382846
100
AcDbArc
 50
191.9351497845
 51
192.6601130438
  0
ARC
  5
F6
330
1F
100
AcDbEntity
  8
GRUNDEBENE
  6
SLD-DURCHGEHEND
 62
   250
100
AcDbCircle
 10
223.0835161931
 20
163.1509857626
 30
0.0
 40
65.12513822672977
100
AcDbArc
 50
192.6601132386
 51
193.3850376167
  0
ARC
  5
F7
330
1F
100
AcDbEntity
  8
GRUNDEBENE
  6
SLD-DURCHGEHEND
 62
   250
100
AcDbCircle
 10
223.0888842885
 20
163.1522633668
 30
0.0
 40
65.13065626263993
100
AcDbArc
 50
193.385037809
 51
194.1099212413
  0
ARC
  5
F8
330
1F
100
AcDbEntity
  8
GRUNDEBENE
  6
SLD-DURCHGEHEND
 62
   250
100
AcDbCircle
 10
223.0945029556
 20
163.1536759352
 30
0.0
 40
65.13644977363775
100
AcDbArc
 50
194.109921431
 51
194.8347618796
  0
ARC
  5
F9
330
1F
100
AcDbEntity
  8
GRUNDEBENE
  6
SLD-DURCHGEHEND
 62
   250
100
AcDbCircle
 10
223.1003660679
 20
163.1552290624
 30
0.0
 40
65.1425151086806
100
AcDbArc
 50
194.8347620667
 51
195.5595575216
  0
ARC
  5
FA
330
1F
100
AcDbEntity
  8
GRUNDEBENE
  6
SLD-DURCHGEHEND
 62
   250
100
AcDbCircle
 10
223.1064672415
 20
163.1569281169
 30
0.0
 40
65.14884844162052
100
AcDbArc
 50
195.5595577059
 51
196.2843061865
  0
ARC
  5
FB
330
1F
100
AcDbEntity
  8
GRUNDEBENE
  6
SLD-DURCHGEHEND
 62
   250
100
AcDbCircle
 10
223.1127998506
 20
163.1587782335
 30
0.0
 40
65.15544577962
100
AcDbArc
 50
196.2843063679
 51
197.0090059243
  0
ARC
  5
FC
330
1F
100
AcDbEntity
  8
GRUNDEBENE
  6
SLD-DURCHGEHEND
 62
   250
100
AcDbCircle
 10
223.1193570343
 20
163.1607843048
 30
0.0
 40
65.16230296420345
100
AcDbArc
 50
197.0090061026
 51
197.7336548165
  0
ARC
  5
FD
330
1F
100
AcDbEntity
  8
GRUNDEBENE
  6
SLD-DURCHGEHEND
 62
   250
100
AcDbCircle
 10
223.1261317028
 20
163.162950972
 30
0.0
 40
65.16941566973668
100
AcDbArc
 50
197.7336549917
 51
198.458250978
  0
ARC
  5
FE
330
1F
100
AcDbEntity
  8
GRUNDEBENE
  6
SLD-DURCHGEHEND
 62
   250
100
AcDbCircle
 10
223.1331165512
 20
163.1652826177
 30
0.0
 40
65.17677941060022
100
AcDbArc
 50
198.4582511499
 51
199.1827925578
  0
ARC
  5
FF
330
1F
100
AcDbEntity
  8
GRUNDEBENE
  6
SLD-DURCHGEHEND
 62
   250
100
AcDbCircle
 10
223.1403040676
 20
163.1677833586
 30
0.0
 40
65.18438954173354
100
AcDbArc
 50
199.1827927263
 51
199.9072777403
  0
ARC
  5
100
330
1F
100
AcDbEntity
  8
GRUNDEBENE
  6
SLD-DURCHGEHEND
 62
   250
100
AcDbCircle
 10
223.1476865421
 20
163.1704570374
 30
0.0
 40
65.19224126055562
100
AcDbArc
 50
199.9072779053
 51
200.6317047467
  0
ARC
  5
101
330
1F
100
AcDbEntity
  8
GRUNDEBENE
  6
SLD-DURCHGEHEND
 62
   250
100
AcDbCircle
 10
223.1552560863
 20
163.1733072196
 30
0.0
 40
65.2003296187246
100
AcDbArc
 50
200.6317049081
 51
201.3560718359
  0
ARC
  5
102
330
1F
100
AcDbEntity
  8
GRUNDEBENE
  6
SLD-DURCHGEHEND
 62
   250
100
AcDbCircle
 10
223.1630046258
 20
163.1763371808
 30
0.0
 40
65.20864950628038
100
AcDbArc
 50
201.3560719936
 51
202.0803773056
  0
ARC
  5
103
330
1F
100
AcDbEntity
  8
GRUNDEBENE
  6
SLD-DURCHGEHEND
 62
   250
100
AcDbCircle
 10
223.1709239301
 20
163.1795499069
 30
0.0
 40
65.2171956744116
100
AcDbArc
 50
202.0803774595
 51
202.8046194937
  0
ARC
  5
104
330
1F
100
AcDbEntity
  8
GRUNDEBENE
  6
SLD-DURCHGEHEND
 62
   250
100
AcDbCircle
 10
223.1790056166
 20
163.1829480871
 30
0.0
 40
65.22596273130236
100
AcDbArc
 50
202.8046196437
 51
203.5287967787
  0
ARC
  5
105
330
1F
100
AcDbEntity
  8
GRUNDEBENE
  6
SLD-DURCHGEHEND
 62
   250
100
AcDbCircle
 10
223.1872411582
 20
163.1865341066
 30
0.0
 40
65.23494514079165
100
AcDbArc
 50
203.5287969248
 51
204.2529075817
  0
ARC
  5
106
330
1F
100
AcDbEntity
  8
GRUNDEBENE
  6
SLD-DURCHGEHEND
 62
   250
100
AcDbCircle
 10
223.1956219007
 20
163.1903100448
 30
0.0
 40
65.24413723274377
100
AcDbArc
 50
204.2529077236
 51
204.9769503663
  0
ARC
  5
107
330
1F
100
AcDbEntity
  8
GRUNDEBENE
  6
SLD-DURCHGEHEND
 62
   250
100
AcDbCircle
 10
223.2041390717
 20
163.1942776693
 30
0.0
 40
65.25353320236837
100
AcDbArc
 50
204.9769505041
 51
205.7009236405
  0
ARC
  5
108
330
1F
100
AcDbEntity
  8
GRUNDEBENE
  6
SLD-DURCHGEHEND
 62
   250
100
AcDbCircle
 10
223.212783795
 20
163.1984384341
 30
0.0
 40
65.26312711739526
100
AcDbArc
 50
205.7009237741
 51
206.4248259572
  0
ARC
  5
109
330
1F
100
AcDbEntity
  8
GRUNDEBENE
  6
SLD-DURCHGEHEND
 62
   250
100
AcDbCircle
 10
223.2215470981
 20
163.2027934736
 30
0.0
 40
65.272912915789
100
AcDbArc
 50
206.4248260864
 51
207.148655915
  0
ARC
  5
10A
330
1F
100
AcDbEntity
  8
GRUNDEBENE
  6
SLD-DURCHGEHEND
 62
   250
100
AcDbCircle
 10
223.2304199318
 20
163.2073436039
 30
0.0
 40
65.28288441836152
100
AcDbArc
 50
207.1486560398
 51
207.8724121594
  0
ARC
  5
10B
330
1F
100
AcDbEntity
  8
GRUNDEBENE
  6
SLD-DURCHGEHEND
 62
   250
100
AcDbCircle
 10
223.2393931735
 20
163.2120893154
 30
0.0
 40
65.29303532195009
100
AcDbArc
 50
207.8724122797
 51
208.5960933835
  0
ARC
  5
10C
330
1F
100
AcDbEntity
  8
GRUNDEBENE
  6
SLD-DURCHGEHEND
 62
   250
100
AcDbCircle
 10
223.2484576506
 20
163.2170307771
 30
0.0
 40
65.30335921603059
100
AcDbArc
 50
208.5960934992
 51
209.3196983287
  0
ARC
  5
10D
330
1F
100
AcDbEntity
  8
GRUNDEBENE
  6
SLD-DURCHGEHEND
 62
   250
100
AcDbCircle
 10
223.2576041424
 20
163.2221678298
 30
0.0
 40
65.31384957462986
100
AcDbArc
 50
209.3196984397
 51
210.0432257856
  0
ARC
  5
10E
330
1F
100
AcDbEntity
  8
GRUNDEBENE
  6
SLD-DURCHGEHEND
 62
   250
100
AcDbCircle
 10
223.2668233979
 20
163.2274999873
 30
0.0
 40
65.32449976597445
100
AcDbArc
 50
210.0432258919
 51
210.7666745949
  0
ARC
  5
10F
330
1F
100
AcDbEntity
  8
GRUNDEBENE
  6
SLD-DURCHGEHEND
 62
   250
100
AcDbCircle
 10
223.2761061485
 20
163.2330264367
 30
0.0
 40
65.33530305719498
100
AcDbArc
 50
210.7666746964
 51
211.4900436478
  0
ARC
  5
110
330
1F
100
AcDbEntity
  8
GRUNDEBENE
  6
SLD-DURCHGEHEND
 62
   250
100
AcDbCircle
 10
223.2854431185
 20
163.238746037
 30
0.0
 40
65.34625261592039
100
AcDbArc
 50
211.4900437445
 51
212.2133318869
  0
ARC
  5
111
330
1F
100
AcDbEntity
  8
GRUNDEBENE
  6
SLD-DURCHGEHEND
 62
   250
100
AcDbCircle
 10
223.2948250417
 20
163.2446573224
 30
0.0
 40
65.35734151931443
100
AcDbArc
 50
212.2133319787
 51
212.9365383067
  0
ARC
  5
112
330
1F
100
AcDbEntity
  8
GRUNDEBENE
  6
SLD-DURCHGEHEND
 62
   250
100
AcDbCircle
 10
223.3042426714
 20
163.2507585011
 30
0.0
 40
65.36856275503408
100
AcDbArc
 50
212.9365383936
 51
213.6596619544
  0
ARC
  5
113
330
1F
100
AcDbEntity
  8
GRUNDEBENE
  6
SLD-DURCHGEHEND
 62
   250
100
AcDbCircle
 10
223.3136867877
 20
163.2570474542
 30
0.0
 40
65.37990921981637
100
AcDbArc
 50
213.6596620363
 51
214.3827019304
  0
ARC
  5
114
330
1F
100
AcDbEntity
  8
GRUNDEBENE
  6
SLD-DURCHGEHEND
 62
   250
100
AcDbCircle
 10
223.3231482221
 20
163.2635217448
 30
0.0
 40
65.39137373814651
100
AcDbArc
 50
214.3827020072
 51
215.1056573886
  0
ARC
  5
115
330
1F
100
AcDbEntity
  8
GRUNDEBENE
  6
SLD-DURCHGEHEND
 62
   250
100
AcDbCircle
 10
223.332617859
 20
163.2701786141
 30
0.0
 40
65.40294905372674
100
AcDbArc
 50
215.1056574603
 51
215.8285275373
  0
ARC
  5
116
330
1F
100
AcDbEntity
  8
GRUNDEBENE
  6
SLD-DURCHGEHEND
 62
   250
100
AcDbCircle
 10
223.342086651
 20
163.2770149853
 30
0.0
 40
65.41462783759442
100
AcDbArc
 50
215.8285276038
 51
216.5513116395
  0
ARC
  5
117
330
1F
100
AcDbEntity
  8
GRUNDEBENE
  6
SLD-DURCHGEHEND
 62
   250
100
AcDbCircle
 10
223.3515456366
 20
163.2840274717
 30
0.0
 40
65.42640269957762
100
AcDbArc
 50
216.5513117008
 51
217.2740090131
  0
ARC
  5
118
330
1F
100
AcDbEntity
  8
GRUNDEBENE
  6
SLD-DURCHGEHEND
 62
   250
100
AcDbCircle
 10
223.3609859441
 20
163.2912123741
 30
0.0
 40
65.43826618257008
100
AcDbArc
 50
217.2740090692
 51
217.9966190317
  0
ARC
  5
119
330
1F
100
AcDbEntity
  8
GRUNDEBENE
  6
SLD-DURCHGEHEND
 62
   250
100
AcDbCircle
 10
223.3703988085
 20
163.298565689
 30
0.0
 40
65.45021077358065
100
AcDbArc
 50
217.9966190826
 51
218.7191411249
  0
ARC
  5
11A
330
1F
100
AcDbEntity
  8
GRUNDEBENE
  6
SLD-DURCHGEHEND
 62
   250
100
AcDbCircle
 10
223.3797755803
 20
163.306083111
 30
0.0
 40
65.46222890505764
100
AcDbArc
 50
218.7191411705
 51
219.4415747781
  0
ARC
  5
11B
330
1F
100
AcDbEntity
  8
GRUNDEBENE
  6
SLD-DURCHGEHEND
 62
   250
100
AcDbCircle
 10
223.3891077414
 20
163.3137600414
 30
0.0
 40
65.47431296444104
100
AcDbArc
 50
219.4415748184
 51
220.1639195337
  0
ARC
  5
11C
330
1F
100
AcDbEntity
  8
GRUNDEBENE
  6
SLD-DURCHGEHEND
 62
   250
100
AcDbCircle
 10
223.3983869126
 20
163.3215915904
 30
0.0
 40
65.48645529444808
100
AcDbArc
 50
220.1639195686
 51
220.8861749903
  0
ARC
  5
11D
330
1F
100
AcDbEntity
  8
GRUNDEBENE
  6
SLD-DURCHGEHEND
 62
   250
100
AcDbCircle
 10
223.4076048671
 20
163.3295725854
 30
0.0
 40
65.4986482008733
100
AcDbArc
 50
220.8861750199
 51
221.6083408039
  0
ARC
  5
11E
330
1F
100
AcDbEntity
  8
GRUNDEBENE
  6
SLD-DURCHGEHEND
 62
   250
100
AcDbCircle
 10
223.4167535377
 20
163.3376975743
 30
0.0
 40
65.51088395246698
100
AcDbArc
 50
221.6083408281
 51
222.3304166873
  0
ARC
  5
11F
330
1F
100
AcDbEntity
  8
GRUNDEBENE
  6
SLD-DURCHGEHEND
 62
   250
100
AcDbCircle
 10
223.4258250341
 20
163.3459608374
 30
0.0
 40
65.52315479447918
100
AcDbArc
 50
222.3304167062
 51
223.0524024109
  0
ARC
  5
120
330
1F
100
AcDbEntity
  8
GRUNDEBENE
  6
SLD-DURCHGEHEND
 62
   250
100
AcDbCircle
 10
174.8237898784
 20
117.9345560188
 30
0.0
 40
0.9921885362032238
100
AcDbArc
 50
4.2055254207
 51
13.9692758878
  0
ARC
  5
121
330
1F
100
AcDbEntity
  8
GRUNDEBENE
  6
SLD-DURCHGEHEND
 62
   250
100
AcDbCircle
 10
174.8218604853
 20
117.934062006
 30
0.0
 40
0.9941801236431593
100
AcDbArc
 50
13.9700622095
 51
23.7207531961
  0
ARC
  5
122
330
1F
100
AcDbEntity
  8
GRUNDEBENE
  6
SLD-DURCHGEHEND
 62
   250
100
AcDbCircle
 10
174.8189905913
 20
117.9327896162
 30
0.0
 40
0.9973194165029762
100
AcDbArc
 50
23.7213503978
 51
33.4515444092
  0
ARC
  5
123
330
1F
100
AcDbEntity
  8
GRUNDEBENE
  6
SLD-DURCHGEHEND
 62
   250
100
AcDbCircle
 10
174.8157110731
 20
117.9306157965
 30
0.0
 40
1.001253968115478
100
AcDbArc
 50
33.4518853205
 51
43.1565414606
  0
ARC
  5
124
330
1F
100
AcDbEntity
  8
GRUNDEBENE
  6
SLD-DURCHGEHEND
 62
   250
100
AcDbCircle
 10
152.8186443981
 20
173.6913556019
 30
0.0
 40
5.000000000000028
100
AcDbArc
 50
90.0
 51
180.0
  0
ARC
  5
125
330
1F
100
AcDbEntity
  8
GRUNDEBENE
  6
SLD-DURCHGEHEND
 62
   250
100
AcDbCircle
 10
144.2186443981
 20
105.8913556019
 30
0.0
 40
0.5
100
AcDbArc
 50
180.0
 51
270.0
  0
ARC
  5
126
330
1F
100
AcDbEntity
  8
GRUNDEBENE
  6
SLD-DURCHGEHEND
 62
   250
100
AcDbCircle
 10
144.2186443981
 20
105.8913556019
 30
0.0
 40
0.5
100
AcDbArc
 50
90.0
 51
180.0
  0
ARC
  5
127
330
1F
100
AcDbEntity
  8
GRUNDEBENE
  6
SLD-DURCHGEHEND
 62
   250
100
AcDbCircle
 10
144.177303943
 20
104.1498172125
 30
0.0
 40
1.164186937461341
100
AcDbArc
 50
324.2909220582
 51
331.9338173255
  0
ARC
  5
128
330
1F
100
AcDbEntity
  8
GRUNDEBENE
  6
SLD-DURCHGEHEND
 62
   250
100
AcDbCircle
 10
144.1002579947
 20
104.19108305
 30
0.0
 40
1.251587867417617
100
AcDbArc
 50
331.9263218797
 51
339.2088501008
  0
ARC
  5
129
330
1F
100
AcDbEntity
  8
GRUNDEBENE
  6
SLD-DURCHGEHEND
 62
   250
100
AcDbCircle
 10
144.0305609953
 20
104.2177500222
 30
0.0
 40
1.326212024649864
100
AcDbArc
 50
339.2006153757
 51
346.2071242855
  0
ARC
  5
12A
330
1F
100
AcDbEntity
  8
GRUNDEBENE
  6
SLD-DURCHGEHEND
 62
   250
100
AcDbCircle
 10
143.9774638218
 20
104.2309961532
 30
0.0
 40
1.380936145573628
100
AcDbArc
 50
346.1986135785
 51
353.0186386587
  0
ARC
  5
12B
330
1F
100
AcDbEntity
  8
GRUNDEBENE
  6
SLD-DURCHGEHEND
 62
   250
100
AcDbCircle
 10
143.9482851294
 20
104.2347819777
 30
0.0
 40
1.410358668979897
100
AcDbArc
 50
353.0100591218
 51
359.7348314781
  0
ARC
  5
12C
330
1F
100
AcDbEntity
  8
GRUNDEBENE
  6
SLD-DURCHGEHEND
 62
   250
100
AcDbCircle
 10
143.9471271673
 20
104.2349988805
 30
0.0
 40
1.411517638449419
100
AcDbArc
 50
359.7262446743
 51
6.4473328398
  0
ARC
  5
12D
330
1F
100
AcDbEntity
  8
GRUNDEBENE
  6
SLD-DURCHGEHEND
 62
   250
100
AcDbCircle
 10
143.97415379
 20
104.2382616569
 30
0.0
 40
1.384295584594031
100
AcDbArc
 50
6.438751675
 51
13.2477302941
  0
ARC
  5
12E
330
1F
100
AcDbEntity
  8
GRUNDEBENE
  6
SLD-DURCHGEHEND
 62
   250
100
AcDbCircle
 10
144.0255615918
 20
104.250567869
 30
0.0
 40
1.33143573043856
100
AcDbArc
 50
13.2392089993
 51
20.2273662089
  0
ARC
  5
12F
330
1F
100
AcDbEntity
  8
GRUNDEBENE
  6
SLD-DURCHGEHEND
 62
   250
100
AcDbCircle
 10
144.0942493976
 20
104.2760708517
 30
0.0
 40
1.258166487987866
100
AcDbArc
 50
20.2190963033
 51
27.4761971062
  0
ARC
  5
130
330
1F
100
AcDbEntity
  8
GRUNDEBENE
  6
SLD-DURCHGEHEND
 62
   250
100
AcDbCircle
 10
144.1710647028
 20
104.3161925098
 30
0.0
 40
1.171504427343709
100
AcDbArc
 50
27.4686169969
 51
35.0796270169
  0
ARC
  5
131
330
1F
100
AcDbEntity
  8
GRUNDEBENE
  6
SLD-DURCHGEHEND
 62
   250
100
AcDbCircle
 10
144.2464011047
 20
104.369240104
 30
0.0
 40
1.079365367163706
100
AcDbArc
 50
35.0735325843
 51
43.1121066754
  0
ARC
  5
132
330
1F
100
AcDbEntity
  8
GRUNDEBENE
  6
SLD-DURCHGEHEND
 62
   250
100
AcDbCircle
 10
144.3118573311
 20
104.430599339
 30
0.0
 40
0.9896465312480429
100
AcDbArc
 50
43.1087071733
 51
51.626493506
  0
ARC
  5
133
330
1F
100
AcDbEntity
  8
GRUNDEBENE
  6
SLD-DURCHGEHEND
 62
   250
100
AcDbCircle
 10
144.3616576876
 20
104.4934709613
 30
0.0
 40
0.9094410686893226
100
AcDbArc
 50
51.6272956268
 51
60.6392697682
  0
ARC
  5
134
330
1F
100
AcDbEntity
  8
GRUNDEBENE
  6
SLD-DURCHGEHEND
 62
   250
100
AcDbCircle
 10
144.3935775769
 20
104.5500188957
 30
0.0
 40
0.8445061881698216
100
AcDbArc
 50
60.6456445609
 51
70.1143117703
  0
ARC
  5
135
330
1F
100
AcDbEntity
  8
GRUNDEBENE
  6
SLD-DURCHGEHEND
 62
   250
100
AcDbCircle
 10
144.4092081829
 20
104.5927227443
 30
0.0
 40
0.7990319882924758
100
AcDbArc
 50
70.1267252629
 51
79.9516920823
  0
ARC
  5
136
330
1F
100
AcDbEntity
  8
GRUNDEBENE
  6
SLD-DURCHGEHEND
 62
   250
100
AcDbCircle
 10
144.4135150141
 20
104.6156899524
 30
0.0
 40
0.775665660260023
100
AcDbArc
 50
79.9689389055
 51
89.9904350563
  0
ARC
  5
137
330
1F
100
AcDbEntity
  8
GRUNDEBENE
  6
SLD-DURCHGEHEND
 62
   250
100
AcDbCircle
 10
145.5686443981
 20
108.3913556019
 30
0.0
 40
2.000000000000014
100
AcDbArc
 50
270.0
 51
70.5287791758
  0
ARC
  5
138
330
1F
100
AcDbEntity
  8
GRUNDEBENE
  6
SLD-DURCHGEHEND
 62
   250
100
AcDbCircle
 10
146.5686443981
 20
111.2197827266
 30
0.0
 40
1.000000000001863
100
AcDbArc
 50
180.0
 51
250.528779745
  0
ARC
  5
139
330
1F
100
AcDbEntity
  8
GRUNDEBENE
  6
SLD-DURCHGEHEND
 62
   250
100
AcDbCircle
 10
146.8186443981
 20
173.6913556019
 30
0.0
 40
0.9999999999999756
100
AcDbArc
 50
282.654958254
 51
0.0
  0
ARC
  5
13A
330
1F
100
AcDbEntity
  8
GRUNDEBENE
  6
SLD-DURCHGEHEND
 62
   250
100
AcDbCircle
 10
148.4036443979
 20
169.9213556025
 30
0.0
 40
3.150000000000006
100
AcDbArc
 50
122.23646136
 51
180.0
  0
ARC
  5
13B
330
1F
100
AcDbEntity
  8
GRUNDEBENE
  6
SLD-DURCHGEHEND
 62
   250
100
AcDbCircle
 10
148.4036443979
 20
169.9213556025
 30
0.0
 40
3.150000000000027
100
AcDbArc
 50
180.0
 51
254.6915034922
  0
ARC
  5
13C
330
1F
100
AcDbEntity
  8
GRUNDEBENE
  6
SLD-DURCHGEHEND
 62
   250
100
AcDbCircle
 10
147.2568028773
 20
171.7399414615
 30
0.0
 40
1.000000000011839
100
AcDbArc
 50
102.654957889
 51
122.23646136
  0
ARC
  5
13D
330
1F
100
AcDbEntity
  8
GRUNDEBENE
  6
SLD-DURCHGEHEND
 62
   250
100
AcDbCircle
 10
145.1177206625
 20
100.9913556019
 30
0.0
 40
2.300000000000009
100
AcDbArc
 50
98.2305967682
 51
270.0
  0
ARC
  5
13E
330
1F
100
AcDbEntity
  8
GRUNDEBENE
  6
SLD-DURCHGEHEND
 62
   250
100
AcDbCircle
 10
144.7168797519
 20
103.7625153887
 30
0.0
 40
0.5000000000039945
100
AcDbArc
 50
278.2305967682
 51
324.2401776914
  0
ARC
  5
13F
330
1F
100
AcDbEntity
  8
GRUNDEBENE
  6
SLD-DURCHGEHEND
 62
   250
100
AcDbCircle
 10
161.2219263108
 20
104.6156899524
 30
0.0
 40
0.7756656602351146
100
AcDbArc
 50
90.009549376
 51
100.0310610946
  0
ARC
  5
140
330
1F
100
AcDbEntity
  8
GRUNDEBENE
  6
SLD-DURCHGEHEND
 62
   250
100
AcDbCircle
 10
161.2262331421
 20
104.5927227443
 30
0.0
 40
0.7990319882916741
100
AcDbArc
 50
100.0483079177
 51
109.8732747371
  0
ARC
  5
141
330
1F
100
AcDbEntity
  8
GRUNDEBENE
  6
SLD-DURCHGEHEND
 62
   250
100
AcDbCircle
 10
161.241863748
 20
104.5500188957
 30
0.0
 40
0.844506188162483
100
AcDbArc
 50
109.8856882296
 51
119.3543554391
  0
ARC
  5
142
330
1F
100
AcDbEntity
  8
GRUNDEBENE
  6
SLD-DURCHGEHEND
 62
   250
100
AcDbCircle
 10
161.2737836373
 20
104.4934709613
 30
0.0
 40
0.9094410686892824
100
AcDbArc
 50
119.3607302318
 51
128.3727043732
  0
ARC
  5
143
330
1F
100
AcDbEntity
  8
GRUNDEBENE
  6
SLD-DURCHGEHEND
 62
   250
100
AcDbCircle
 10
161.3235839939
 20
104.430599339
 30
0.0
 40
0.9896465312559868
100
AcDbArc
 50
128.373506494
 51
136.8912928267
  0
ARC
  5
144
330
1F
100
AcDbEntity
  8
GRUNDEBENE
  6
SLD-DURCHGEHEND
 62
   250
100
AcDbCircle
 10
161.3890402202
 20
104.3692401041
 30
0.0
 40
1.079365367155964
100
AcDbArc
 50
136.8878933246
 51
144.9264674157
  0
ARC
  5
145
330
1F
100
AcDbEntity
  8
GRUNDEBENE
  6
SLD-DURCHGEHEND
 62
   250
100
AcDbCircle
 10
161.4643766222
 20
104.3161925098
 30
0.0
 40
1.171504427343733
100
AcDbArc
 50
144.9203729831
 51
152.5313830031
  0
ARC
  5
146
330
1F
100
AcDbEntity
  8
GRUNDEBENE
  6
SLD-DURCHGEHEND
 62
   250
100
AcDbCircle
 10
161.5411919273
 20
104.2760708517
 30
0.0
 40
1.258166487982388
100
AcDbArc
 50
152.5238028938
 51
159.7809036967
  0
ARC
  5
147
330
1F
100
AcDbEntity
  8
GRUNDEBENE
  6
SLD-DURCHGEHEND
 62
   250
100
AcDbCircle
 10
161.6098797331
 20
104.250567869
 30
0.0
 40
1.331435730434123
100
AcDbArc
 50
159.7726337911
 51
166.7607910007
  0
ARC
  5
148
330
1F
100
AcDbEntity
  8
GRUNDEBENE
  6
SLD-DURCHGEHEND
 62
   250
100
AcDbCircle
 10
161.6612875349
 20
104.2382616569
 30
0.0
 40
1.384295584591503
100
AcDbArc
 50
166.7522697059
 51
173.561248325
  0
ARC
  5
149
330
1F
100
AcDbEntity
  8
GRUNDEBENE
  6
SLD-DURCHGEHEND
 62
   250
100
AcDbCircle
 10
161.6883141577
 20
104.2349988805
 30
0.0
 40
1.411517638449304
100
AcDbArc
 50
173.5526671602
 51
180.2737553257
  0
ARC
  5
14A
330
1F
100
AcDbEntity
  8
GRUNDEBENE
  6
SLD-DURCHGEHEND
 62
   250
100
AcDbCircle
 10
161.6871561955
 20
104.2347819777
 30
0.0
 40
1.410358668987003
100
AcDbArc
 50
180.2651685219
 51
186.9899408782
  0
ARC
  5
14B
330
1F
100
AcDbEntity
  8
GRUNDEBENE
  6
SLD-DURCHGEHEND
 62
   250
100
AcDbCircle
 10
161.6579775031
 20
104.2309961532
 30
0.0
 40
1.380936145582878
100
AcDbArc
 50
186.9813613413
 51
193.8013864215
  0
ARC
  5
14C
330
1F
100
AcDbEntity
  8
GRUNDEBENE
  6
SLD-DURCHGEHEND
 62
   250
100
AcDbCircle
 10
161.6048803296
 20
104.2177500222
 30
0.0
 40
1.326212024649505
100
AcDbArc
 50
193.7928757145
 51
200.7993846243
  0
ARC
  5
14D
330
1F
100
AcDbEntity
  8
GRUNDEBENE
  6
SLD-DURCHGEHEND
 62
   250
100
AcDbCircle
 10
161.5351833302
 20
104.19108305
 30
0.0
 40
1.251587867413924
100
AcDbArc
 50
200.7911498992
 51
208.0736781203
  0
ARC
  5
14E
330
1F
100
AcDbEntity
  8
GRUNDEBENE
  6
SLD-DURCHGEHEND
 62
   250
100
AcDbCircle
 10
161.4581373819
 20
104.1498172125
 30
0.0
 40
1.16418693744806
100
AcDbArc
 50
208.0661826745
 51
215.7090779418
  0
ARC
  5
14F
330
1F
100
AcDbEntity
  8
GRUNDEBENE
  6
SLD-DURCHGEHEND
 62
   250
100
AcDbCircle
 10
160.5177206625
 20
100.9913556019
 30
0.0
 40
2.300000000000008
100
AcDbArc
 50
270.0
 51
81.7694004038
  0
ARC
  5
150
330
1F
100
AcDbEntity
  8
GRUNDEBENE
  6
SLD-DURCHGEHEND
 62
   250
100
AcDbCircle
 10
160.918561573
 20
103.7625153887
 30
0.0
 40
0.5000000000040065
100
AcDbArc
 50
215.7598223086
 51
261.7694162406
  0
ARC
  5
151
330
1F
100
AcDbEntity
  8
GRUNDEBENE
  6
SLD-DURCHGEHEND
 62
   250
100
AcDbCircle
 10
180.209088371
 20
145.2896683543
 30
0.0
 40
27.43304275450387
100
AcDbArc
 50
183.1934156102
 51
184.4013494012
  0
ARC
  5
152
330
1F
100
AcDbEntity
  8
GRUNDEBENE
  6
SLD-DURCHGEHEND
 62
   250
100
AcDbCircle
 10
180.2137059628
 20
145.2900254339
 30
0.0
 40
27.43767413199216
100
AcDbArc
 50
184.4013528697
 51
185.6091507246
  0
ARC
  5
153
330
1F
100
AcDbEntity
  8
GRUNDEBENE
  6
SLD-DURCHGEHEND
 62
   250
100
AcDbCircle
 10
180.2195665314
 20
145.2906026688
 30
0.0
 40
27.44356305902833
100
AcDbArc
 50
185.6091541656
 51
186.8167792291
  0
ARC
  5
154
330
1F
100
AcDbEntity
  8
GRUNDEBENE
  6
SLD-DURCHGEHEND
 62
   250
100
AcDbCircle
 10
180.2266525254
 20
145.2914513711
 30
0.0
 40
27.45069969709817
100
AcDbArc
 50
186.8167826361
 51
188.0241983811
  0
ARC
  5
155
330
1F
100
AcDbEntity
  8
GRUNDEBENE
  6
SLD-DURCHGEHEND
 62
   250
100
AcDbCircle
 10
180.2349427518
 20
145.2926216865
 30
0.0
 40
27.45907212149445
100
AcDbArc
 50
188.0242017476
 51
189.2313720437
  0
ARC
  5
156
330
1F
100
AcDbEntity
  8
GRUNDEBENE
  6
SLD-DURCHGEHEND
 62
   250
100
AcDbCircle
 10
180.2444124552
 20
145.2941623778
 30
0.0
 40
27.46866633895229
100
AcDbArc
 50
189.2313753635
 51
190.4382645457
  0
ARC
  5
157
330
1F
100
AcDbEntity
  8
GRUNDEBENE
  6
SLD-DURCHGEHEND
 62
   250
100
AcDbCircle
 10
180.2550334072
 20
145.2961206134
 30
0.0
 40
27.47946630684014
100
AcDbArc
 50
190.4382678125
 51
191.6448407475
  0
ARC
  5
158
330
1F
100
AcDbEntity
  8
GRUNDEBENE
  6
SLD-DURCHGEHEND
 62
   250
100
AcDbCircle
 10
180.2667740151
 20
145.2985417627
 30
0.0
 40
27.4914539602619
100
AcDbArc
 50
191.6448439553
 51
192.8510661075
  0
ARC
  5
159
330
1F
100
AcDbEntity
  8
GRUNDEBENE
  6
SLD-DURCHGEHEND
 62
   250
100
AcDbCircle
 10
180.2795994392
 20
145.3014691984
 30
0.0
 40
27.50460923990984
100
AcDbArc
 50
192.8510692502
 51
194.0569067459
  0
ARC
  5
15A
330
1F
100
AcDbEntity
  8
GRUNDEBENE
  6
SLD-DURCHGEHEND
 62
   250
100
AcDbCircle
 10
180.2934717211
 20
145.304944106
 30
0.0
 40
27.51891012049772
100
AcDbArc
 50
194.0569098178
 51
195.2623295075
  0
ARC
  5
15B
330
1F
100
AcDbEntity
  8
GRUNDEBENE
  6
SLD-DURCHGEHEND
 62
   250
100
AcDbCircle
 10
180.3083499275
 20
145.3090053026
 30
0.0
 40
27.53433264755249
100
AcDbArc
 50
195.2623325031
 51
196.4673020229
  0
ARC
  5
15C
330
1F
100
AcDbEntity
  8
GRUNDEBENE
  6
SLD-DURCHGEHEND
 62
   250
100
AcDbCircle
 10
180.324190301
 20
145.3136890646
 30
0.0
 40
27.55085097245367
100
AcDbArc
 50
196.4673049365
 51
197.671792767
  0
ARC
  5
15D
330
1F
100
AcDbEntity
  8
GRUNDEBENE
  6
SLD-DURCHGEHEND
 62
   250
100
AcDbCircle
 10
180.3409464241
 20
145.319028965
 30
0.0
 40
27.56843739324113
100
AcDbArc
 50
197.6717955935
 51
198.8757711166
  0
ARC
  5
15E
330
1F
100
AcDbEntity
  8
GRUNDEBENE
  6
SLD-DURCHGEHEND
 62
   250
100
AcDbCircle
 10
180.3585693917
 20
145.3250557221
 30
0.0
 40
27.58706239757277
100
AcDbArc
 50
198.8757738509
 51
200.0792074055
  0
ARC
  5
15F
330
1F
100
AcDbEntity
  8
GRUNDEBENE
  6
SLD-DURCHGEHEND
 62
   250
100
AcDbCircle
 10
180.3770079946
 20
145.3317970591
 30
0.0
 40
27.60669471017277
100
AcDbArc
 50
200.0792100428
 51
201.282072977
  0
ARC
  5
160
330
1F
100
AcDbEntity
  8
GRUNDEBENE
  6
SLD-DURCHGEHEND
 62
   250
100
AcDbCircle
 10
180.3962089066
 20
145.3392775739
 30
0.0
 40
27.62730133827263
100
AcDbArc
 50
201.2820755126
 51
202.4843402347
  0
ARC
  5
161
330
1F
100
AcDbEntity
  8
GRUNDEBENE
  6
SLD-DURCHGEHEND
 62
   250
100
AcDbCircle
 10
180.4161168865
 20
145.347518624
 30
0.0
 40
27.64884762732995
100
AcDbArc
 50
202.4843426642
 51
203.6859826905
  0
ARC
  5
162
330
1F
100
AcDbEntity
  8
GRUNDEBENE
  6
SLD-DURCHGEHEND
 62
   250
100
AcDbCircle
 10
180.4366749801
 20
145.3565382213
 30
0.0
 40
27.67129731210801
100
AcDbArc
 50
203.6859850098
 51
204.8869750105
  0
ARC
  5
163
330
1F
100
AcDbEntity
  8
GRUNDEBENE
  6
SLD-DURCHGEHEND
 62
   250
100
AcDbCircle
 10
180.4578247355
 20
145.3663509426
 30
0.0
 40
27.69461257849381
100
AcDbArc
 50
204.8869772157
 51
206.0872930579
  0
ARC
  5
164
330
1F
100
AcDbEntity
  8
GRUNDEBENE
  6
SLD-DURCHGEHEND
 62
   250
100
AcDbCircle
 10
180.4795064142
 20
145.3769678498
 30
0.0
 40
27.71875411764175
100
AcDbArc
 50
206.0872951452
 51
207.2869139334
  0
ARC
  5
165
330
1F
100
AcDbEntity
  8
GRUNDEBENE
  6
SLD-DURCHGEHEND
 62
   250
100
AcDbCircle
 10
180.5016592172
 20
145.3883964286
 30
0.0
 40
27.74368119309923
100
AcDbArc
 50
207.2869158994
 51
208.4858160133
  0
ARC
  5
166
330
1F
100
AcDbEntity
  8
GRUNDEBENE
  6
SLD-DURCHGEHEND
 62
   250
100
AcDbCircle
 10
180.5242215088
 20
145.4006405379
 30
0.0
 40
27.76935170569592
100
AcDbArc
 50
208.4858178549
 51
209.6839789843
  0
ARC
  5
167
330
1F
100
AcDbEntity
  8
GRUNDEBENE
  6
SLD-DURCHGEHEND
 62
   250
100
AcDbCircle
 10
180.5471310415
 20
145.4137003732
 30
0.0
 40
27.79572225718849
100
AcDbArc
 50
209.6839806987
 51
210.881383876
  0
ARC
  5
168
330
1F
100
AcDbEntity
  8
GRUNDEBENE
  6
SLD-DURCHGEHEND
 62
   250
100
AcDbCircle
 10
180.5703251894
 20
145.4275724474
 30
0.0
 40
27.82274822500233
100
AcDbArc
 50
210.8813854604
 51
212.07801309
  0
ARC
  5
169
330
1F
100
AcDbEntity
  8
GRUNDEBENE
  6
SLD-DURCHGEHEND
 62
   250
100
AcDbCircle
 10
180.5937411765
 20
145.4422495829
 30
0.0
 40
27.85038383167567
100
AcDbArc
 50
212.0780145422
 51
213.2738504268
  0
ARC
  5
16A
330
1F
100
AcDbEntity
  8
GRUNDEBENE
  6
SLD-DURCHGEHEND
 62
   250
100
AcDbCircle
 10
180.6173163093
 20
145.45772092
 30
0.0
 40
27.87858222095019
100
AcDbArc
 50
213.2738517447
 51
214.4688811096
  0
ARC
  5
16B
330
1F
100
AcDbEntity
  8
GRUNDEBENE
  6
SLD-DURCHGEHEND
 62
   250
100
AcDbCircle
 10
180.6409882048
 20
145.4739719384
 30
0.0
 40
27.90729553212161
100
AcDbArc
 50
214.4688822912
 51
215.6630918047
  0
ARC
  5
16C
330
1F
100
AcDbEntity
  8
GRUNDEBENE
  6
SLD-DURCHGEHEND
 62
   250
100
AcDbCircle
 10
180.6646950213
 20
145.4909844948
 30
0.0
 40
27.93647498079686
100
AcDbArc
 50
215.6630928486
 51
216.8564706401
  0
ARC
  5
16D
330
1F
100
AcDbEntity
  8
GRUNDEBENE
  6
SLD-DURCHGEHEND
 62
   250
100
AcDbCircle
 10
180.688375682
 20
145.5087368729
 30
0.0
 40
27.96607093687659
100
AcDbArc
 50
216.856471545
 51
218.0490072203
  0
ARC
  5
16E
330
1F
100
AcDbEntity
  8
GRUNDEBENE
  6
SLD-DURCHGEHEND
 62
   250
100
AcDbCircle
 10
180.7119701009
 20
145.5272038494
 30
0.0
 40
27.99603300997229
100
AcDbArc
 50
218.0490079851
 51
219.2406926384
  0
ARC
  5
16F
330
1F
100
AcDbEntity
  8
GRUNDEBENE
  6
SLD-DURCHGEHEND
 62
   250
100
AcDbCircle
 10
180.7354193982
 20
145.5463567719
 30
0.0
 40
28.02631012977084
100
AcDbArc
 50
219.2406932624
 51
220.431519486
  0
ARC
  5
170
330
1F
100
AcDbEntity
  8
GRUNDEBENE
  6
SLD-DURCHGEHEND
 62
   250
100
AcDbCircle
 10
180.7586661156
 20
145.5661636514
 30
0.0
 40
28.0568506331194
100
AcDbArc
 50
220.4315199687
 51
221.6214818594
  0
ARC
  5
171
330
1F
100
AcDbEntity
  8
GRUNDEBENE
  6
SLD-DURCHGEHEND
 62
   250
100
AcDbCircle
 10
180.7816544236
 20
145.5865892682
 30
0.0
 40
28.08760235055568
100
AcDbArc
 50
221.6214822007
 51
222.8105753639
  0
ARC
  5
172
330
1F
100
AcDbEntity
  8
GRUNDEBENE
  6
SLD-DURCHGEHEND
 62
   250
100
AcDbCircle
 10
180.8043303227
 20
145.6075952903
 30
0.0
 40
28.1185126945541
100
AcDbArc
 50
222.8105755637
 51
223.9987971143
  0
ARC
  5
173
330
1F
100
AcDbEntity
  8
GRUNDEBENE
  6
SLD-DURCHGEHEND
 62
   250
100
AcDbCircle
 10
180.8266418357
 20
145.6291404027
 30
0.0
 40
28.14952874658193
100
AcDbArc
 50
223.9987971729
 51
225.1861457339
  0
ARC
  5
174
330
1F
100
AcDbEntity
  8
GRUNDEBENE
  6
SLD-DURCHGEHEND
 62
   250
100
AcDbCircle
 10
180.8485391946
 20
145.6511804513
 30
0.0
 40
28.18059734917372
100
AcDbArc
 50
225.1861456517
 51
226.3726213497
  0
ARC
  5
175
330
1F
100
AcDbEntity
  8
GRUNDEBENE
  6
SLD-DURCHGEHEND
 62
   250
100
AcDbCircle
 10
180.8699750165
 20
145.6736685958
 30
0.0
 40
28.21166519596279
100
AcDbArc
 50
226.3726211275
 51
227.5582255861
  0
ARC
  5
176
330
1F
100
AcDbEntity
  8
GRUNDEBENE
  6
SLD-DURCHGEHEND
 62
   250
100
AcDbCircle
 10
180.8909044709
 20
145.6965554749
 30
0.0
 40
28.24267892354444
100
AcDbArc
 50
227.558225225
 51
228.7429615553
  0
ARC
  5
177
330
1F
100
AcDbEntity
  8
GRUNDEBENE
  6
SLD-DURCHGEHEND
 62
   250
100
AcDbCircle
 10
180.9112854364
 20
145.7197893805
 30
0.0
 40
28.27358520326334
100
AcDbArc
 50
228.7429610565
 51
229.9268338453
  0
ARC
  5
178
330
1F
100
AcDbEntity
  8
GRUNDEBENE
  6
SLD-DURCHGEHEND
 62
   250
100
AcDbCircle
 10
180.9310786454
 20
145.7433164397
 30
0.0
 40
28.30433083111596
100
AcDbArc
 50
229.9268332102
 51
231.1098485059
  0
ARC
  5
179
330
1F
100
AcDbEntity
  8
GRUNDEBENE
  6
SLD-DURCHGEHEND
 62
   250
100
AcDbCircle
 10
180.9502478213
 20
145.7670808111
 30
0.0
 40
28.33486282504133
100
AcDbArc
 50
231.1098477362
 51
232.2920130319
  0
ARC
  5
17A
330
1F
100
AcDbEntity
  8
GRUNDEBENE
  6
SLD-DURCHGEHEND
 62
   250
100
AcDbCircle
 10
180.9687597993
 20
145.7910248821
 30
0.0
 40
28.36512851295756
100
AcDbArc
 50
232.2920121295
 51
233.4733363443
  0
ARC
  5
17B
330
1F
100
AcDbEntity
  8
GRUNDEBENE
  6
SLD-DURCHGEHEND
 62
   250
100
AcDbCircle
 10
180.986584638
 20
145.8150894787
 30
0.0
 40
28.39507562775834
100
AcDbArc
 50
233.4733353113
 51
234.6538287693
  0
ARC
  5
17C
330
1F
100
AcDbEntity
  8
GRUNDEBENE
  6
SLD-DURCHGEHEND
 62
   250
100
AcDbCircle
 10
181.0036957161
 20
145.8392140782
 30
0.0
 40
28.42465239731903
100
AcDbArc
 50
234.6538276079
 51
235.8335020149
  0
ARC
  5
17D
330
1F
100
AcDbEntity
  8
GRUNDEBENE
  6
SLD-DURCHGEHEND
 62
   250
100
AcDbCircle
 10
181.0200698186
 20
145.8633370303
 30
0.0
 40
28.45380763780761
100
AcDbArc
 50
235.8335007275
 51
237.0123691457
  0
ARC
  5
17E
330
1F
100
AcDbEntity
  8
GRUNDEBENE
  6
SLD-DURCHGEHEND
 62
   250
100
AcDbCircle
 10
181.0356872064
 20
145.8873957805
 30
0.0
 40
28.48249084308035
100
AcDbArc
 50
237.0123677351
 51
238.1904445557
  0
ARC
  5
17F
330
1F
100
AcDbEntity
  8
GRUNDEBENE
  6
SLD-DURCHGEHEND
 62
   250
100
AcDbCircle
 10
181.0505316752
 20
145.9113270992
 30
0.0
 40
28.51065227536331
100
AcDbArc
 50
238.1904430246
 51
239.3677439392
  0
ARC
  5
180
330
1F
100
AcDbEntity
  8
GRUNDEBENE
  6
SLD-DURCHGEHEND
 62
   250
100
AcDbCircle
 10
181.0645905989
 20
145.9350673137
 30
0.0
 40
28.53824305493816
100
AcDbArc
 50
239.3677422906
 51
240.5442842595
  0
ARC
  5
181
330
1F
100
AcDbEntity
  8
GRUNDEBENE
  6
SLD-DURCHGEHEND
 62
   250
100
AcDbCircle
 10
181.0778549573
 20
145.9585525384
 30
0.0
 40
28.56521524398648
100
AcDbArc
 50
240.5442824967
 51
241.7200837169
  0
ARC
  5
182
330
1F
100
AcDbEntity
  8
GRUNDEBENE
  6
SLD-DURCHGEHEND
 62
   250
100
AcDbCircle
 10
181.0903193544
 20
145.981718914
 30
0.0
 40
28.59152193800863
100
AcDbArc
 50
241.7200818429
 51
242.8951617133
  0
ARC
  5
183
330
1F
100
AcDbEntity
  8
GRUNDEBENE
  6
SLD-DURCHGEHEND
 62
   250
100
AcDbCircle
 10
181.1019820184
 20
146.0045028406
 30
0.0
 40
28.61711734864953
100
AcDbArc
 50
242.8951597318
 51
244.0695388171
  0
ARC
  5
184
330
1F
100
AcDbEntity
  8
GRUNDEBENE
  6
SLD-DURCHGEHEND
 62
   250
100
AcDbCircle
 10
181.1128447876
 20
146.026841211
 30
0.0
 40
28.64195688456006
100
AcDbArc
 50
244.0695367316
 51
245.2432367254
  0
ARC
  5
185
330
1F
100
AcDbEntity
  8
GRUNDEBENE
  6
SLD-DURCHGEHEND
 62
   250
100
AcDbCircle
 10
181.1229130847
 20
146.0486716452
 30
0.0
 40
28.66599723529052
100
AcDbArc
 50
245.2432345396
 51
246.416278225
  0
ARC
  5
186
330
1F
100
AcDbEntity
  8
GRUNDEBENE
  6
SLD-DURCHGEHEND
 62
   250
100
AcDbCircle
 10
181.1321958744
 20
146.0699327205
 30
0.0
 40
28.68919644876628
100
AcDbArc
 50
246.4162759427
 51
247.5886871521
  0
ARC
  5
187
330
1F
100
AcDbEntity
  8
GRUNDEBENE
  6
SLD-DURCHGEHEND
 62
   250
100
AcDbCircle
 10
181.1407056094
 20
146.0905641986
 30
0.0
 40
28.71151400860565
100
AcDbArc
 50
247.5886847774
 51
248.7604883511
  0
ARC
  5
188
330
1F
100
AcDbEntity
  8
GRUNDEBENE
  6
SLD-DURCHGEHEND
 62
   250
100
AcDbCircle
 10
181.1484581605
 20
146.1105072494
 30
0.0
 40
28.73291090842816
100
AcDbArc
 50
248.7604858879
 51
249.9317076313
  0
ARC
  5
189
330
1F
100
AcDbEntity
  8
GRUNDEBENE
  6
SLD-DURCHGEHEND
 62
   250
100
AcDbCircle
 10
181.155472735
 20
146.1297046682
 30
0.0
 40
28.75334972297723
100
AcDbArc
 50
249.9317050839
 51
251.1023717234
  0
ARC
  5
18A
330
1F
100
AcDbEntity
  8
GRUNDEBENE
  6
SLD-DURCHGEHEND
 62
   250
100
AcDbCircle
 10
181.1617717816
 20
146.1481010894
 30
0.0
 40
28.772794678617
100
AcDbArc
 50
251.102369096
 51
252.2725082343
  0
ARC
  5
18B
330
1F
100
AcDbEntity
  8
GRUNDEBENE
  6
SLD-DURCHGEHEND
 62
   250
100
AcDbCircle
 10
181.1673808819
 20
146.1656431903
 30
0.0
 40
28.79121171717882
100
AcDbArc
 50
252.2725055312
 51
253.4421456011
  0
ARC
  5
18C
330
1F
100
AcDbEntity
  8
GRUNDEBENE
  6
SLD-DURCHGEHEND
 62
   250
100
AcDbCircle
 10
181.1723286311
 20
146.1822798918
 30
0.0
 40
28.80856856185979
100
AcDbArc
 50
253.4421428268
 51
254.6113130444
  0
ARC
  5
18D
330
1F
100
AcDbEntity
  8
GRUNDEBENE
  6
SLD-DURCHGEHEND
 62
   250
100
AcDbCircle
 10
181.1766465052
 20
146.1979625473
 30
0.0
 40
28.82483477588992
100
AcDbArc
 50
254.6113102034
 51
255.7800405203
  0
ARC
  5
18E
330
1F
100
AcDbEntity
  8
GRUNDEBENE
  6
SLD-DURCHGEHEND
 62
   250
100
AcDbCircle
 10
181.1803687181
 20
146.2126451221
 30
0.0
 40
28.83998181745699
100
AcDbArc
 50
255.7800376172
 51
256.9483586721
  0
ARC
  5
18F
330
1F
100
AcDbEntity
  8
GRUNDEBENE
  6
SLD-DURCHGEHEND
 62
   250
100
AcDbCircle
 10
181.1835320675
 20
146.2262843673
 30
0.0
 40
28.85398309553667
100
AcDbArc
 50
256.9483557115
 51
258.1162987804
  0
ARC
  5
190
330
1F
100
AcDbEntity
  8
GRUNDEBENE
  6
SLD-DURCHGEHEND
 62
   250
100
AcDbCircle
 10
181.1861757718
 20
146.2388399815
 30
0.0
 40
28.86681401980454
100
AcDbArc
 50
258.1162957671
 51
259.2838927139
  0
ARC
  5
191
330
1F
100
AcDbEntity
  8
GRUNDEBENE
  6
SLD-DURCHGEHEND
 62
   250
100
AcDbCircle
 10
142.6387872937
 20
138.8171274567
 30
0.0
 40
25.57958729028362
100
AcDbArc
 50
242.6935596227
 51
243.7498638887
  0
ARC
  5
192
330
1F
100
AcDbEntity
  8
GRUNDEBENE
  6
SLD-DURCHGEHEND
 62
   250
100
AcDbCircle
 10
142.6430300948
 20
138.8257302415
 30
0.0
 40
25.58917943642974
100
AcDbArc
 50
243.7498631824
 51
244.8059034565
  0
ARC
  5
193
330
1F
100
AcDbEntity
  8
GRUNDEBENE
  6
SLD-DURCHGEHEND
 62
   250
100
AcDbCircle
 10
142.6469968578
 20
138.8341615216
 30
0.0
 40
25.59849725228888
100
AcDbArc
 50
244.8059027178
 51
245.861686708
  0
ARC
  5
194
330
1F
100
AcDbEntity
  8
GRUNDEBENE
  6
SLD-DURCHGEHEND
 62
   250
100
AcDbCircle
 10
142.6506901476
 20
138.8424023427
 30
0.0
 40
25.60752784036488
100
AcDbArc
 50
245.8616859379
 51
246.9172216926
  0
ARC
  5
195
330
1F
100
AcDbEntity
  8
GRUNDEBENE
  6
SLD-DURCHGEHEND
 62
   250
100
AcDbCircle
 10
142.6541135018
 20
138.8504340609
 30
0.0
 40
25.61625869666855
100
AcDbArc
 50
246.9172208921
 51
247.9725167891
  0
ARC
  5
196
330
1F
100
AcDbEntity
  8
GRUNDEBENE
  6
SLD-DURCHGEHEND
 62
   250
100
AcDbCircle
 10
142.6572714148
 20
138.8582383989
 30
0.0
 40
25.62467772898422
100
AcDbArc
 50
247.9725159593
 51
249.0275806942
  0
ARC
  5
197
330
1F
100
AcDbEntity
  8
GRUNDEBENE
  6
SLD-DURCHGEHEND
 62
   250
100
AcDbCircle
 10
142.660169317
 20
138.8657974957
 30
0.0
 40
25.63277326990376
100
AcDbArc
 50
249.0275798364
 51
250.0824224106
  0
ARC
  5
198
330
1F
100
AcDbEntity
  8
GRUNDEBENE
  6
SLD-DURCHGEHEND
 62
   250
100
AcDbCircle
 10
142.662813556
 20
138.873093967
 30
0.0
 40
25.64053410056644
100
AcDbArc
 50
250.0824215258
 51
251.1370512343
  0
ARC
  5
199
330
1F
100
AcDbEntity
  8
GRUNDEBENE
  6
SLD-DURCHGEHEND
 62
   250
100
AcDbCircle
 10
142.6652113692
 20
138.8801109518
 30
0.0
 40
25.64794946185691
100
AcDbArc
 50
251.1370503238
 51
252.1914767426
  0
ARC
  5
19A
330
1F
100
AcDbEntity
  8
GRUNDEBENE
  6
SLD-DURCHGEHEND
 62
   250
100
AcDbCircle
 10
142.6673708562
 20
138.8868321615
 30
0.0
 40
25.65500906840358
100
AcDbArc
 50
252.1914758076
 51
253.2457087805
  0
ARC
  5
19B
330
1F
100
AcDbEntity
  8
GRUNDEBENE
  6
SLD-DURCHGEHEND
 62
   250
100
AcDbCircle
 10
142.6693009502
 20
138.8932419328
 30
0.0
 40
25.66170312777131
100
AcDbArc
 50
253.2457078222
 51
254.2997574479
  0
ARC
  5
19C
330
1F
100
AcDbEntity
  8
GRUNDEBENE
  6
SLD-DURCHGEHEND
 62
   250
100
AcDbCircle
 10
142.6710113834
 20
138.8993252711
 30
0.0
 40
25.6680223512952
100
AcDbArc
 50
254.2997564676
 51
255.3536330857
  0
ARC
  5
19D
330
1F
100
AcDbEntity
  8
GRUNDEBENE
  6
SLD-DURCHGEHEND
 62
   250
100
AcDbCircle
 10
142.6725126525
 20
138.9050678968
 30
0.0
 40
25.67395796910081
100
AcDbArc
 50
255.3536320848
 51
256.4073462623
  0
ARC
  5
19E
330
1F
100
AcDbEntity
  8
GRUNDEBENE
  6
SLD-DURCHGEHEND
 62
   250
100
AcDbCircle
 10
142.67381598
 20
138.9104562851
 30
0.0
 40
25.67950173958254
100
AcDbArc
 50
256.4073452421
 51
257.4609077593
  0
ARC
  5
19F
330
1F
100
AcDbEntity
  8
GRUNDEBENE
  6
SLD-DURCHGEHEND
 62
   250
100
AcDbCircle
 10
142.674933275
 20
138.9154777105
 30
0.0
 40
25.68464596552801
100
AcDbArc
 50
257.4609067211
 51
258.5143285571
  0
ARC
  5
1A0
330
1F
100
AcDbEntity
  8
GRUNDEBENE
  6
SLD-DURCHGEHEND
 62
   250
100
AcDbCircle
 10
142.6758770905
 20
138.9201202825
 30
0.0
 40
25.68938350312039
100
AcDbArc
 50
258.5143275023
 51
259.5676198204
  0
ARC
  5
1A1
330
1F
100
AcDbEntity
  8
GRUNDEBENE
  6
SLD-DURCHGEHEND
 62
   250
100
AcDbCircle
 10
142.676660579
 20
138.9243729802
 30
0.0
 40
25.69370777089548
100
AcDbArc
 50
259.5676187505
 51
260.6207928837
  0
ARC
  5
1A2
330
1F
100
AcDbEntity
  8
GRUNDEBENE
  6
SLD-DURCHGEHEND
 62
   250
100
AcDbCircle
 10
142.6772974468
 20
138.9282256868
 30
0.0
 40
25.69761276109215
100
AcDbArc
 50
260.6207918
 51
261.673859236
  0
ARC
  5
1A3
330
1F
100
AcDbEntity
  8
GRUNDEBENE
  6
SLD-DURCHGEHEND
 62
   250
100
AcDbCircle
 10
142.6778019055
 20
138.9316692202
 30
0.0
 40
25.70109304853637
100
AcDbArc
 50
261.6738581399
 51
262.7268305057
  0
ARC
  5
1A4
330
1F
100
AcDbEntity
  8
GRUNDEBENE
  6
SLD-DURCHGEHEND
 62
   250
100
AcDbCircle
 10
142.6781886229
 20
138.9346953567
 30
0.0
 40
25.70414379471334
100
AcDbArc
 50
262.7268293986
 51
263.7797184456
  0
ARC
  5
1A5
330
1F
100
AcDbEntity
  8
GRUNDEBENE
  6
SLD-DURCHGEHEND
 62
   250
100
AcDbCircle
 10
142.6784726724
 20
138.9372968607
 30
0.0
 40
25.70676075992774
100
AcDbArc
 50
263.779717329
 51
264.8325349172
  0
ARC
  5
1A6
330
1F
100
AcDbEntity
  8
GRUNDEBENE
  6
SLD-DURCHGEHEND
 62
   250
100
AcDbCircle
 10
142.6786694804
 20
138.9394675044
 30
0.0
 40
25.70894030741339
100
AcDbArc
 50
264.8325337927
 51
265.8852918755
  0
ARC
  5
1A7
330
1F
100
AcDbEntity
  8
GRUNDEBENE
  6
SLD-DURCHGEHEND
 62
   250
100
AcDbCircle
 10
142.6787947731
 20
138.9412020845
 30
0.0
 40
25.71067940657895
100
AcDbArc
 50
265.8852907444
 51
266.9380013528
  0
ARC
  5
1A8
330
1F
100
AcDbEntity
  8
GRUNDEBENE
  6
SLD-DURCHGEHEND
 62
   250
100
AcDbCircle
 10
142.6788645224
 20
138.9424964388
 30
0.0
 40
25.71197563873622
100
AcDbArc
 50
266.9380002167
 51
267.9906754437
  0
ARC
  5
1A9
330
1F
100
AcDbEntity
  8
GRUNDEBENE
  6
SLD-DURCHGEHEND
 62
   250
100
AcDbCircle
 10
142.6788948912
 20
138.9433474617
 30
0.0
 40
25.71282720314115
100
AcDbArc
 50
267.990674304
 51
269.0433262887
  0
ARC
  5
1AA
330
1F
100
AcDbEntity
  8
GRUNDEBENE
  6
SLD-DURCHGEHEND
 62
   250
100
AcDbCircle
 10
142.6789021775
 20
138.9437531075
 30
0.0
 40
25.71323291412057
100
AcDbArc
 50
269.0433251468
 51
270.0959660587
  0
ARC
  5
1AB
330
1F
100
AcDbEntity
  8
GRUNDEBENE
  6
SLD-DURCHGEHEND
 62
   250
100
AcDbCircle
 10
142.6789027584
 20
138.9437124032
 30
0.0
 40
25.71319220888084
100
AcDbArc
 50
270.0959649162
 51
271.148606939
  0
ARC
  5
1AC
330
1F
100
AcDbEntity
  8
GRUNDEBENE
  6
SLD-DURCHGEHEND
 62
   250
100
AcDbCircle
 10
142.6789130341
 20
138.9432254455
 30
0.0
 40
25.7127051430722
100
AcDbArc
 50
271.1486057974
 51
272.2012611135
  0
ARC
  5
1AD
330
1F
100
AcDbEntity
  8
GRUNDEBENE
  6
SLD-DURCHGEHEND
 62
   250
100
AcDbCircle
 10
142.6789493716
 20
138.9422934055
 30
0.0
 40
25.7117723951337
100
AcDbArc
 50
272.2012599743
 51
273.2539407488
  0
ARC
  5
1AE
330
1F
100
AcDbEntity
  8
GRUNDEBENE
  6
SLD-DURCHGEHEND
 62
   250
100
AcDbCircle
 10
142.6790280484
 20
138.9409185203
 30
0.0
 40
25.71039526076868
100
AcDbArc
 50
273.2539396135
 51
274.3066579782
  0
ARC
  5
1AF
330
1F
100
AcDbEntity
  8
GRUNDEBENE
  6
SLD-DURCHGEHEND
 62
   250
100
AcDbCircle
 10
142.6791651966
 20
138.9391040906
 30
0.0
 40
25.70857565509556
100
AcDbArc
 50
274.3066568482
 51
275.359424886
  0
ARC
  5
1B0
330
1F
100
AcDbEntity
  8
GRUNDEBENE
  6
SLD-DURCHGEHEND
 62
   250
100
AcDbCircle
 10
142.6793767473
 20
138.9368544693
 30
0.0
 40
25.70631610884905
100
AcDbArc
 50
275.3594237629
 51
276.4122534918
  0
ARC
  5
1B1
330
1F
100
AcDbEntity
  8
GRUNDEBENE
  6
SLD-DURCHGEHEND
 62
   250
100
AcDbCircle
 10
131.8017908123
 20
117.8619154796
 30
0.0
 40
1.983146414210282
100
AcDbArc
 50
175.795365008
 51
179.9973100493
  0
ARC
  5
1B2
330
1F
100
AcDbEntity
  8
GRUNDEBENE
  6
SLD-DURCHGEHEND
 62
   250
100
AcDbCircle
 10
131.801790472
 20
117.8619179507
 30
0.0
 40
1.983146073889109
100
AcDbArc
 50
179.9973814435
 51
184.1993269656
  0
ARC
  5
1B3
330
1F
100
AcDbEntity
  8
GRUNDEBENE
  6
SLD-DURCHGEHEND
 62
   250
100
AcDbCircle
 10
131.8023254571
 20
117.8619596822
 30
0.0
 40
1.983682678575433
100
AcDbArc
 50
184.1993975687
 51
188.4005851112
  0
ARC
  5
1B4
330
1F
100
AcDbEntity
  8
GRUNDEBENE
  6
SLD-DURCHGEHEND
 62
   250
100
AcDbCircle
 10
131.8033760758
 20
117.8621172248
 30
0.0
 40
1.984745040918904
100
AcDbArc
 50
188.4006533588
 51
192.6003412719
  0
ARC
  5
1B5
330
1F
100
AcDbEntity
  8
GRUNDEBENE
  6
SLD-DURCHGEHEND
 62
   250
100
AcDbCircle
 10
131.804903836
 20
117.8624610165
 30
0.0
 40
1.986311003481994
100
AcDbArc
 50
192.6004056592
 51
196.7978854995
  0
ARC
  5
1B6
330
1F
100
AcDbEntity
  8
GRUNDEBENE
  6
SLD-DURCHGEHEND
 62
   250
100
AcDbCircle
 10
131.8068532093
 20
117.8630516315
 30
0.0
 40
1.988347883038676
100
AcDbArc
 50
196.7979446185
 51
200.9925567115
  0
ARC
  5
1B7
330
1F
100
AcDbEntity
  8
GRUNDEBENE
  6
SLD-DURCHGEHEND
 62
   250
100
AcDbCircle
 10
131.8091541748
 20
117.8639365031
 30
0.0
 40
1.990813128803439
100
AcDbArc
 50
200.9926092844
 51
205.1837570717
  0
ARC
  5
1B8
330
1F
100
AcDbEntity
  8
GRUNDEBENE
  6
SLD-DURCHGEHEND
 62
   250
100
AcDbCircle
 10
131.8117254197
 20
117.8651472757
 30
0.0
 40
1.993655182294019
100
AcDbArc
 50
205.1838019808
 51
209.3709648138
  0
ARC
  5
1B9
330
1F
100
AcDbEntity
  8
GRUNDEBENE
  6
SLD-DURCHGEHEND
 62
   250
100
AcDbCircle
 10
131.8144780469
 20
117.8666979162
 30
0.0
 40
1.996814524129757
100
AcDbArc
 50
209.3710011257
 51
213.5537452217
  0
ARC
  5
1BA
330
1F
100
AcDbEntity
  8
GRUNDEBENE
  6
SLD-DURCHGEHEND
 62
   250
100
AcDbCircle
 10
131.8173196147
 20
117.8685836749
 30
0.0
 40
2.000224889641003
100
AcDbArc
 50
213.5537722051
 51
217.7317595371
  0
ARC
  5
1BB
330
1F
100
AcDbEntity
  8
GRUNDEBENE
  6
SLD-DURCHGEHEND
 62
   250
100
AcDbCircle
 10
131.8201583183
 20
117.8707809467
 30
0.0
 40
2.003814630694799
100
AcDbArc
 50
217.7317766754
 51
221.9047716341
  0
ARC
  5
1BC
330
1F
100
AcDbEntity
  8
GRUNDEBENE
  6
SLD-DURCHGEHEND
 62
   250
100
AcDbCircle
 10
131.8229071141
 20
117.8732480428
 30
0.0
 40
2.007508198255017
100
AcDbArc
 50
221.9047786316
 51
226.0726523598
  0
ARC
  5
1BD
330
1F
100
AcDbEntity
  8
GRUNDEBENE
  6
SLD-DURCHGEHEND
 62
   250
100
AcDbCircle
 10
131.8254875954
 20
117.8759268365
 30
0.0
 40
2.011227716988101
100
AcDbArc
 50
226.0726491421
 51
230.2353815061
  0
ARC
  5
1BE
330
1F
100
AcDbEntity
  8
GRUNDEBENE
  6
SLD-DURCHGEHEND
 62
   250
100
AcDbCircle
 10
131.8278334347
 20
117.8787452076
 30
0.0
 40
2.01489462001908
100
AcDbArc
 50
230.235368216
 51
234.3930474363
  0
ARC
  5
1BF
330
1F
100
AcDbEntity
  8
GRUNDEBENE
  6
SLD-DURCHGEHEND
 62
   250
100
AcDbCircle
 10
131.8298932315
 20
117.8816201715
 30
0.0
 40
2.018431310467041
100
AcDbArc
 50
234.3930244236
 51
238.5458444403
  0
ARC
  5
1C0
330
1F
100
AcDbEntity
  8
GRUNDEBENE
  6
SLD-DURCHGEHEND
 62
   250
100
AcDbCircle
 10
131.8316326334
 20
117.8844615451
 30
0.0
 40
2.021762814842566
100
AcDbArc
 50
238.5458122496
 51
242.6940679401
  0
ARC
  5
1C1
330
1F
100
AcDbEntity
  8
GRUNDEBENE
  6
SLD-DURCHGEHEND
 62
   250
100
AcDbCircle
 10
82.2114637629
 20
163.3459608368
 30
0.0
 40
65.52315479346663
100
AcDbArc
 50
316.9475975891
 51
317.6695832938
  0
ARC
  5
1C2
330
1F
100
AcDbEntity
  8
GRUNDEBENE
  6
SLD-DURCHGEHEND
 62
   250
100
AcDbCircle
 10
82.2205352586
 20
163.3376975743
 30
0.0
 40
65.51088395241717
100
AcDbArc
 50
317.6695833127
 51
318.3916591719
  0
ARC
  5
1C3
330
1F
100
AcDbEntity
  8
GRUNDEBENE
  6
SLD-DURCHGEHEND
 62
   250
100
AcDbCircle
 10
82.2296839298
 20
163.3295725849
 30
0.0
 40
65.49864819993012
100
AcDbArc
 50
318.3916591961
 51
319.1138249801
  0
ARC
  5
1C4
330
1F
100
AcDbEntity
  8
GRUNDEBENE
  6
SLD-DURCHGEHEND
 62
   250
100
AcDbCircle
 10
82.2389018839
 20
163.3215915902
 30
0.0
 40
65.48645529414084
100
AcDbArc
 50
319.1138250097
 51
319.8360804314
  0
ARC
  5
1C5
330
1F
100
AcDbEntity
  8
GRUNDEBENE
  6
SLD-DURCHGEHEND
 62
   250
100
AcDbCircle
 10
82.2481810549
 20
163.3137600414
 30
0.0
 40
65.47431296434313
100
AcDbArc
 50
319.8360804663
 51
320.5584251816
  0
ARC
  5
1C6
330
1F
100
AcDbEntity
  8
GRUNDEBENE
  6
SLD-DURCHGEHEND
 62
   250
100
AcDbCircle
 10
82.2575132163
 20
163.3060831108
 30
0.0
 40
65.46222890461516
100
AcDbArc
 50
320.5584252219
 51
321.2808588295
  0
ARC
  5
1C7
330
1F
100
AcDbEntity
  8
GRUNDEBENE
  6
SLD-DURCHGEHEND
 62
   250
100
AcDbCircle
 10
82.2668899893
 20
163.2985656878
 30
0.0
 40
65.45021077168505
100
AcDbArc
 50
321.2808588751
 51
322.0033809174
  0
ARC
  5
1C8
330
1F
100
AcDbEntity
  8
GRUNDEBENE
  6
SLD-DURCHGEHEND
 62
   250
100
AcDbCircle
 10
82.2763028529
 20
163.2912123735
 30
0.0
 40
65.43826618156767
100
AcDbArc
 50
322.0033809683
 51
322.7259909308
  0
ARC
  5
1C9
330
1F
100
AcDbEntity
  8
GRUNDEBENE
  6
SLD-DURCHGEHEND
 62
   250
100
AcDbCircle
 10
82.28574316
 20
163.2840274715
 30
0.0
 40
65.42640269913598
100
AcDbArc
 50
322.7259909869
 51
323.4486882992
  0
ARC
  5
1CA
330
1F
100
AcDbEntity
  8
GRUNDEBENE
  6
SLD-DURCHGEHEND
 62
   250
100
AcDbCircle
 10
82.2952021446
 20
163.2770149859
 30
0.0
 40
65.41462783848155
100
AcDbArc
 50
323.4486883606
 51
324.1714723962
  0
ARC
  5
1CB
330
1F
100
AcDbEntity
  8
GRUNDEBENE
  6
SLD-DURCHGEHEND
 62
   250
100
AcDbCircle
 10
82.3046709381
 20
163.2701786135
 30
0.0
 40
65.40294905263859
100
AcDbArc
 50
324.1714724627
 51
324.8943425397
  0
ARC
  5
1CC
330
1F
100
AcDbEntity
  8
GRUNDEBENE
  6
SLD-DURCHGEHEND
 62
   250
100
AcDbCircle
 10
82.3141405744
 20
163.2635217447
 30
0.0
 40
65.39137373778735
100
AcDbArc
 50
324.8943426114
 51
325.6172979928
  0
ARC
  5
1CD
330
1F
100
AcDbEntity
  8
GRUNDEBENE
  6
SLD-DURCHGEHEND
 62
   250
100
AcDbCircle
 10
82.323602008
 20
163.2570474545
 30
0.0
 40
65.3799092204077
100
AcDbArc
 50
325.6172980696
 51
326.3403379637
  0
ARC
  5
1CE
330
1F
100
AcDbEntity
  8
GRUNDEBENE
  6
SLD-DURCHGEHEND
 62
   250
100
AcDbCircle
 10
82.3330461251
 20
163.2507585009
 30
0.0
 40
65.36856275463892
100
AcDbArc
 50
326.3403380456
 51
327.0634616064
  0
ARC
  5
1CF
330
1F
100
AcDbEntity
  8
GRUNDEBENE
  6
SLD-DURCHGEHEND
 62
   250
100
AcDbCircle
 10
82.342463755
 20
163.2446573221
 30
0.0
 40
65.357341518717
100
AcDbArc
 50
327.0634616933
 51
327.7866680213
  0
ARC
  5
1D0
330
1F
100
AcDbEntity
  8
GRUNDEBENE
  6
SLD-DURCHGEHEND
 62
   250
100
AcDbCircle
 10
82.3518456785
 20
163.2387460366
 30
0.0
 40
65.34625261500861
100
AcDbArc
 50
327.7866681131
 51
328.5099562555
  0
ARC
  5
1D1
330
1F
100
AcDbEntity
  8
GRUNDEBENE
  6
SLD-DURCHGEHEND
 62
   250
100
AcDbCircle
 10
82.3611826492
 20
163.2330264359
 30
0.0
 40
65.33530305549628
100
AcDbArc
 50
328.5099563522
 51
329.2333253036
  0
ARC
  5
1D2
330
1F
100
AcDbEntity
  8
GRUNDEBENE
  6
SLD-DURCHGEHEND
 62
   250
100
AcDbCircle
 10
82.3704653983
 20
163.2274999873
 30
0.0
 40
65.32449976597496
100
AcDbArc
 50
329.2333254051
 51
329.9567741081
  0
ARC
  5
1D3
330
1F
100
AcDbEntity
  8
GRUNDEBENE
  6
SLD-DURCHGEHEND
 62
   250
100
AcDbCircle
 10
82.3796846547
 20
163.2221678294
 30
0.0
 40
65.31384957367216
100
AcDbArc
 50
329.9567742144
 51
330.6803015603
  0
ARC
  5
1D4
330
1F
100
AcDbEntity
  8
GRUNDEBENE
  6
SLD-DURCHGEHEND
 62
   250
100
AcDbCircle
 10
82.3888311448
 20
163.2170307777
 30
0.0
 40
65.3033592170215
100
AcDbArc
 50
330.6803016713
 51
331.4039065008
  0
ARC
  5
1D5
330
1F
100
AcDbEntity
  8
GRUNDEBENE
  6
SLD-DURCHGEHEND
 62
   250
100
AcDbCircle
 10
82.3978956217
 20
163.212089316
 30
0.0
 40
65.29303532321232
100
AcDbArc
 50
331.4039066165
 51
332.1275877203
  0
ARC
  5
1D6
330
1F
100
AcDbEntity
  8
GRUNDEBENE
  6
SLD-DURCHGEHEND
 62
   250
100
AcDbCircle
 10
82.4068688648
 20
163.2073436038
 30
0.0
 40
65.28288441799376
100
AcDbArc
 50
332.1275878406
 51
332.8513439602
  0
ARC
  5
1D7
330
1F
100
AcDbEntity
  8
GRUNDEBENE
  6
SLD-DURCHGEHEND
 62
   250
100
AcDbCircle
 10
82.4157416973
 20
163.2027934741
 30
0.0
 40
65.27291291674241
100
AcDbArc
 50
332.851344085
 51
333.5751739136
  0
ARC
  5
1D8
330
1F
100
AcDbEntity
  8
GRUNDEBENE
  6
SLD-DURCHGEHEND
 62
   250
100
AcDbCircle
 10
82.4245050007
 20
163.1984384344
 30
0.0
 40
65.26312711803315
100
AcDbArc
 50
333.5751740428
 51
334.2990762259
  0
ARC
  5
1D9
330
1F
100
AcDbEntity
  8
GRUNDEBENE
  6
SLD-DURCHGEHEND
 62
   250
100
AcDbCircle
 10
82.4331497234
 20
163.1942776699
 30
0.0
 40
65.25353320365686
100
AcDbArc
 50
334.2990763595
 51
335.0230494959
  0
ARC
  5
1DA
330
1F
100
AcDbEntity
  8
GRUNDEBENE
  6
SLD-DURCHGEHEND
 62
   250
100
AcDbCircle
 10
82.4416668953
 20
163.1903100449
 30
0.0
 40
65.24413723304619
100
AcDbArc
 50
335.0230496337
 51
335.7470922764
  0
ARC
  5
1DB
330
1F
100
AcDbEntity
  8
GRUNDEBENE
  6
SLD-DURCHGEHEND
 62
   250
100
AcDbCircle
 10
82.450047637
 20
163.1865341072
 30
0.0
 40
65.23494514200057
100
AcDbArc
 50
335.7470924183
 51
336.4712030752
  0
ARC
  5
1DC
330
1F
100
AcDbEntity
  8
GRUNDEBENE
  6
SLD-DURCHGEHEND
 62
   250
100
AcDbCircle
 10
82.4582831784
 20
163.1829480877
 30
0.0
 40
65.2259627326089
100
AcDbArc
 50
336.4712032213
 51
337.1953803563
  0
ARC
  5
1DD
330
1F
100
AcDbEntity
  8
GRUNDEBENE
  6
SLD-DURCHGEHEND
 62
   250
100
AcDbCircle
 10
82.4663648646
 20
163.1795499076
 30
0.0
 40
65.21719567614568
100
AcDbArc
 50
337.1953805064
 51
337.9196225404
  0
ARC
  5
1DE
330
1F
100
AcDbEntity
  8
GRUNDEBENE
  6
SLD-DURCHGEHEND
 62
   250
100
AcDbCircle
 10
82.4742841712
 20
163.1763371805
 30
0.0
 40
65.20864950548507
100
AcDbArc
 50
337.9196226944
 51
338.6439280064
  0
ARC
  5
1DF
330
1F
100
AcDbEntity
  8
GRUNDEBENE
  6
SLD-DURCHGEHEND
 62
   250
100
AcDbCircle
 10
82.4820327111
 20
163.1733072193
 30
0.0
 40
65.20032961755614
100
AcDbArc
 50
338.6439281641
 51
339.3682950919
  0
ARC
  5
1E0
330
1F
100
AcDbEntity
  8
GRUNDEBENE
  6
SLD-DURCHGEHEND
 62
   250
100
AcDbCircle
 10
82.4896022535
 20
163.1704570377
 30
0.0
 40
65.19224126123221
100
AcDbArc
 50
339.3682952533
 51
340.0927220947
  0
ARC
  5
1E1
330
1F
100
AcDbEntity
  8
GRUNDEBENE
  6
SLD-DURCHGEHEND
 62
   250
100
AcDbCircle
 10
82.4969847291
 20
163.1677833585
 30
0.0
 40
65.18438954125352
100
AcDbArc
 50
340.0927222597
 51
340.8172072737
  0
ARC
  5
1E2
330
1F
100
AcDbEntity
  8
GRUNDEBENE
  6
SLD-DURCHGEHEND
 62
   250
100
AcDbCircle
 10
82.5041722446
 20
163.1652826179
 30
0.0
 40
65.17677941106973
100
AcDbArc
 50
340.8172074422
 51
341.5417488501
  0
ARC
  5
1E3
330
1F
100
AcDbEntity
  8
GRUNDEBENE
  6
SLD-DURCHGEHEND
 62
   250
100
AcDbCircle
 10
82.5111570941
 20
163.1629509718
 30
0.0
 40
65.16941566906087
100
AcDbArc
 50
341.541749022
 51
342.2663450083
  0
ARC
  5
1E4
330
1F
100
AcDbEntity
  8
GRUNDEBENE
  6
SLD-DURCHGEHEND
 62
   250
100
AcDbCircle
 10
82.5179317623
 20
163.1607843048
 30
0.0
 40
65.16230296381583
100
AcDbArc
 50
342.2663451835
 51
342.9909938974
  0
ARC
  5
1E5
330
1F
100
AcDbEntity
  8
GRUNDEBENE
  6
SLD-DURCHGEHEND
 62
   250
100
AcDbCircle
 10
82.5244889446
 20
163.1587782338
 30
0.0
 40
65.1554457807026
100
AcDbArc
 50
342.9909940757
 51
343.7156936321
  0
ARC
  5
1E6
330
1F
100
AcDbEntity
  8
GRUNDEBENE
  6
SLD-DURCHGEHEND
 62
   250
100
AcDbCircle
 10
82.530821555
 20
163.1569281168
 30
0.0
 40
65.14884844132574
100
AcDbArc
 50
343.7156938135
 51
344.4404422942
  0
ARC
  5
1E7
330
1F
100
AcDbEntity
  8
GRUNDEBENE
  6
SLD-DURCHGEHEND
 62
   250
100
AcDbCircle
 10
82.5369227292
 20
163.1552290622
 30
0.0
 40
65.14251510780339
100
AcDbArc
 50
344.4404424784
 51
345.1652379333
  0
ARC
  5
1E8
330
1F
100
AcDbEntity
  8
GRUNDEBENE
  6
SLD-DURCHGEHEND
 62
   250
100
AcDbCircle
 10
82.5427858401
 20
163.1536759354
 30
0.0
 40
65.1364497741717
100
AcDbArc
 50
345.1652381204
 51
345.890078569
  0
ARC
  5
1E9
330
1F
100
AcDbEntity
  8
GRUNDEBENE
  6
SLD-DURCHGEHEND
 62
   250
100
AcDbCircle
 10
82.5484045079
 20
163.1522633668
 30
0.0
 40
65.13065626247808
100
AcDbArc
 50
345.8900787587
 51
346.614962191
  0
ARC
  5
1EA
330
1F
100
AcDbEntity
  8
GRUNDEBENE
  6
SLD-DURCHGEHEND
 62
   250
100
AcDbCircle
 10
82.5537726039
 20
163.1509857625
 30
0.0
 40
65.12513822590391
100
AcDbArc
 50
346.6149623833
 51
347.3398867614
  0
ARC
  5
1EB
330
1F
100
AcDbEntity
  8
GRUNDEBENE
  6
SLD-DURCHGEHEND
 62
   250
100
AcDbCircle
 10
82.5588842613
 20
163.1498373125
 30
0.0
 40
65.11989914413081
100
AcDbArc
 50
347.3398869562
 51
348.0648502155
  0
ARC
  5
1EC
330
1F
100
AcDbEntity
  8
GRUNDEBENE
  6
SLD-DURCHGEHEND
 62
   250
100
AcDbCircle
 10
82.563733888
 20
163.1488119993
 30
0.0
 40
65.11494231585345
100
AcDbArc
 50
348.0648504126
 51
348.7898504632
  0
ARC
  5
1ED
330
1F
100
AcDbEntity
  8
GRUNDEBENE
  6
SLD-DURCHGEHEND
 62
   250
100
AcDbCircle
 10
82.5683161643
 20
163.1479036098
 30
0.0
 40
65.11027086773679
100
AcDbArc
 50
348.7898506624
 51
349.5148853905
  0
ARC
  5
1EE
330
1F
100
AcDbEntity
  8
GRUNDEBENE
  6
SLD-DURCHGEHEND
 62
   250
100
AcDbCircle
 10
82.572626059
 20
163.1471057434
 30
0.0
 40
65.10588774292259
100
AcDbArc
 50
349.5148855918
 51
350.2399528607
  0
ARC
  5
1EF
330
1F
100
AcDbEntity
  8
GRUNDEBENE
  6
SLD-DURCHGEHEND
 62
   250
100
AcDbCircle
 10
82.5766588348
 20
163.1464118234
 30
0.0
 40
65.10179570117225
100
AcDbArc
 50
350.239953064
 51
350.965050716
  0
ARC
  5
1F0
330
1F
100
AcDbEntity
  8
GRUNDEBENE
  6
SLD-DURCHGEHEND
 62
   250
100
AcDbCircle
 10
82.580410047
 20
163.1458151081
 30
0.0
 40
65.09799732493785
100
AcDbArc
 50
350.965050921
 51
351.6901767786
  0
ARC
  5
1F1
330
1F
100
AcDbEntity
  8
GRUNDEBENE
  6
SLD-DURCHGEHEND
 62
   250
100
AcDbCircle
 10
82.5838755638
 20
163.1453086997
 30
0.0
 40
65.09449500341408
100
AcDbArc
 50
351.6901769853
 51
352.4153288524
  0
ARC
  5
1F2
330
1F
100
AcDbEntity
  8
GRUNDEBENE
  6
SLD-DURCHGEHEND
 62
   250
100
AcDbCircle
 10
82.5870515567
 20
163.1448855579
 30
0.0
 40
65.09129094663473
100
AcDbArc
 50
352.4153290606
 51
353.1405047243
  0
ARC
  5
1F3
330
1F
100
AcDbEntity
  8
GRUNDEBENE
  6
SLD-DURCHGEHEND
 62
   250
100
AcDbCircle
 10
82.5899345203
 20
163.1445385089
 30
0.0
 40
65.0883871694393
100
AcDbArc
 50
353.1405049339
 51
353.8657021656
  0
ARC
  5
1F4
330
1F
100
AcDbEntity
  8
GRUNDEBENE
  6
SLD-DURCHGEHEND
 62
   250
100
AcDbCircle
 10
82.5925212624
 20
163.1442602588
 30
0.0
 40
65.08578550500513
100
AcDbArc
 50
353.8657023765
 51
354.5909189337
  0
ARC
  5
1F5
330
1F
100
AcDbEntity
  8
GRUNDEBENE
  6
SLD-DURCHGEHEND
 62
   250
100
AcDbCircle
 10
82.5948089222
 20
163.1440434035
 30
0.0
 40
65.08348758991208
100
AcDbArc
 50
354.5909191457
 51
355.3161527732
  0
ARC
  5
1F6
330
1F
100
AcDbEntity
  8
GRUNDEBENE
  6
SLD-DURCHGEHEND
 62
   250
100
AcDbCircle
 10
82.5967949652
 20
163.143880442
 30
0.0
 40
65.08149487241575
100
AcDbArc
 50
355.3161529861
 51
356.0414014175
  0
ARC
  5
1F7
330
1F
100
AcDbEntity
  8
GRUNDEBENE
  6
SLD-DURCHGEHEND
 62
   250
100
AcDbCircle
 10
82.5984771923
 20
163.1437637873
 30
0.0
 40
65.07980860542843
100
AcDbArc
 50
356.0414016313
 51
356.7666625905
  0
ARC
  5
1F8
330
1F
100
AcDbEntity
  8
GRUNDEBENE
  6
SLD-DURCHGEHEND
 62
   250
100
AcDbCircle
 10
82.5998537342
 20
163.1436857792
 30
0.0
 40
65.0784298549933
100
AcDbArc
 50
356.766662805
 51
357.4919340078
  0
ARC
  5
1F9
330
1F
100
AcDbEntity
  8
GRUNDEBENE
  6
SLD-DURCHGEHEND
 62
   250
100
AcDbCircle
 10
82.6009230662
 20
163.1436386958
 30
0.0
 40
65.07735948696835
100
AcDbArc
 50
357.4919342228
 51
358.2172133783
  0
ARC
  5
1FA
330
1F
100
AcDbEntity
  8
GRUNDEBENE
  6
SLD-DURCHGEHEND
 62
   250
100
AcDbCircle
 10
82.6016840013
 20
163.1436147665
 30
0.0
 40
65.07659817579913
100
AcDbArc
 50
358.2172135938
 51
358.9424984059
  0
ARC
  5
1FB
330
1F
100
AcDbEntity
  8
GRUNDEBENE
  6
SLD-DURCHGEHEND
 62
   250
100
AcDbCircle
 10
82.6021356939
 20
163.1436061836
 30
0.0
 40
65.0761464016308
100
AcDbArc
 50
358.9424986216
 51
359.6677867904
  0
ARC
  5
1FC
330
1F
100
AcDbEntity
  8
GRUNDEBENE
  6
SLD-DURCHGEHEND
 62
   250
100
AcDbCircle
 10
82.6022776429
 20
163.1436051154
 30
0.0
 40
65.07600444888469
100
AcDbArc
 50
359.6677870063
 51
0.3930762298
  0
ARC
  5
1FD
330
1F
100
AcDbEntity
  8
GRUNDEBENE
  6
SLD-DURCHGEHEND
 62
   250
100
AcDbCircle
 10
82.6021096894
 20
163.1436037179
 30
0.0
 40
65.076172408016
100
AcDbArc
 50
0.3930764457
 51
1.1183644213
  0
ARC
  5
1FE
330
1F
100
AcDbEntity
  8
GRUNDEBENE
  6
SLD-DURCHGEHEND
 62
   250
100
AcDbCircle
 10
82.6016320226
 20
163.143594148
 30
0.0
 40
65.0766501705979
100
AcDbArc
 50
1.118364637
 51
1.8436490628
  0
ARC
  5
1FF
330
1F
100
AcDbEntity
  8
GRUNDEBENE
  6
SLD-DURCHGEHEND
 62
   250
100
AcDbCircle
 10
82.6008451716
 20
163.1435685754
 30
0.0
 40
65.07743743703472
100
AcDbArc
 50
1.8436492782
 51
2.5689278545
  0
ARC
  5
200
330
1F
100
AcDbEntity
  8
GRUNDEBENE
  6
SLD-DURCHGEHEND
 62
   250
100
AcDbCircle
 10
82.5997500093
 20
163.143519195
 30
0.0
 40
65.07853371202012
100
AcDbArc
 50
2.5689280696
 51
3.2941985007
  0
ARC
  5
201
330
1F
100
AcDbEntity
  8
GRUNDEBENE
  6
SLD-DURCHGEHEND
 62
   250
100
AcDbCircle
 10
130.8215777232
 20
117.9306157966
 30
0.0
 40
1.001253968117447
100
AcDbArc
 50
136.8434585395
 51
146.5481146795
  0
ARC
  5
202
330
1F
100
AcDbEntity
  8
GRUNDEBENE
  6
SLD-DURCHGEHEND
 62
   250
100
AcDbCircle
 10
130.8182982049
 20
117.9327896162
 30
0.0
 40
0.9973194165017699
100
AcDbArc
 50
146.5484555908
 51
156.2786496022
  0
ARC
  5
203
330
1F
100
AcDbEntity
  8
GRUNDEBENE
  6
SLD-DURCHGEHEND
 62
   250
100
AcDbCircle
 10
130.8154283109
 20
117.9340620061
 30
0.0
 40
0.9941801236433218
100
AcDbArc
 50
156.2792468039
 51
166.0299377905
  0
ARC
  5
204
330
1F
100
AcDbEntity
  8
GRUNDEBENE
  6
SLD-DURCHGEHEND
 62
   250
100
AcDbCircle
 10
130.8134989179
 20
117.9345560189
 30
0.0
 40
0.9921885362025104
100
AcDbArc
 50
166.0307241122
 51
175.7944745793
  0
ARC
  5
205
330
1F
100
AcDbEntity
  8
GRUNDEBENE
  6
SLD-DURCHGEHEND
 62
   250
100
AcDbCircle
 10
124.4511130246
 20
146.2388399812
 30
0.0
 40
28.86681401948501
100
AcDbArc
 50
280.7161072861
 51
281.8837042329
  0
ARC
  5
206
330
1F
100
AcDbEntity
  8
GRUNDEBENE
  6
SLD-DURCHGEHEND
 62
   250
100
AcDbCircle
 10
124.4537567287
 20
146.2262843676
 30
0.0
 40
28.85398309580413
100
AcDbArc
 50
281.8837012196
 51
283.0516442885
  0
ARC
  5
207
330
1F
100
AcDbEntity
  8
GRUNDEBENE
  6
SLD-DURCHGEHEND
 62
   250
100
AcDbCircle
 10
124.4569200781
 20
146.2126451225
 30
0.0
 40
28.83998181785664
100
AcDbArc
 50
283.051641328
 51
284.2199623828
  0
ARC
  5
208
330
1F
100
AcDbEntity
  8
GRUNDEBENE
  6
SLD-DURCHGEHEND
 62
   250
100
AcDbCircle
 10
124.460642291
 20
146.1979625476
 30
0.0
 40
28.82483477615907
100
AcDbArc
 50
284.2199594797
 51
285.3886897966
  0
ARC
  5
209
330
1F
100
AcDbEntity
  8
GRUNDEBENE
  6
SLD-DURCHGEHEND
 62
   250
100
AcDbCircle
 10
124.4649601653
 20
146.1822798916
 30
0.0
 40
28.80856856167073
100
AcDbArc
 50
285.3886869556
 51
286.5578571732
  0
ARC
  5
20A
330
1F
100
AcDbEntity
  8
GRUNDEBENE
  6
SLD-DURCHGEHEND
 62
   250
100
AcDbCircle
 10
124.4699079144
 20
146.1656431902
 30
0.0
 40
28.79121171710155
100
AcDbArc
 50
286.5578543989
 51
287.7274944688
  0
ARC
  5
20B
330
1F
100
AcDbEntity
  8
GRUNDEBENE
  6
SLD-DURCHGEHEND
 62
   250
100
AcDbCircle
 10
124.4755170147
 20
146.1481010893
 30
0.0
 40
28.77279467853432
100
AcDbArc
 50
287.7274917657
 51
288.897630904
  0
ARC
  5
20C
330
1F
100
AcDbEntity
  8
GRUNDEBENE
  6
SLD-DURCHGEHEND
 62
   250
100
AcDbCircle
 10
124.4818160614
 20
146.1297046679
 30
0.0
 40
28.75334972271894
100
AcDbArc
 50
288.8976282766
 51
290.0682949161
  0
ARC
  5
20D
330
1F
100
AcDbEntity
  8
GRUNDEBENE
  6
SLD-DURCHGEHEND
 62
   250
100
AcDbCircle
 10
124.488830636
 20
146.1105072491
 30
0.0
 40
28.73291090801834
100
AcDbArc
 50
290.0682923686
 51
291.2395141121
  0
ARC
  5
20E
330
1F
100
AcDbEntity
  8
GRUNDEBENE
  6
SLD-DURCHGEHEND
 62
   250
100
AcDbCircle
 10
124.4965831868
 20
146.090564199
 30
0.0
 40
28.71151400896218
100
AcDbArc
 50
291.2395116489
 51
292.4113152226
  0
ARC
  5
20F
330
1F
100
AcDbEntity
  8
GRUNDEBENE
  6
SLD-DURCHGEHEND
 62
   250
100
AcDbCircle
 10
124.5050929218
 20
146.0699327206
 30
0.0
 40
28.68919644886835
100
AcDbArc
 50
292.4113128479
 51
293.5837240573
  0
ARC
  5
210
330
1F
100
AcDbEntity
  8
GRUNDEBENE
  6
SLD-DURCHGEHEND
 62
   250
100
AcDbCircle
 10
124.5143757117
 20
146.0486716451
 30
0.0
 40
28.66599723518219
100
AcDbArc
 50
293.583721775
 51
294.7567654604
  0
ARC
  5
211
330
1F
100
AcDbEntity
  8
GRUNDEBENE
  6
SLD-DURCHGEHEND
 62
   250
100
AcDbCircle
 10
124.5244440086
 20
146.0268412111
 30
0.0
 40
28.64195688469425
100
AcDbArc
 50
294.7567632746
 51
295.9304632684
  0
ARC
  5
212
330
1F
100
AcDbEntity
  8
GRUNDEBENE
  6
SLD-DURCHGEHEND
 62
   250
100
AcDbCircle
 10
124.535306778
 20
146.0045028404
 30
0.0
 40
28.61711734839845
100
AcDbArc
 50
295.9304611829
 51
297.1048402683
  0
ARC
  5
213
330
1F
100
AcDbEntity
  8
GRUNDEBENE
  6
SLD-DURCHGEHEND
 62
   250
100
AcDbCircle
 10
124.5469694418
 20
145.9817189141
 30
0.0
 40
28.5915219381401
100
AcDbArc
 50
297.1048382867
 51
298.2799181571
  0
ARC
  5
214
330
1F
100
AcDbEntity
  8
GRUNDEBENE
  6
SLD-DURCHGEHEND
 62
   250
100
AcDbCircle
 10
124.5594338392
 20
145.9585525382
 30
0.0
 40
28.56521524371603
100
AcDbArc
 50
298.2799162831
 51
299.4557175033
  0
ARC
  5
215
330
1F
100
AcDbEntity
  8
GRUNDEBENE
  6
SLD-DURCHGEHEND
 62
   250
100
AcDbCircle
 10
124.5726981979
 20
145.9350673129
 30
0.0
 40
28.53824305396719
100
AcDbArc
 50
299.4557157404
 51
300.6322577094
  0
ARC
  5
216
330
1F
100
AcDbEntity
  8
GRUNDEBENE
  6
SLD-DURCHGEHEND
 62
   250
100
AcDbCircle
 10
124.5867571207
 20
145.9113270997
 30
0.0
 40
28.51065227596786
100
AcDbArc
 50
300.6322560608
 51
301.8095569754
  0
ARC
  5
217
330
1F
100
AcDbEntity
  8
GRUNDEBENE
  6
SLD-DURCHGEHEND
 62
   250
100
AcDbCircle
 10
124.60160159
 20
145.8873957803
 30
0.0
 40
28.48249084284968
100
AcDbArc
 50
301.8095554443
 51
302.9876322649
  0
ARC
  5
218
330
1F
100
AcDbEntity
  8
GRUNDEBENE
  6
SLD-DURCHGEHEND
 62
   250
100
AcDbCircle
 10
124.617218978
 20
145.86333703
 30
0.0
 40
28.45380763736756
100
AcDbArc
 50
302.9876308543
 51
304.1664992725
  0
ARC
  5
219
330
1F
100
AcDbEntity
  8
GRUNDEBENE
  6
SLD-DURCHGEHEND
 62
   250
100
AcDbCircle
 10
124.6335930804
 20
145.8392140779
 30
0.0
 40
28.42465239685805
100
AcDbArc
 50
304.1664979851
 51
305.3461723921
  0
ARC
  5
21A
330
1F
100
AcDbEntity
  8
GRUNDEBENE
  6
SLD-DURCHGEHEND
 62
   250
100
AcDbCircle
 10
124.6507041585
 20
145.8150894785
 30
0.0
 40
28.3950756274494
100
AcDbArc
 50
305.3461712307
 51
306.5266646888
  0
ARC
  5
21B
330
1F
100
AcDbEntity
  8
GRUNDEBENE
  6
SLD-DURCHGEHEND
 62
   250
100
AcDbCircle
 10
124.6685289968
 20
145.7910248824
 30
0.0
 40
28.36512851332921
100
AcDbArc
 50
306.5266636557
 51
307.7079878705
  0
ARC
  5
21C
330
1F
100
AcDbEntity
  8
GRUNDEBENE
  6
SLD-DURCHGEHEND
 62
   250
100
AcDbCircle
 10
124.6870409746
 20
145.7670808115
 30
0.0
 40
28.33486282562408
100
AcDbArc
 50
307.7079869681
 51
308.8901522638
  0
ARC
  5
21D
330
1F
100
AcDbEntity
  8
GRUNDEBENE
  6
SLD-DURCHGEHEND
 62
   250
100
AcDbCircle
 10
124.7062101505
 20
145.7433164402
 30
0.0
 40
28.30433083173194
100
AcDbArc
 50
308.8901514942
 51
310.0731667898
  0
ARC
  5
21E
330
1F
100
AcDbEntity
  8
GRUNDEBENE
  6
SLD-DURCHGEHEND
 62
   250
100
AcDbCircle
 10
124.7260033599
 20
145.7197893804
 30
0.0
 40
28.27358520311835
100
AcDbArc
 50
310.0731661547
 51
311.2570389435
  0
ARC
  5
21F
330
1F
100
AcDbEntity
  8
GRUNDEBENE
  6
SLD-DURCHGEHEND
 62
   250
100
AcDbCircle
 10
124.7463843251
 20
145.6965554752
 30
0.0
 40
28.24267892393903
100
AcDbArc
 50
311.2570384447
 51
312.441774775
  0
ARC
  5
220
330
1F
100
AcDbEntity
  8
GRUNDEBENE
  6
SLD-DURCHGEHEND
 62
   250
100
AcDbCircle
 10
124.7673137797
 20
145.6736685959
 30
0.0
 40
28.21166519615042
100
AcDbArc
 50
312.4417744139
 51
313.6273788725
  0
ARC
  5
221
330
1F
100
AcDbEntity
  8
GRUNDEBENE
  6
SLD-DURCHGEHEND
 62
   250
100
AcDbCircle
 10
124.7887496014
 20
145.6511804515
 30
0.0
 40
28.18059734955063
100
AcDbArc
 50
313.6273786504
 51
314.8138543483
  0
ARC
  5
222
330
1F
100
AcDbEntity
  8
GRUNDEBENE
  6
SLD-DURCHGEHEND
 62
   250
100
AcDbCircle
 10
124.8106469607
 20
145.6291404026
 30
0.0
 40
28.14952874639329
100
AcDbArc
 50
314.8138542661
 51
316.0012028271
  0
ARC
  5
223
330
1F
100
AcDbEntity
  8
GRUNDEBENE
  6
SLD-DURCHGEHEND
 62
   250
100
AcDbCircle
 10
124.8329584738
 20
145.6075952901
 30
0.0
 40
28.11851269436519
100
AcDbArc
 50
316.0012028857
 51
317.1894244363
  0
ARC
  5
224
330
1F
100
AcDbEntity
  8
GRUNDEBENE
  6
SLD-DURCHGEHEND
 62
   250
100
AcDbCircle
 10
124.8556343722
 20
145.5865892687
 30
0.0
 40
28.08760235129857
100
AcDbArc
 50
317.1894246361
 51
318.3785177993
  0
ARC
  5
225
330
1F
100
AcDbEntity
  8
GRUNDEBENE
  6
SLD-DURCHGEHEND
 62
   250
100
AcDbCircle
 10
124.8786226804
 20
145.5661636516
 30
0.0
 40
28.05685063351373
100
AcDbArc
 50
318.3785181406
 51
319.5684800313
  0
ARC
  5
226
330
1F
100
AcDbEntity
  8
GRUNDEBENE
  6
SLD-DURCHGEHEND
 62
   250
100
AcDbCircle
 10
124.901869398
 20
145.546356772
 30
0.0
 40
28.02631012993452
100
AcDbArc
 50
319.568480514
 51
320.7593067376
  0
ARC
  5
227
330
1F
100
AcDbEntity
  8
GRUNDEBENE
  6
SLD-DURCHGEHEND
 62
   250
100
AcDbCircle
 10
124.9253186954
 20
145.5272038494
 30
0.0
 40
27.99603300997025
100
AcDbArc
 50
320.7593073616
 51
321.9509920149
  0
ARC
  5
228
330
1F
100
AcDbEntity
  8
GRUNDEBENE
  6
SLD-DURCHGEHEND
 62
   250
100
AcDbCircle
 10
124.9489131144
 20
145.5087368728
 30
0.0
 40
27.96607093676982
100
AcDbArc
 50
321.9509927797
 51
323.143528455
  0
ARC
  5
229
330
1F
100
AcDbEntity
  8
GRUNDEBENE
  6
SLD-DURCHGEHEND
 62
   250
100
AcDbCircle
 10
124.9725937752
 20
145.4909844947
 30
0.0
 40
27.93647498053514
100
AcDbArc
 50
323.1435293599
 51
324.3369071514
  0
ARC
  5
22A
330
1F
100
AcDbEntity
  8
GRUNDEBENE
  6
SLD-DURCHGEHEND
 62
   250
100
AcDbCircle
 10
124.9963005916
 20
145.4739719383
 30
0.0
 40
27.90729553197077
100
AcDbArc
 50
324.3369081953
 51
325.5311177088
  0
ARC
  5
22B
330
1F
100
AcDbEntity
  8
GRUNDEBENE
  6
SLD-DURCHGEHEND
 62
   250
100
AcDbCircle
 10
125.0199724872
 20
145.4577209198
 30
0.0
 40
27.87858222072574
100
AcDbArc
 50
325.5311188904
 51
326.7261482553
  0
ARC
  5
22C
330
1F
100
AcDbEntity
  8
GRUNDEBENE
  6
SLD-DURCHGEHEND
 62
   250
100
AcDbCircle
 10
125.0435476196
 20
145.442249583
 30
0.0
 40
27.85038383196485
100
AcDbArc
 50
326.7261495732
 51
327.9219854578
  0
ARC
  5
22D
330
1F
100
AcDbEntity
  8
GRUNDEBENE
  6
SLD-DURCHGEHEND
 62
   250
100
AcDbCircle
 10
125.066963607
 20
145.4275724474
 30
0.0
 40
27.82274822491483
100
AcDbArc
 50
327.92198691
 51
329.1186145396
  0
ARC
  5
22E
330
1F
100
AcDbEntity
  8
GRUNDEBENE
  6
SLD-DURCHGEHEND
 62
   250
100
AcDbCircle
 10
125.0901577553
 20
145.4137003729
 30
0.0
 40
27.79572225661227
100
AcDbArc
 50
329.118616124
 51
330.3160193013
  0
ARC
  5
22F
330
1F
100
AcDbEntity
  8
GRUNDEBENE
  6
SLD-DURCHGEHEND
 62
   250
100
AcDbCircle
 10
125.113067288
 20
145.4006405376
 30
0.0
 40
27.76935170511688
100
AcDbArc
 50
330.3160210157
 51
331.5141821451
  0
ARC
  5
230
330
1F
100
AcDbEntity
  8
GRUNDEBENE
  6
SLD-DURCHGEHEND
 62
   250
100
AcDbCircle
 10
125.1356295789
 20
145.3883964287
 30
0.0
 40
27.74368119333606
100
AcDbArc
 50
331.5141839867
 51
332.7130841006
  0
ARC
  5
231
330
1F
100
AcDbEntity
  8
GRUNDEBENE
  6
SLD-DURCHGEHEND
 62
   250
100
AcDbCircle
 10
125.1577823824
 20
145.3769678497
 30
0.0
 40
27.71875411730192
100
AcDbArc
 50
332.7130860666
 51
333.9127048548
  0
ARC
  5
232
330
1F
100
AcDbEntity
  8
GRUNDEBENE
  6
SLD-DURCHGEHEND
 62
   250
100
AcDbCircle
 10
125.179464061
 20
145.3663509425
 30
0.0
 40
27.6946125783728
100
AcDbArc
 50
333.9127069421
 51
335.1130227843
  0
ARC
  5
233
330
1F
100
AcDbEntity
  8
GRUNDEBENE
  6
SLD-DURCHGEHEND
 62
   250
100
AcDbCircle
 10
125.2006138156
 20
145.3565382216
 30
0.0
 40
27.67129731268646
100
AcDbArc
 50
335.1130249895
 51
336.3140149902
  0
ARC
  5
234
330
1F
100
AcDbEntity
  8
GRUNDEBENE
  6
SLD-DURCHGEHEND
 62
   250
100
AcDbCircle
 10
125.2211719102
 20
145.3475186238
 30
0.0
 40
27.64884762684946
100
AcDbArc
 50
336.3140173095
 51
337.5156573358
  0
ARC
  5
235
330
1F
100
AcDbEntity
  8
GRUNDEBENE
  6
SLD-DURCHGEHEND
 62
   250
100
AcDbCircle
 10
125.2410798895
 20
145.3392775739
 30
0.0
 40
27.62730133851628
100
AcDbArc
 50
337.5156597653
 51
338.7179244874
  0
ARC
  5
236
330
1F
100
AcDbEntity
  8
GRUNDEBENE
  6
SLD-DURCHGEHEND
 62
   250
100
AcDbCircle
 10
125.2602808018
 20
145.331797059
 30
0.0
 40
27.60669471001731
100
AcDbArc
 50
338.717927023
 51
339.9207899572
  0
ARC
  5
237
330
1F
100
AcDbEntity
  8
GRUNDEBENE
  6
SLD-DURCHGEHEND
 62
   250
100
AcDbCircle
 10
125.2787194043
 20
145.3250557222
 30
0.0
 40
27.5870623978972
100
AcDbArc
 50
339.9207925945
 51
341.1242261491
  0
ARC
  5
238
330
1F
100
AcDbEntity
  8
GRUNDEBENE
  6
SLD-DURCHGEHEND
 62
   250
100
AcDbCircle
 10
125.2963423721
 20
145.319028965
 30
0.0
 40
27.56843739332117
100
AcDbArc
 50
341.1242288834
 51
342.3282044065
  0
ARC
  5
239
330
1F
100
AcDbEntity
  8
GRUNDEBENE
  6
SLD-DURCHGEHEND
 62
   250
100
AcDbCircle
 10
125.3130984954
 20
145.3136890645
 30
0.0
 40
27.55085097228353
100
AcDbArc
 50
342.328207233
 51
343.5326950635
  0
ARC
  5
23A
330
1F
100
AcDbEntity
  8
GRUNDEBENE
  6
SLD-DURCHGEHEND
 62
   250
100
AcDbCircle
 10
125.3289388684
 20
145.3090053027
 30
0.0
 40
27.53433264797407
100
AcDbArc
 50
343.5326979771
 51
344.7376674969
  0
ARC
  5
23B
330
1F
100
AcDbEntity
  8
GRUNDEBENE
  6
SLD-DURCHGEHEND
 62
   250
100
AcDbCircle
 10
125.3438170752
 20
145.304944106
 30
0.0
 40
27.51891012049484
100
AcDbArc
 50
344.7376704925
 51
345.9430901822
  0
ARC
  5
23C
330
1F
100
AcDbEntity
  8
GRUNDEBENE
  6
SLD-DURCHGEHEND
 62
   250
100
AcDbCircle
 10
125.3576893571
 20
145.3014691984
 30
0.0
 40
27.50460923983498
100
AcDbArc
 50
345.9430932541
 51
347.1489307498
  0
ARC
  5
23D
330
1F
100
AcDbEntity
  8
GRUNDEBENE
  6
SLD-DURCHGEHEND
 62
   250
100
AcDbCircle
 10
125.3705147812
 20
145.2985417627
 30
0.0
 40
27.49145396026071
100
AcDbArc
 50
347.1489338925
 51
348.3551560447
  0
ARC
  5
23E
330
1F
100
AcDbEntity
  8
GRUNDEBENE
  6
SLD-DURCHGEHEND
 62
   250
100
AcDbCircle
 10
125.3822553896
 20
145.2961206133
 30
0.0
 40
27.47946630629603
100
AcDbArc
 50
348.3551592525
 51
349.5617321875
  0
ARC
  5
23F
330
1F
100
AcDbEntity
  8
GRUNDEBENE
  6
SLD-DURCHGEHEND
 62
   250
100
AcDbCircle
 10
125.3928763415
 20
145.2941623778
 30
0.0
 40
27.46866633856891
100
AcDbArc
 50
349.5617354543
 51
350.7686246365
  0
ARC
  5
240
330
1F
100
AcDbEntity
  8
GRUNDEBENE
  6
SLD-DURCHGEHEND
 62
   250
100
AcDbCircle
 10
125.4023460445
 20
145.2926216865
 30
0.0
 40
27.45907212150147
100
AcDbArc
 50
350.7686279563
 51
351.9757982524
  0
ARC
  5
241
330
1F
100
AcDbEntity
  8
GRUNDEBENE
  6
SLD-DURCHGEHEND
 62
   250
100
AcDbCircle
 10
125.4106362712
 20
145.2914513711
 30
0.0
 40
27.45069969683672
100
AcDbArc
 50
351.9758016189
 51
353.1832173639
  0
ARC
  5
242
330
1F
100
AcDbEntity
  8
GRUNDEBENE
  6
SLD-DURCHGEHEND
 62
   250
100
AcDbCircle
 10
125.4177222651
 20
145.2906026688
 30
0.0
 40
27.4435630588119
100
AcDbArc
 50
353.1832207709
 51
354.3908458344
  0
ARC
  5
243
330
1F
100
AcDbEntity
  8
GRUNDEBENE
  6
SLD-DURCHGEHEND
 62
   250
100
AcDbCircle
 10
125.4235828334
 20
145.290025434
 30
0.0
 40
27.43767413201377
100
AcDbArc
 50
354.3908492754
 51
355.5986471303
  0
ARC
  5
244
330
1F
100
AcDbEntity
  8
GRUNDEBENE
  6
SLD-DURCHGEHEND
 62
   250
100
AcDbCircle
 10
125.4282004253
 20
145.2896683543
 30
0.0
 40
27.43304275450073
100
AcDbArc
 50
355.5986505988
 51
356.8065843898
  0
INSERT
  5
245
330
1F
100
AcDbEntity
  8
0
  6
CONTINUOUS
 62
     7
100
AcDbBlockReference
  2
_LOGO-0
 10
159.39995212
 20
9.249997165
 30
0.0
  0
MTEXT
  5
247
330
1F
100
AcDbEntity
  8
SCHRIFTFELD
 62
   250
100
AcDbMText
 10
189.2695853339
 20
42.2663161982
 30
0.0
 40
2.5
 41
0.0
 71
     1
 72
     1
  1
Name
  7
SLDTEXTSTYLE2
  0
MTEXT
  5
249
330
1F
100
AcDbEntity
  8
SCHRIFTFELD
 62
   250
100
AcDbMText
 10
171.9435757311
 20
42.2663161982
 30
0.0
 40
2.5
 41
0.0
 71
     1
 72
     1
  1
Datum
  7
SLDTEXTSTYLE3
  0
MTEXT
  5
24B
330
1F
100
AcDbEntity
  8
SCHRIFTFELD
 62
   250
100
AcDbMText
 10
160.0889375818
 20
38.1627876081
 30
0.0
 40
2.5
 41
0.0
 71
     1
 72
     1
  1
Bearb.
  7
SLDTEXTSTYLE4
  0
MTEXT
  5
24C
330
1F
100
AcDbEntity
  8
SCHRIFTFELD
 62
   250
100
AcDbMText
 10
160.0889375818
 20
33.9072764776
 30
0.0
 40
2.5
 41
0.0
 71
     1
 72
     1
  1
Gepr.
  7
SLDTEXTSTYLE4
  0
MTEXT
  5
24E
330
1F
100
AcDbEntity
  8
SCHRIFTFELD
 62
   250
100
AcDbMText
 10
160.0889375818
 20
29.6517653471
 30
0.0
 40
2.5
 41
0.0
 71
     1
 72
     1
  1
Norm
  7
SLDTEXTSTYLE5
  0
MTEXT
  5
250
330
1F
100
AcDbEntity
  8
SCHRIFTFELD
 62
   250
100
AcDbMText
 10
160.0625403754
 20
7.795873671
 30
0.0
 40
1.8
 41
0.0
 71
     1
 72
     1
  1
Urspr.:
  7
SLDTEXTSTYLE6
  0
MTEXT
  5
252
330
1F
100
AcDbEntity
  8
SCHRIFTFELD
 62
   250
100
AcDbMText
 10
204.1374770842
 20
7.795873671
 30
0.0
 40
1.8
 41
0.0
 71
     1
 72
     1
  1
Ers. für:
  7
SLDTEXTSTYLE7
  0
MTEXT
  5
254
330
1F
100
AcDbEntity
  8
SCHRIFTFELD
 62
   250
100
AcDbMText
 10
248.5163788739
 20
7.795873671
 30
0.0
 40
1.8
 41
0.0
 71
     1
 72
     1
  1
Ers. durch:
  7
SLDTEXTSTYLE8
  0
MTEXT
  5
255
330
1F
100
AcDbEntity
  8
SCHRIFTFELD
 62
   250
100
AcDbMText
 10
279.9271706678
 20
20.8985100743
 30
0.0
 40
1.8
 41
0.0
 71
     1
 72
     1
  1
Blatt
  7
SLDTEXTSTYLE4
  0
MTEXT
  5
257
330
1F
100
AcDbEntity
  8
SCHRIFTFELD
 62
   250
100
AcDbMText
 10
284.2374867241
 20
12.0835227325
 30
0.0
 40
1.8
 41
0.0
 71
     1
 72
     1
  1
Blätter
  7
SLDTEXTSTYLE9
  0
MTEXT
  5
259
330
1F
100
AcDbEntity
  8
SCHRIFTFELD
 62
   250
100
AcDbMText
 10
256.8349287671
 20
58.4891859068
 30
0.0
 40
2.5
 41
0.0
 71
     1
 72
     1
  1
Gewicht
  7
SLDTEXTSTYLE10
  0
MTEXT
  5
25A
330
1F
100
AcDbEntity
  8
SCHRIFTFELD
 62
   250
100
AcDbMText
 10
204.9811513221
 20
58.4891859068
 30
0.0
 40
2.5
 41
0.0
 71
     1
 72
     1
  1
Maßstab 1:1
  7
SLDTEXTSTYLE4
  0
MTEXT
  5
25C
330
1F
100
AcDbEntity
  8
SCHRIFTFELD
 62
   250
100
AcDbMText
 10
204.9811513221
 20
52.1141859068
 30
0.0
 40
2.5
 41
0.0
 71
     1
 72
     1
  1
Werkstoff
  7
SLDTEXTSTYLE11
  0
MTEXT
  5
25D
330
1F
100
AcDbEntity
  8
SCHRIFTFELD
 62
   250
100
AcDbMText
 10
170.675
 20
37.6198021591
 30
0.0
 40
2.0
 41
0.0
 71
     1
 72
     1
  1
05.03.2014
  7
SLDTEXTSTYLE4
  0
MTEXT
  5
25E
330
1F
100
AcDbEntity
  8
SCHRIFTFELD
 62
   250
100
AcDbMText
 10
186.275
 20
37.6198021591
 30
0.0
 40
2.0
 41
0.0
 71
     1
 72
     1
  1
CH
  7
SLDTEXTSTYLE4
  0
MTEXT
  5
25F
330
1F
100
AcDbEntity
  8
SCHRIFTFELD
 62
   250
100
AcDbMText
 10
271.0049287671
 20
58.4891859068
 30
0.0
 40
2.5
 41
0.0
 71
     1
 72
     1
  1
0,110kg
  7
SLDTEXTSTYLE4
  0
MTEXT
  5
260
330
1F
100
AcDbEntity
  8
SCHRIFTFELD
 62
   250
100
AcDbMText
 10
279.8624867241
 20
12.7817033654
 30
0.0
 40
2.5
 41
0.0
 71
     1
 72
     1
  1
1
  7
SLDTEXTSTYLE4
  0
MTEXT
  5
261
330
1F
100
AcDbEntity
  8
SCHRIFTFELD
 62
   250
100
AcDbMText
 10
285.1124867241
 20
18.0317033654
 30
0.0
 40
2.5
 41
0.0
 71
     1
 72
     1
  1
1
  7
SLDTEXTSTYLE4
  0
MTEXT
  5
262
330
1F
100
AcDbEntity
  8
SCHRIFTFELD
 62
   250
100
AcDbMText
 10
220.3861513221
 20
49.2352876453
 30
0.0
 40
4.0
 41
0.0
 71
     1
 72
     1
  1
Stahl
  7
SLDTEXTSTYLE4
  0
MTEXT
  5
263
330
1F
100
AcDbEntity
  8
SCHRIFTFELD
 62
   250
100
AcDbMText
 10
235.55390625
 20
35.1120051594
 30
0.0
 40
5.0
 41
0.0
 71
     1
 72
     1
  1
126-B-6
  7
SLDTEXTSTYLE4
  0
ENDSEC
  0
SECTION
  2
OBJECTS
  0
DICTIONARY
  5
C
330
0
100
AcDbDictionary
  3
ACAD_GROUP
350
D
  3
ACAD_MLINESTYLE
350
17
  3
ACAD_SCALELIST
350
47
1001
ACAD
1000
TREAT_AS_HARD
1070
     0
  0
DICTIONARY
  5
D
102
{ACAD_REACTORS
330
C
102
}
330
C
100
AcDbDictionary
1001
ACAD
1000
TREAT_AS_HARD
1070
     0
  0
DICTIONARY
  5
17
102
{ACAD_REACTORS
330
C
102
}
330
C
100
AcDbDictionary
  3
STANDARD
350
18
1001
ACAD
1000
TREAT_AS_HARD
1070
     0
  0
DICTIONARY
  5
47
102
{ACAD_REACTORS
330
C
102
}
330
C
100
AcDbDictionary
1001
ACAD
1000
TREAT_AS_HARD
1070
     0
  0
MLINESTYLE
  5
18
102
{ACAD_REACTORS
330
17
102
}
330
17
100
AcDbMlineStyle
  2
Standard
 70
     0
  3

 62
   256
 51
90.0
 52
90.0
 71
     2
 49
0.5
 62
   256
  6
BYLAYER
 49
-0.5
 62
   256
  6
BYLAYER
  0
ENDSEC
  0
EOF
