ISO-10303-21;
HEADER;
FILE_DESCRIPTION (( 'STEP AP203' ),
    '1' );
FILE_NAME ('3572.step',
    '2015-09-17T14:57:02',
    ( '' ),
    ( '' ),
    'SwSTEP 2.0',
    'SolidWorks 2015',
    '' );
FILE_SCHEMA (( 'CONFIG_CONTROL_DESIGN' ));
ENDSEC;

DATA;
#1 = MANIFOLD_SOLID_BREP ( 'Rotation1', #72 ) ;
#2 = CC_DESIGN_PERSON_AND_ORGANIZATION_ASSIGNMENT ( #106, #91, ( #55 ) ) ;
#3 = AXIS2_PLACEMENT_3D ( 'NONE', #69, #97, #93 ) ;
#4 = APPROVAL_DATE_TIME ( #44, #12 ) ;
#5 = ORIENTED_EDGE ( 'NONE', *, *, #25, .F. ) ;
#6 = ADVANCED_BREP_SHAPE_REPRESENTATION ( '3572', ( #1, #54 ), #18 ) ;
#7 = PRODUCT_DEFINITION_FORMATION_WITH_SPECIFIED_SOURCE ( 'ANY', '', #55, .NOT_KNOWN. ) ;
#8 = COORDINATED_UNIVERSAL_TIME_OFFSET ( 1, 0, .AHEAD. ) ;
#9 = CC_DESIGN_PERSON_AND_ORGANIZATION_ASSIGNMENT ( #39, #111, ( #7 ) ) ;
#10 = PRODUCT_DEFINITION ( 'UNKNOWN', '', #7, #83 ) ;
#11 = AXIS2_PLACEMENT_3D ( 'NONE', #79, #62, #96 ) ;
#12 = APPROVAL ( #36, 'UNSPECIFIED' ) ;
#13 = CC_DESIGN_DATE_AND_TIME_ASSIGNMENT ( #98, #52, ( #10 ) ) ;
#14 = CC_DESIGN_APPROVAL ( #19, ( #7 ) ) ;
#15 = APPROVAL ( #101, 'UNSPECIFIED' ) ;
#16 = AXIS2_PLACEMENT_3D ( 'NONE', #124, #92, #105 ) ;
#17 = EDGE_CURVE ( 'NONE', #34, #114, #26, .T. ) ;
#18 =( GEOMETRIC_REPRESENTATION_CONTEXT ( 3 ) GLOBAL_UNCERTAINTY_ASSIGNED_CONTEXT ( ( #23 ) ) GLOBAL_UNIT_ASSIGNED_CONTEXT ( ( #27, #77, #80 ) ) REPRESENTATION_CONTEXT ( 'NONE', 'WORKASPACE' ) );
#19 = APPROVAL ( #116, 'UNSPECIFIED' ) ;
#20 = CC_DESIGN_DATE_AND_TIME_ASSIGNMENT ( #47, #102, ( #37 ) ) ;
#21 = CC_DESIGN_APPROVAL ( #12, ( #10 ) ) ;
#22 = PERSON_AND_ORGANIZATION ( #104, #107 ) ;
#23 = UNCERTAINTY_MEASURE_WITH_UNIT (LENGTH_MEASURE( 1.000000000000000100E-005 ), #27, 'distance_accuracy_value', 'NONE');
#24 = CALENDAR_DATE ( 2015, 17, 9 ) ;
#25 = EDGE_CURVE ( 'NONE', #34, #114, #78, .T. ) ;
#26 = CIRCLE ( 'NONE', #61, 12.50000000000000000 ) ;
#27 =( LENGTH_UNIT ( ) NAMED_UNIT ( * ) SI_UNIT ( .MILLI., .METRE. ) );
#28 = APPROVAL_DATE_TIME ( #29, #15 ) ;
#29 = DATE_AND_TIME ( #30, #31 ) ;
#30 = CALENDAR_DATE ( 2015, 17, 9 ) ;
#31 = LOCAL_TIME ( 16, 57, 2.000000000000000000, #32 ) ;
#32 = COORDINATED_UNIVERSAL_TIME_OFFSET ( 1, 0, .AHEAD. ) ;
#33 = COORDINATED_UNIVERSAL_TIME_OFFSET ( 1, 0, .AHEAD. ) ;
#34 = VERTEX_POINT ( 'NONE', #82 ) ;
#35 = LOCAL_TIME ( 16, 57, 2.000000000000000000, #33 ) ;
#36 = APPROVAL_STATUS ( 'not_yet_approved' ) ;
#37 = SECURITY_CLASSIFICATION ( '', '', #109 ) ;
#38 = CALENDAR_DATE ( 2015, 17, 9 ) ;
#39 = PERSON_AND_ORGANIZATION ( #104, #107 ) ;
#40 = PERSON_AND_ORGANIZATION ( #104, #107 ) ;
#41 = PERSON_AND_ORGANIZATION ( #104, #107 ) ;
#42 = PERSON_AND_ORGANIZATION ( #104, #107 ) ;
#43 = APPROVAL_DATE_TIME ( #53, #19 ) ;
#44 = DATE_AND_TIME ( #24, #122 ) ;
#45 = APPROVAL_PERSON_ORGANIZATION ( #46, #15, #99 ) ;
#46 = PERSON_AND_ORGANIZATION ( #104, #107 ) ;
#47 = DATE_AND_TIME ( #38, #35 ) ;
#48 = CC_DESIGN_PERSON_AND_ORGANIZATION_ASSIGNMENT ( #42, #103, ( #37 ) ) ;
#49 = SPHERICAL_SURFACE ( 'NONE', #3, 12.50000000000000000 ) ;
#50 = COORDINATED_UNIVERSAL_TIME_OFFSET ( 1, 0, .AHEAD. ) ;
#51 = LOCAL_TIME ( 16, 57, 2.000000000000000000, #50 ) ;
#52 = DATE_TIME_ROLE ( 'creation_date' ) ;
#53 = DATE_AND_TIME ( #84, #51 ) ;
#54 = AXIS2_PLACEMENT_3D ( 'NONE', #88, #73, #71 ) ;
#55 = PRODUCT ( '3572', '3572', '', ( #64 ) ) ;
#56 = DIRECTION ( 'NONE',  ( -1.224646799147353200E-016, 0.0000000000000000000, -1.000000000000000000 ) ) ;
#57 = SPHERICAL_SURFACE ( 'NONE', #11, 12.50000000000000000 ) ;
#58 = APPLICATION_CONTEXT ( 'configuration controlled 3d designs of mechanical parts and assemblies' ) ;
#59 = ORIENTED_EDGE ( 'NONE', *, *, #17, .F. ) ;
#60 = APPROVAL_PERSON_ORGANIZATION ( #125, #12, #68 ) ;
#61 = AXIS2_PLACEMENT_3D ( 'NONE', #86, #56, #70 ) ;
#62 = DIRECTION ( 'NONE',  ( -0.0000000000000000000, -0.0000000000000000000, -1.000000000000000000 ) ) ;
#63 = SHAPE_DEFINITION_REPRESENTATION ( #115, #6 ) ;
#64 = MECHANICAL_CONTEXT ( 'NONE', #74, 'mechanical' ) ;
#65 = ADVANCED_FACE ( 'NONE', ( #67 ), #57, .T. ) ;
#66 = ADVANCED_FACE ( 'NONE', ( #90 ), #49, .T. ) ;
#67 = FACE_OUTER_BOUND ( 'NONE', #89, .T. ) ;
#68 = APPROVAL_ROLE ( '' ) ;
#69 = CARTESIAN_POINT ( 'NONE',  ( 0.0000000000000000000, 0.0000000000000000000, 0.0000000000000000000 ) ) ;
#70 = DIRECTION ( 'NONE',  ( -1.000000000000000000, 0.0000000000000000000, 1.224646799147353200E-016 ) ) ;
#71 = DIRECTION ( 'NONE',  ( 1.000000000000000000, 0.0000000000000000000, 0.0000000000000000000 ) ) ;
#72 = CLOSED_SHELL ( 'NONE', ( #65, #66 ) ) ;
#73 = DIRECTION ( 'NONE',  ( 0.0000000000000000000, 0.0000000000000000000, 1.000000000000000000 ) ) ;
#74 = APPLICATION_CONTEXT ( 'configuration controlled 3d designs of mechanical parts and assemblies' ) ;
#75 = CC_DESIGN_SECURITY_CLASSIFICATION ( #37, ( #7 ) ) ;
#76 = ORIENTED_EDGE ( 'NONE', *, *, #17, .T. ) ;
#77 =( NAMED_UNIT ( * ) PLANE_ANGLE_UNIT ( ) SI_UNIT ( $, .RADIAN. ) );
#78 = CIRCLE ( 'NONE', #16, 12.50000000000000000 ) ;
#79 = CARTESIAN_POINT ( 'NONE',  ( 0.0000000000000000000, 0.0000000000000000000, 0.0000000000000000000 ) ) ;
#80 =( NAMED_UNIT ( * ) SI_UNIT ( $, .STERADIAN. ) SOLID_ANGLE_UNIT ( ) );
#81 = EDGE_LOOP ( 'NONE', ( #59, #108 ) ) ;
#82 = CARTESIAN_POINT ( 'NONE',  ( -7.654042494670957600E-016, 12.50000000000000000, 0.0000000000000000000 ) ) ;
#83 = DESIGN_CONTEXT ( 'detailed design', #58, 'design' ) ;
#84 = CALENDAR_DATE ( 2015, 17, 9 ) ;
#85 = APPLICATION_PROTOCOL_DEFINITION ( 'international standard', 'config_control_design', 1994, #74 ) ;
#86 = CARTESIAN_POINT ( 'NONE',  ( 0.0000000000000000000, 0.0000000000000000000, 0.0000000000000000000 ) ) ;
#87 = CC_DESIGN_APPROVAL ( #15, ( #37 ) ) ;
#88 = CARTESIAN_POINT ( 'NONE',  ( 0.0000000000000000000, 0.0000000000000000000, 0.0000000000000000000 ) ) ;
#89 = EDGE_LOOP ( 'NONE', ( #5, #76 ) ) ;
#90 = FACE_OUTER_BOUND ( 'NONE', #81, .T. ) ;
#91 = PERSON_AND_ORGANIZATION_ROLE ( 'design_owner' ) ;
#92 = DIRECTION ( 'NONE',  ( -0.0000000000000000000, 0.0000000000000000000, 1.000000000000000000 ) ) ;
#93 = DIRECTION ( 'NONE',  ( -1.000000000000000000, 0.0000000000000000000, 0.0000000000000000000 ) ) ;
#94 = CARTESIAN_POINT ( 'NONE',  ( -7.654042494670957600E-016, -12.50000000000000000, 0.0000000000000000000 ) ) ;
#95 = PRODUCT_RELATED_PRODUCT_CATEGORY ( 'detail', '', ( #55 ) ) ;
#96 = DIRECTION ( 'NONE',  ( -1.000000000000000000, 0.0000000000000000000, 0.0000000000000000000 ) ) ;
#97 = DIRECTION ( 'NONE',  ( -0.0000000000000000000, -0.0000000000000000000, -1.000000000000000000 ) ) ;
#98 = DATE_AND_TIME ( #118, #120 ) ;
#99 = APPROVAL_ROLE ( '' ) ;
#100 = COORDINATED_UNIVERSAL_TIME_OFFSET ( 1, 0, .AHEAD. ) ;
#101 = APPROVAL_STATUS ( 'not_yet_approved' ) ;
#102 = DATE_TIME_ROLE ( 'classification_date' ) ;
#103 = PERSON_AND_ORGANIZATION_ROLE ( 'classification_officer' ) ;
#104 = PERSON ( 'UNSPECIFIED', 'UNSPECIFIED', 'UNSPECIFIED', ('UNSPECIFIED'), ('UNSPECIFIED'), ('UNSPECIFIED') ) ;
#105 = DIRECTION ( 'NONE',  ( 1.000000000000000000, 0.0000000000000000000, 0.0000000000000000000 ) ) ;
#106 = PERSON_AND_ORGANIZATION ( #104, #107 ) ;
#107 = ORGANIZATION ( 'UNSPECIFIED', 'UNSPECIFIED', '' ) ;
#108 = ORIENTED_EDGE ( 'NONE', *, *, #25, .T. ) ;
#109 = SECURITY_CLASSIFICATION_LEVEL ( 'unclassified' ) ;
#110 = PERSON_AND_ORGANIZATION_ROLE ( 'design_supplier' ) ;
#111 = PERSON_AND_ORGANIZATION_ROLE ( 'creator' ) ;
#112 = APPROVAL_ROLE ( '' ) ;
#113 = CC_DESIGN_PERSON_AND_ORGANIZATION_ASSIGNMENT ( #41, #119, ( #10 ) ) ;
#114 = VERTEX_POINT ( 'NONE', #94 ) ;
#115 = PRODUCT_DEFINITION_SHAPE ( 'NONE', 'NONE',  #10 ) ;
#116 = APPROVAL_STATUS ( 'not_yet_approved' ) ;
#117 = APPLICATION_PROTOCOL_DEFINITION ( 'international standard', 'config_control_design', 1994, #58 ) ;
#118 = CALENDAR_DATE ( 2015, 17, 9 ) ;
#119 = PERSON_AND_ORGANIZATION_ROLE ( 'creator' ) ;
#120 = LOCAL_TIME ( 16, 57, 2.000000000000000000, #8 ) ;
#121 = CC_DESIGN_PERSON_AND_ORGANIZATION_ASSIGNMENT ( #40, #110, ( #7 ) ) ;
#122 = LOCAL_TIME ( 16, 57, 2.000000000000000000, #100 ) ;
#123 = APPROVAL_PERSON_ORGANIZATION ( #22, #19, #112 ) ;
#124 = CARTESIAN_POINT ( 'NONE',  ( 0.0000000000000000000, 0.0000000000000000000, 0.0000000000000000000 ) ) ;
#125 = PERSON_AND_ORGANIZATION ( #104, #107 ) ;
ENDSEC;
END-ISO-10303-21;
