ISO-10303-21;
HEADER;
FILE_DESCRIPTION (( 'STEP AP203' ),
    '1' );
FILE_NAME ('3559.STEP',
    '2021-09-29T12:59:47',
    ( '' ),
    ( '' ),
    'SwSTEP 2.0',
    'SolidWorks 2018',
    '' );
FILE_SCHEMA (( 'CONFIG_CONTROL_DESIGN' ));
ENDSEC;

DATA;
#1 = FACE_OUTER_BOUND ( 'NONE', #202, .T. ) ;
#2 = AXIS2_PLACEMENT_3D ( 'NONE', #18, #148, #239 ) ;
#3 = PERSON_AND_ORGANIZATION ( #53, #209 ) ;
#4 = ORIENTED_EDGE ( 'NONE', *, *, #188, .T. ) ;
#5 = PRODUCT_DEFINITION ( 'UNKNOWN', '', #31, #121 ) ;
#6 = UNCERTAINTY_MEASURE_WITH_UNIT (LENGTH_MEASURE( 1.000000000000000082E-05 ), #187, 'distance_accuracy_value', 'NONE');
#7 = DATE_AND_TIME ( #143, #13 ) ;
#8 = ORIENTED_EDGE ( 'NONE', *, *, #161, .F. ) ;
#9 = CC_DESIGN_PERSON_AND_ORGANIZATION_ASSIGNMENT ( #215, #99, ( #31 ) ) ;
#10 = AXIS2_PLACEMENT_3D ( 'NONE', #256, #36, #91 ) ;
#11 =( BOUNDED_CURVE ( )  B_SPLINE_CURVE ( 3, ( #217, #90, #147, #189 ),
 .UNSPECIFIED., .F., .T. ) 
 B_SPLINE_CURVE_WITH_KNOTS ( ( 4, 4 ),
 ( 4.712388980384689674, 7.853981633974482790 ),
 .UNSPECIFIED. ) 
 CURVE ( )  GEOMETRIC_REPRESENTATION_ITEM ( )  RATIONAL_B_SPLINE_CURVE ( ( 1.000000000000000000, 0.3333333333333333703, 0.3333333333333333703, 1.000000000000000000 ) ) 
 REPRESENTATION_ITEM ( '' )  );
#12 = CC_DESIGN_PERSON_AND_ORGANIZATION_ASSIGNMENT ( #207, #94, ( #5 ) ) ;
#13 = LOCAL_TIME ( 14, 59, 47.00000000000000000, #100 ) ;
#14 = CARTESIAN_POINT ( 'NONE',  ( 17.32050807568866091, 15.00000000000001243, 30.00000000000000355 ) ) ;
#15 =( BOUNDED_CURVE ( )  B_SPLINE_CURVE ( 3, ( #129, #192, #262, #151 ),
 .UNSPECIFIED., .F., .T. ) 
 B_SPLINE_CURVE_WITH_KNOTS ( ( 4, 4 ),
 ( 4.712388980384689674, 7.853981633974482790 ),
 .UNSPECIFIED. ) 
 CURVE ( )  GEOMETRIC_REPRESENTATION_ITEM ( )  RATIONAL_B_SPLINE_CURVE ( ( 1.000000000000000000, 0.3333333333333333703, 0.3333333333333333703, 1.000000000000000000 ) ) 
 REPRESENTATION_ITEM ( '' )  );
#16 = AXIS2_PLACEMENT_3D ( 'NONE', #35, #17, #37 ) ;
#17 = DIRECTION ( 'NONE',  ( 1.000000000000000000, 0.000000000000000000, 0.000000000000000000 ) ) ;
#18 = CARTESIAN_POINT ( 'NONE',  ( 0.000000000000000000, 0.000000000000000000, 0.000000000000000000 ) ) ;
#19 = LOCAL_TIME ( 14, 59, 47.00000000000000000, #34 ) ;
#20 = ORIENTED_EDGE ( 'NONE', *, *, #84, .T. ) ;
#21 = DATE_TIME_ROLE ( 'creation_date' ) ;
#22 = CARTESIAN_POINT ( 'NONE',  ( -6.938893903907228378E-15, 15.00000000000000000, 0.000000000000000000 ) ) ;
#23 = APPROVAL_ROLE ( '' ) ;
#24 = CALENDAR_DATE ( 2021, 29, 9 ) ;
#25 = APPROVAL_PERSON_ORGANIZATION ( #118, #230, #83 ) ;
#26 = APPROVAL_STATUS ( 'not_yet_approved' ) ;
#27 = CALENDAR_DATE ( 2021, 29, 9 ) ;
#28 = CC_DESIGN_SECURITY_CLASSIFICATION ( #213, ( #145 ) ) ;
#29 = CARTESIAN_POINT ( 'NONE',  ( -17.32050807568894513, -15.00000000000000711, 30.00000000000000355 ) ) ;
#30 = COORDINATED_UNIVERSAL_TIME_OFFSET ( 1, 0, .AHEAD. ) ;
#31 = PRODUCT_DEFINITION_FORMATION_WITH_SPECIFIED_SOURCE ( 'ANY', '', #105, .NOT_KNOWN. ) ;
#32 = CC_DESIGN_PERSON_AND_ORGANIZATION_ASSIGNMENT ( #85, #194, ( #105 ) ) ;
#33 = PERSON_AND_ORGANIZATION ( #53, #209 ) ;
#34 = COORDINATED_UNIVERSAL_TIME_OFFSET ( 1, 0, .AHEAD. ) ;
#35 = CARTESIAN_POINT ( 'NONE',  ( 0.000000000000000000, 0.000000000000000000, 0.000000000000000000 ) ) ;
#36 = DIRECTION ( 'NONE',  ( -0.5000000000000041078, -4.592425496802587777E-16, 0.8660254037844363761 ) ) ;
#37 = DIRECTION ( 'NONE',  ( 0.000000000000000000, 0.000000000000000000, -1.000000000000000000 ) ) ;
#38 = FACE_OUTER_BOUND ( 'NONE', #123, .T. ) ;
#39 = CARTESIAN_POINT ( 'NONE',  ( -34.64101615137756340, 14.99999999999999645, -3.668198612337340231E-13 ) ) ;
#40 = DIRECTION ( 'NONE',  ( 0.000000000000000000, 0.000000000000000000, 1.000000000000000000 ) ) ;
#41 = PRODUCT_RELATED_PRODUCT_CATEGORY ( 'detail', '', ( #102 ) ) ;
#42 =( NAMED_UNIT ( * ) SI_UNIT ( $, .STERADIAN. ) SOLID_ANGLE_UNIT ( ) );
#43 = APPROVAL_PERSON_ORGANIZATION ( #115, #149, #116 ) ;
#44 = CC_DESIGN_PERSON_AND_ORGANIZATION_ASSIGNMENT ( #173, #114, ( #213 ) ) ;
#45 = PERSON_AND_ORGANIZATION ( #53, #209 ) ;
#46 = CARTESIAN_POINT ( 'NONE',  ( -0.000000000000000000, 0.000000000000000000, 0.000000000000000000 ) ) ;
#47 = CALENDAR_DATE ( 2021, 29, 9 ) ;
#48 = APPROVAL_PERSON_ORGANIZATION ( #3, #127, #221 ) ;
#49 = ORIENTED_EDGE ( 'NONE', *, *, #70, .T. ) ;
#50 = ADVANCED_FACE ( 'NONE', ( #260 ), #210, .T. ) ;
#51 = CALENDAR_DATE ( 2021, 29, 9 ) ;
#52 = FACE_OUTER_BOUND ( 'NONE', #180, .T. ) ;
#53 = PERSON ( 'UNSPECIFIED', 'UNSPECIFIED', 'UNSPECIFIED', ('UNSPECIFIED'), ('UNSPECIFIED'), ('UNSPECIFIED') ) ;
#54 = ADVANCED_FACE ( 'NONE', ( #1 ), #251, .T. ) ;
#55 =( BOUNDED_CURVE ( )  B_SPLINE_CURVE ( 3, ( #22, #39, #58, #153 ),
 .UNSPECIFIED., .F., .T. ) 
 B_SPLINE_CURVE_WITH_KNOTS ( ( 4, 4 ),
 ( 4.712388980384689674, 7.853981633974482790 ),
 .UNSPECIFIED. ) 
 CURVE ( )  GEOMETRIC_REPRESENTATION_ITEM ( )  RATIONAL_B_SPLINE_CURVE ( ( 1.000000000000000000, 0.3333333333333333703, 0.3333333333333333703, 1.000000000000000000 ) ) 
 REPRESENTATION_ITEM ( '' )  );
#56 = DATE_AND_TIME ( #51, #162 ) ;
#57 = ORIENTED_EDGE ( 'NONE', *, *, #142, .T. ) ;
#58 = CARTESIAN_POINT ( 'NONE',  ( -34.64101615137755630, -15.00000000000001243, -3.562141088464850576E-13 ) ) ;
#59 = CARTESIAN_POINT ( 'NONE',  ( 0.000000000000000000, 0.000000000000000000, 0.000000000000000000 ) ) ;
#60 = PERSON_AND_ORGANIZATION ( #53, #209 ) ;
#61 = VERTEX_POINT ( 'NONE', #165 ) ;
#62 = APPLICATION_CONTEXT ( 'configuration controlled 3d designs of mechanical parts and assemblies' ) ;
#63 = MANIFOLD_SOLID_BREP ( 'Kreismuster2', #265 ) ;
#64 = APPLICATION_PROTOCOL_DEFINITION ( 'international standard', 'config_control_design', 1994, #263 ) ;
#65 = APPROVAL_DATE_TIME ( #146, #117 ) ;
#66 = EDGE_LOOP ( 'NONE', ( #49, #228 ) ) ;
#67 = DIRECTION ( 'NONE',  ( 0.000000000000000000, 0.000000000000000000, 1.000000000000000000 ) ) ;
#68 = APPROVAL_DATE_TIME ( #186, #87 ) ;
#69 = SHAPE_DEFINITION_REPRESENTATION ( #218, #82 ) ;
#70 = EDGE_CURVE ( 'NONE', #104, #61, #248, .T. ) ;
#71 = COORDINATED_UNIVERSAL_TIME_OFFSET ( 1, 0, .AHEAD. ) ;
#72 = AXIS2_PLACEMENT_3D ( 'NONE', #111, #79, #67 ) ;
#73 = APPROVAL_DATE_TIME ( #7, #230 ) ;
#74 = CALENDAR_DATE ( 2021, 29, 9 ) ;
#75 = CC_DESIGN_PERSON_AND_ORGANIZATION_ASSIGNMENT ( #212, #178, ( #235 ) ) ;
#76 = COORDINATED_UNIVERSAL_TIME_OFFSET ( 1, 0, .AHEAD. ) ;
#77 = MECHANICAL_CONTEXT ( 'NONE', #62, 'mechanical' ) ;
#78 = APPROVAL_STATUS ( 'not_yet_approved' ) ;
#79 = DIRECTION ( 'NONE',  ( -1.000000000000000000, -6.123233995736766282E-16, 0.000000000000000000 ) ) ;
#80 = PERSON_AND_ORGANIZATION ( #53, #209 ) ;
#81 = APPROVAL_STATUS ( 'not_yet_approved' ) ;
#82 = ADVANCED_BREP_SHAPE_REPRESENTATION ( '3559', ( #63, #2 ), #203 ) ;
#83 = APPROVAL_ROLE ( '' ) ;
#84 = EDGE_CURVE ( 'NONE', #104, #61, #11, .T. ) ;
#85 = PERSON_AND_ORGANIZATION ( #53, #209 ) ;
#86 = CARTESIAN_POINT ( 'NONE',  ( 3.469446951953614189E-15, -15.00000000000000000, 3.469446951953614189E-15 ) ) ;
#87 = APPROVAL ( #201, 'UNSPECIFIED' ) ;
#88 = ADVANCED_FACE ( 'NONE', ( #234 ), #238, .T. ) ;
#89 = PERSON_AND_ORGANIZATION ( #53, #209 ) ;
#90 = CARTESIAN_POINT ( 'NONE',  ( 34.64101615137755630, 15.00000000000001421, 1.206806373766381701E-13 ) ) ;
#91 = DIRECTION ( 'NONE',  ( 0.8660254037844362651, 2.651438096812260015E-16, 0.5000000000000039968 ) ) ;
#92 = CYLINDRICAL_SURFACE ( 'NONE', #16, 15.00000000000000000 ) ;
#93 = APPLICATION_PROTOCOL_DEFINITION ( 'international standard', 'config_control_design', 1994, #220 ) ;
#94 = PERSON_AND_ORGANIZATION_ROLE ( 'creator' ) ;
#95 = LOCAL_TIME ( 14, 59, 47.00000000000000000, #250 ) ;
#96 = DESIGN_CONTEXT ( 'detailed design', #263, 'design' ) ;
#97 = SECURITY_CLASSIFICATION_LEVEL ( 'unclassified' ) ;
#98 = APPROVAL_DATE_TIME ( #138, #190 ) ;
#99 = PERSON_AND_ORGANIZATION_ROLE ( 'design_supplier' ) ;
#100 = COORDINATED_UNIVERSAL_TIME_OFFSET ( 1, 0, .AHEAD. ) ;
#101 = ORIENTED_EDGE ( 'NONE', *, *, #136, .F. ) ;
#102 = PRODUCT ( '3559', '3559', '', ( #132 ) ) ;
#103 = DATE_AND_TIME ( #257, #197 ) ;
#104 = VERTEX_POINT ( 'NONE', #107 ) ;
#105 = PRODUCT ( '3559', '3559', '', ( #77 ) ) ;
#106 = LOCAL_TIME ( 14, 59, 47.00000000000000000, #76 ) ;
#107 = CARTESIAN_POINT ( 'NONE',  ( -6.938893903907228378E-15, 15.00000000000000000, 0.000000000000000000 ) ) ;
#108 = COORDINATED_UNIVERSAL_TIME_OFFSET ( 1, 0, .AHEAD. ) ;
#109 = CYLINDRICAL_SURFACE ( 'NONE', #72, 15.00000000000000000 ) ;
#110 = APPROVAL_STATUS ( 'not_yet_approved' ) ;
#111 = CARTESIAN_POINT ( 'NONE',  ( 0.000000000000000000, 0.000000000000000000, 0.000000000000000000 ) ) ;
#112 = DATE_TIME_ROLE ( 'creation_date' ) ;
#113 = PERSON_AND_ORGANIZATION_ROLE ( 'design_owner' ) ;
#114 = PERSON_AND_ORGANIZATION_ROLE ( 'classification_officer' ) ;
#115 = PERSON_AND_ORGANIZATION ( #53, #209 ) ;
#116 = APPROVAL_ROLE ( '' ) ;
#117 = APPROVAL ( #241, 'UNSPECIFIED' ) ;
#118 = PERSON_AND_ORGANIZATION ( #53, #209 ) ;
#119 = FACE_OUTER_BOUND ( 'NONE', #168, .T. ) ;
#120 = CC_DESIGN_PERSON_AND_ORGANIZATION_ASSIGNMENT ( #33, #200, ( #181 ) ) ;
#121 = DESIGN_CONTEXT ( 'detailed design', #220, 'design' ) ;
#122 = DIRECTION ( 'NONE',  ( -0.8660254037844432595, -2.651438096812281215E-16, 0.4999999999999919509 ) ) ;
#123 = EDGE_LOOP ( 'NONE', ( #57, #154 ) ) ;
#124 = ADVANCED_FACE ( 'NONE', ( #52 ), #92, .T. ) ;
#125 =( BOUNDED_CURVE ( )  B_SPLINE_CURVE ( 3, ( #150, #171, #198, #196 ),
 .UNSPECIFIED., .F., .T. ) 
 B_SPLINE_CURVE_WITH_KNOTS ( ( 4, 4 ),
 ( 1.570796326794895892, 4.712388980384688786 ),
 .UNSPECIFIED. ) 
 CURVE ( )  GEOMETRIC_REPRESENTATION_ITEM ( )  RATIONAL_B_SPLINE_CURVE ( ( 1.000000000000000000, 0.3333333333333333703, 0.3333333333333333703, 1.000000000000000000 ) ) 
 REPRESENTATION_ITEM ( '' )  );
#126 = CARTESIAN_POINT ( 'NONE',  ( -6.938893903907228378E-15, 15.00000000000000000, 0.000000000000000000 ) ) ;
#127 = APPROVAL ( #110, 'UNSPECIFIED' ) ;
#128 = DATE_AND_TIME ( #183, #258 ) ;
#129 = CARTESIAN_POINT ( 'NONE',  ( -6.938893903907228378E-15, 15.00000000000000000, 0.000000000000000000 ) ) ;
#130 = DIRECTION ( 'NONE',  ( 1.000000000000000000, 0.000000000000000000, 0.000000000000000000 ) ) ;
#131 = PERSON_AND_ORGANIZATION ( #53, #209 ) ;
#132 = MECHANICAL_CONTEXT ( 'NONE', #199, 'mechanical' ) ;
#133 = CC_DESIGN_DATE_AND_TIME_ASSIGNMENT ( #128, #21, ( #181 ) ) ;
#134 = ORIENTED_EDGE ( 'NONE', *, *, #142, .F. ) ;
#135 = DATE_TIME_ROLE ( 'classification_date' ) ;
#136 = EDGE_CURVE ( 'NONE', #61, #104, #125, .T. ) ;
#137 = CALENDAR_DATE ( 2021, 29, 9 ) ;
#138 = DATE_AND_TIME ( #155, #236 ) ;
#139 = LOCAL_TIME ( 14, 59, 47.00000000000000000, #245 ) ;
#140 = DIRECTION ( 'NONE',  ( 0.8660254037844362651, 2.651438096812260015E-16, 0.5000000000000039968 ) ) ;
#141 = ORIENTED_EDGE ( 'NONE', *, *, #70, .F. ) ;
#142 = EDGE_CURVE ( 'NONE', #104, #61, #55, .T. ) ;
#143 = CALENDAR_DATE ( 2021, 29, 9 ) ;
#144 = CARTESIAN_POINT ( 'NONE',  ( 3.469446951953614189E-15, -15.00000000000000000, 3.469446951953614189E-15 ) ) ;
#145 = PRODUCT_DEFINITION_FORMATION_WITH_SPECIFIED_SOURCE ( 'ANY', '', #102, .NOT_KNOWN. ) ;
#146 = DATE_AND_TIME ( #27, #106 ) ;
#147 = CARTESIAN_POINT ( 'NONE',  ( 34.64101615137756340, -14.99999999999999112, 1.100748849893891163E-13 ) ) ;
#148 = DIRECTION ( 'NONE',  ( 0.000000000000000000, 0.000000000000000000, 1.000000000000000000 ) ) ;
#149 = APPROVAL ( #26, 'UNSPECIFIED' ) ;
#150 = CARTESIAN_POINT ( 'NONE',  ( 3.469446951953614189E-15, -15.00000000000000000, 3.469446951953614189E-15 ) ) ;
#151 = CARTESIAN_POINT ( 'NONE',  ( 3.469446951953614189E-15, -15.00000000000000000, 3.469446951953614189E-15 ) ) ;
#152 = LOCAL_TIME ( 14, 59, 47.00000000000000000, #108 ) ;
#153 = CARTESIAN_POINT ( 'NONE',  ( 3.469446951953614189E-15, -15.00000000000000000, 3.469446951953614189E-15 ) ) ;
#154 = ORIENTED_EDGE ( 'NONE', *, *, #188, .F. ) ;
#155 = CALENDAR_DATE ( 2021, 29, 9 ) ;
#156 = APPROVAL_ROLE ( '' ) ;
#157 = CC_DESIGN_APPROVAL ( #127, ( #5 ) ) ;
#158 = CARTESIAN_POINT ( 'NONE',  ( -17.32050807568895934, 15.00000000000000178, 29.99999999999999289 ) ) ;
#159 = COORDINATED_UNIVERSAL_TIME_OFFSET ( 1, 0, .AHEAD. ) ;
#160 = PERSON_AND_ORGANIZATION ( #53, #209 ) ;
#161 = EDGE_CURVE ( 'NONE', #104, #61, #15, .T. ) ;
#162 = LOCAL_TIME ( 14, 59, 47.00000000000000000, #71 ) ;
#163 = DIRECTION ( 'NONE',  ( 0.4999999999999980016, -1.530808498934197734E-16, 0.8660254037844398178 ) ) ;
#164 = ADVANCED_FACE ( 'NONE', ( #119 ), #109, .T. ) ;
#165 = CARTESIAN_POINT ( 'NONE',  ( 3.469446951953614189E-15, -15.00000000000000000, 3.469446951953614189E-15 ) ) ;
#166 = CARTESIAN_POINT ( 'NONE',  ( 17.32050807568868223, -14.99999999999999645, 30.00000000000000355 ) ) ;
#167 =( NAMED_UNIT ( * ) PLANE_ANGLE_UNIT ( ) SI_UNIT ( $, .RADIAN. ) );
#168 = EDGE_LOOP ( 'NONE', ( #4, #141 ) ) ;
#169 = CC_DESIGN_PERSON_AND_ORGANIZATION_ASSIGNMENT ( #160, #113, ( #102 ) ) ;
#170 = PERSON_AND_ORGANIZATION_ROLE ( 'creator' ) ;
#171 = CARTESIAN_POINT ( 'NONE',  ( -17.32050807568866446, -15.00000000000000711, -30.00000000000000355 ) ) ;
#172 = DATE_AND_TIME ( #137, #19 ) ;
#173 = PERSON_AND_ORGANIZATION ( #53, #209 ) ;
#174 = APPLICATION_PROTOCOL_DEFINITION ( 'international standard', 'config_control_design', 1994, #199 ) ;
#175 = CARTESIAN_POINT ( 'NONE',  ( -6.938893903907228378E-15, 15.00000000000000000, 0.000000000000000000 ) ) ;
#176 = AXIS2_PLACEMENT_3D ( 'NONE', #46, #229, #140 ) ;
#177 = CARTESIAN_POINT ( 'NONE',  ( 0.000000000000000000, 0.000000000000000000, -0.000000000000000000 ) ) ;
#178 = PERSON_AND_ORGANIZATION_ROLE ( 'classification_officer' ) ;
#179 = PRODUCT_DEFINITION_SHAPE ( 'NONE', 'NONE',  #181 ) ;
#180 = EDGE_LOOP ( 'NONE', ( #243, #216 ) ) ;
#181 = PRODUCT_DEFINITION ( 'UNKNOWN', '', #145, #96 ) ;
#182 = CC_DESIGN_SECURITY_CLASSIFICATION ( #235, ( #31 ) ) ;
#183 = CALENDAR_DATE ( 2021, 29, 9 ) ;
#184 = EDGE_LOOP ( 'NONE', ( #134, #101 ) ) ;
#185 = CARTESIAN_POINT ( 'NONE',  ( 0.000000000000000000, 0.000000000000000000, 0.000000000000000000 ) ) ;
#186 = DATE_AND_TIME ( #24, #139 ) ;
#187 =( LENGTH_UNIT ( ) NAMED_UNIT ( * ) SI_UNIT ( .MILLI., .METRE. ) );
#188 = EDGE_CURVE ( 'NONE', #104, #61, #223, .T. ) ;
#189 = CARTESIAN_POINT ( 'NONE',  ( 3.469446951953614189E-15, -15.00000000000000000, 3.469446951953614189E-15 ) ) ;
#190 = APPROVAL ( #81, 'UNSPECIFIED' ) ;
#191 = CC_DESIGN_DATE_AND_TIME_ASSIGNMENT ( #56, #112, ( #5 ) ) ;
#192 = CARTESIAN_POINT ( 'NONE',  ( 17.32050807568881368, 15.00000000000000711, -29.99999999999999289 ) ) ;
#193 = APPLICATION_PROTOCOL_DEFINITION ( 'international standard', 'config_control_design', 1994, #62 ) ;
#194 = PERSON_AND_ORGANIZATION_ROLE ( 'design_owner' ) ;
#195 = CC_DESIGN_APPROVAL ( #190, ( #145 ) ) ;
#196 = CARTESIAN_POINT ( 'NONE',  ( -6.938893903907228378E-15, 15.00000000000000000, 0.000000000000000000 ) ) ;
#197 = LOCAL_TIME ( 14, 59, 47.00000000000000000, #159 ) ;
#198 = CARTESIAN_POINT ( 'NONE',  ( -17.32050807568868223, 14.99999999999998579, -30.00000000000001421 ) ) ;
#199 = APPLICATION_CONTEXT ( 'configuration controlled 3d designs of mechanical parts and assemblies' ) ;
#200 = PERSON_AND_ORGANIZATION_ROLE ( 'creator' ) ;
#201 = APPROVAL_STATUS ( 'not_yet_approved' ) ;
#202 = EDGE_LOOP ( 'NONE', ( #20, #8 ) ) ;
#203 =( GEOMETRIC_REPRESENTATION_CONTEXT ( 3 ) GLOBAL_UNCERTAINTY_ASSIGNED_CONTEXT ( ( #6 ) ) GLOBAL_UNIT_ASSIGNED_CONTEXT ( ( #187, #167, #42 ) ) REPRESENTATION_CONTEXT ( 'NONE', 'WORKASPACE' ) );
#204 = PERSON_AND_ORGANIZATION_ROLE ( 'creator' ) ;
#205 = APPROVAL_PERSON_ORGANIZATION ( #264, #87, #156 ) ;
#206 = CYLINDRICAL_SURFACE ( 'NONE', #253, 15.00000000000000000 ) ;
#207 = PERSON_AND_ORGANIZATION ( #53, #209 ) ;
#208 = CC_DESIGN_PERSON_AND_ORGANIZATION_ASSIGNMENT ( #45, #170, ( #145 ) ) ;
#209 = ORGANIZATION ( 'UNSPECIFIED', 'UNSPECIFIED', '' ) ;
#210 = CYLINDRICAL_SURFACE ( 'NONE', #176, 15.00000000000000178 ) ;
#211 = ADVANCED_FACE ( 'NONE', ( #38 ), #206, .T. ) ;
#212 = PERSON_AND_ORGANIZATION ( #53, #209 ) ;
#213 = SECURITY_CLASSIFICATION ( '', '', #97 ) ;
#214 = DIRECTION ( 'NONE',  ( -0.4999999999999919509, -4.592425496802550306E-16, -0.8660254037844432595 ) ) ;
#215 = PERSON_AND_ORGANIZATION ( #53, #209 ) ;
#216 = ORIENTED_EDGE ( 'NONE', *, *, #161, .T. ) ;
#217 = CARTESIAN_POINT ( 'NONE',  ( -6.938893903907228378E-15, 15.00000000000000000, 0.000000000000000000 ) ) ;
#218 = PRODUCT_DEFINITION_SHAPE ( 'NONE', 'NONE',  #5 ) ;
#219 = CC_DESIGN_APPROVAL ( #117, ( #181 ) ) ;
#220 = APPLICATION_CONTEXT ( 'configuration controlled 3d designs of mechanical parts and assemblies' ) ;
#221 = APPROVAL_ROLE ( '' ) ;
#222 = APPROVAL_ROLE ( '' ) ;
#223 =( BOUNDED_CURVE ( )  B_SPLINE_CURVE ( 3, ( #175, #158, #29, #86 ),
 .UNSPECIFIED., .F., .T. ) 
 B_SPLINE_CURVE_WITH_KNOTS ( ( 4, 4 ),
 ( 4.712388980384689674, 7.853981633974482790 ),
 .UNSPECIFIED. ) 
 CURVE ( )  GEOMETRIC_REPRESENTATION_ITEM ( )  RATIONAL_B_SPLINE_CURVE ( ( 1.000000000000000000, 0.3333333333333333703, 0.3333333333333333703, 1.000000000000000000 ) ) 
 REPRESENTATION_ITEM ( '' )  );
#224 = CC_DESIGN_PERSON_AND_ORGANIZATION_ASSIGNMENT ( #89, #266, ( #145 ) ) ;
#225 = SECURITY_CLASSIFICATION_LEVEL ( 'unclassified' ) ;
#226 = CC_DESIGN_APPROVAL ( #149, ( #31 ) ) ;
#227 = APPROVAL_DATE_TIME ( #103, #149 ) ;
#228 = ORIENTED_EDGE ( 'NONE', *, *, #84, .F. ) ;
#229 = DIRECTION ( 'NONE',  ( -0.5000000000000041078, -4.592425496802587777E-16, 0.8660254037844363761 ) ) ;
#230 = APPROVAL ( #78, 'UNSPECIFIED' ) ;
#231 = APPROVAL_PERSON_ORGANIZATION ( #131, #190, #222 ) ;
#232 = DIRECTION ( 'NONE',  ( 0.8660254037844397068, 2.651438096812270369E-16, -0.4999999999999979461 ) ) ;
#233 = CC_DESIGN_DATE_AND_TIME_ASSIGNMENT ( #246, #267, ( #213 ) ) ;
#234 = FACE_OUTER_BOUND ( 'NONE', #66, .T. ) ;
#235 = SECURITY_CLASSIFICATION ( '', '', #225 ) ;
#236 = LOCAL_TIME ( 14, 59, 47.00000000000000000, #30 ) ;
#237 = CC_DESIGN_DATE_AND_TIME_ASSIGNMENT ( #254, #135, ( #235 ) ) ;
#238 = CYLINDRICAL_SURFACE ( 'NONE', #10, 15.00000000000000178 ) ;
#239 = DIRECTION ( 'NONE',  ( 1.000000000000000000, 0.000000000000000000, 0.000000000000000000 ) ) ;
#240 = APPROVAL_DATE_TIME ( #172, #127 ) ;
#241 = APPROVAL_STATUS ( 'not_yet_approved' ) ;
#242 = COORDINATED_UNIVERSAL_TIME_OFFSET ( 1, 0, .AHEAD. ) ;
#243 = ORIENTED_EDGE ( 'NONE', *, *, #136, .T. ) ;
#244 = AXIS2_PLACEMENT_3D ( 'NONE', #59, #40, #130 ) ;
#245 = COORDINATED_UNIVERSAL_TIME_OFFSET ( 1, 0, .AHEAD. ) ;
#246 = DATE_AND_TIME ( #74, #95 ) ;
#247 = PRODUCT_RELATED_PRODUCT_CATEGORY ( 'detail', '', ( #105 ) ) ;
#248 =( BOUNDED_CURVE ( )  B_SPLINE_CURVE ( 3, ( #126, #14, #166, #144 ),
 .UNSPECIFIED., .F., .T. ) 
 B_SPLINE_CURVE_WITH_KNOTS ( ( 4, 4 ),
 ( 4.712388980384689674, 7.853981633974482790 ),
 .UNSPECIFIED. ) 
 CURVE ( )  GEOMETRIC_REPRESENTATION_ITEM ( )  RATIONAL_B_SPLINE_CURVE ( ( 1.000000000000000000, 0.3333333333333333703, 0.3333333333333333703, 1.000000000000000000 ) ) 
 REPRESENTATION_ITEM ( '' )  );
#249 = AXIS2_PLACEMENT_3D ( 'NONE', #185, #163, #232 ) ;
#250 = COORDINATED_UNIVERSAL_TIME_OFFSET ( 1, 0, .AHEAD. ) ;
#251 = CYLINDRICAL_SURFACE ( 'NONE', #249, 15.00000000000000178 ) ;
#252 = CC_DESIGN_APPROVAL ( #87, ( #235 ) ) ;
#253 = AXIS2_PLACEMENT_3D ( 'NONE', #177, #214, #122 ) ;
#254 = DATE_AND_TIME ( #47, #152 ) ;
#255 = APPROVAL_PERSON_ORGANIZATION ( #80, #117, #23 ) ;
#256 = CARTESIAN_POINT ( 'NONE',  ( -0.000000000000000000, 0.000000000000000000, 0.000000000000000000 ) ) ;
#257 = CALENDAR_DATE ( 2021, 29, 9 ) ;
#258 = LOCAL_TIME ( 14, 59, 47.00000000000000000, #242 ) ;
#259 = CC_DESIGN_PERSON_AND_ORGANIZATION_ASSIGNMENT ( #60, #204, ( #31 ) ) ;
#260 = FACE_OUTER_BOUND ( 'NONE', #184, .T. ) ;
#261 = CC_DESIGN_APPROVAL ( #230, ( #213 ) ) ;
#262 = CARTESIAN_POINT ( 'NONE',  ( 17.32050807568881368, -14.99999999999999112, -30.00000000000000355 ) ) ;
#263 = APPLICATION_CONTEXT ( 'configuration controlled 3d designs of mechanical parts and assemblies' ) ;
#264 = PERSON_AND_ORGANIZATION ( #53, #209 ) ;
#265 = CLOSED_SHELL ( 'NONE', ( #124, #54, #50, #88, #164, #211 ) ) ;
#266 = PERSON_AND_ORGANIZATION_ROLE ( 'design_supplier' ) ;
#267 = DATE_TIME_ROLE ( 'classification_date' ) ;
ENDSEC;
END-ISO-10303-21;
