ISO-10303-21;
HEADER;
FILE_DESCRIPTION (( 'STEP AP203' ),
    '1' );
FILE_NAME ('3560.STEP',
    '2021-09-29T13:02:08',
    ( '' ),
    ( '' ),
    'SwSTEP 2.0',
    'SolidWorks 2018',
    '' );
FILE_SCHEMA (( 'CONFIG_CONTROL_DESIGN' ));
ENDSEC;

DATA;
#1 = COORDINATED_UNIVERSAL_TIME_OFFSET ( 1, 0, .AHEAD. ) ;
#2 = ADVANCED_FACE ( 'NONE', ( #194 ), #238, .T. ) ;
#3 = CARTESIAN_POINT ( 'NONE',  ( 5.204170427930421283E-15, -20.00000000000000000, -3.469446951953614189E-15 ) ) ;
#4 = CALENDAR_DATE ( 2021, 29, 9 ) ;
#5 = SECURITY_CLASSIFICATION_LEVEL ( 'unclassified' ) ;
#6 = PRODUCT_DEFINITION ( 'UNKNOWN', '', #230, #169 ) ;
#7 = DATE_AND_TIME ( #154, #20 ) ;
#8 = AXIS2_PLACEMENT_3D ( 'NONE', #32, #155, #199 ) ;
#9 = DATE_AND_TIME ( #63, #110 ) ;
#10 = PRODUCT_DEFINITION ( 'UNKNOWN', '', #40, #134 ) ;
#11 = DATE_AND_TIME ( #243, #42 ) ;
#12 = ORIENTED_EDGE ( 'NONE', *, *, #254, .T. ) ;
#13 = CARTESIAN_POINT ( 'NONE',  ( -6.938893903907228378E-15, 20.00000000000000000, 0.000000000000000000 ) ) ;
#14 = CARTESIAN_POINT ( 'NONE',  ( 46.18802153517007980, 20.00000000000002132, 1.609075165021841932E-13 ) ) ;
#15 = CC_DESIGN_PERSON_AND_ORGANIZATION_ASSIGNMENT ( #84, #189, ( #230 ) ) ;
#16 = DATE_AND_TIME ( #69, #124 ) ;
#17 = CARTESIAN_POINT ( 'NONE',  ( 23.09401076758508253, 20.00000000000001066, -39.99999999999998579 ) ) ;
#18 = APPLICATION_CONTEXT ( 'configuration controlled 3d designs of mechanical parts and assemblies' ) ;
#19 = CC_DESIGN_PERSON_AND_ORGANIZATION_ASSIGNMENT ( #249, #60, ( #56 ) ) ;
#20 = LOCAL_TIME ( 15, 2, 8.000000000000000000, #48 ) ;
#21 = APPROVAL_STATUS ( 'not_yet_approved' ) ;
#22 = DATE_AND_TIME ( #214, #80 ) ;
#23 = APPROVAL_STATUS ( 'not_yet_approved' ) ;
#24 = EDGE_CURVE ( 'NONE', #129, #226, #206, .T. ) ;
#25 = APPLICATION_CONTEXT ( 'configuration controlled 3d designs of mechanical parts and assemblies' ) ;
#26 = PERSON_AND_ORGANIZATION ( #265, #76 ) ;
#27 =( BOUNDED_CURVE ( )  B_SPLINE_CURVE ( 3, ( #219, #17, #137, #91 ),
 .UNSPECIFIED., .F., .T. ) 
 B_SPLINE_CURVE_WITH_KNOTS ( ( 4, 4 ),
 ( 4.712388980384689674, 7.853981633974482790 ),
 .UNSPECIFIED. ) 
 CURVE ( )  GEOMETRIC_REPRESENTATION_ITEM ( )  RATIONAL_B_SPLINE_CURVE ( ( 1.000000000000000000, 0.3333333333333333703, 0.3333333333333333703, 1.000000000000000000 ) ) 
 REPRESENTATION_ITEM ( '' )  );
#28 = COORDINATED_UNIVERSAL_TIME_OFFSET ( 1, 0, .AHEAD. ) ;
#29 = EDGE_LOOP ( 'NONE', ( #12, #173 ) ) ;
#30 =( BOUNDED_CURVE ( )  B_SPLINE_CURVE ( 3, ( #39, #261, #166, #3 ),
 .UNSPECIFIED., .F., .F. ) 
 B_SPLINE_CURVE_WITH_KNOTS ( ( 4, 4 ),
 ( 4.712388980384689674, 7.853981633974482790 ),
 .UNSPECIFIED. ) 
 CURVE ( )  GEOMETRIC_REPRESENTATION_ITEM ( )  RATIONAL_B_SPLINE_CURVE ( ( 1.000000000000000000, 0.3333333333333333703, 0.3333333333333333703, 1.000000000000000000 ) ) 
 REPRESENTATION_ITEM ( '' )  );
#31 = PRODUCT ( '3560', '3560', '', ( #115 ) ) ;
#32 = CARTESIAN_POINT ( 'NONE',  ( -0.000000000000000000, 0.000000000000000000, 0.000000000000000000 ) ) ;
#33 = CC_DESIGN_APPROVAL ( #150, ( #10 ) ) ;
#34 = CARTESIAN_POINT ( 'NONE',  ( -6.938893903907228378E-15, 20.00000000000000000, 0.000000000000000000 ) ) ;
#35 = COORDINATED_UNIVERSAL_TIME_OFFSET ( 1, 0, .AHEAD. ) ;
#36 = EDGE_LOOP ( 'NONE', ( #97, #258 ) ) ;
#37 = CARTESIAN_POINT ( 'NONE',  ( 23.09401076758488713, 20.00000000000001421, 40.00000000000000000 ) ) ;
#38 = CARTESIAN_POINT ( 'NONE',  ( 0.000000000000000000, 0.000000000000000000, 0.000000000000000000 ) ) ;
#39 = CARTESIAN_POINT ( 'NONE',  ( -6.938893903907228378E-15, 20.00000000000000000, 0.000000000000000000 ) ) ;
#40 = PRODUCT_DEFINITION_FORMATION_WITH_SPECIFIED_SOURCE ( 'ANY', '', #203, .NOT_KNOWN. ) ;
#41 = APPLICATION_PROTOCOL_DEFINITION ( 'international standard', 'config_control_design', 1994, #46 ) ;
#42 = LOCAL_TIME ( 15, 2, 8.000000000000000000, #106 ) ;
#43 = APPROVAL_ROLE ( '' ) ;
#44 = APPLICATION_PROTOCOL_DEFINITION ( 'international standard', 'config_control_design', 1994, #25 ) ;
#45 = COORDINATED_UNIVERSAL_TIME_OFFSET ( 1, 0, .AHEAD. ) ;
#46 = APPLICATION_CONTEXT ( 'configuration controlled 3d designs of mechanical parts and assemblies' ) ;
#47 = APPROVAL ( #161, 'UNSPECIFIED' ) ;
#48 = COORDINATED_UNIVERSAL_TIME_OFFSET ( 1, 0, .AHEAD. ) ;
#49 = FACE_OUTER_BOUND ( 'NONE', #152, .T. ) ;
#50 = PERSON_AND_ORGANIZATION ( #265, #76 ) ;
#51 = AXIS2_PLACEMENT_3D ( 'NONE', #38, #242, #111 ) ;
#52 = DIRECTION ( 'NONE',  ( 1.000000000000000000, 0.000000000000000000, 0.000000000000000000 ) ) ;
#53 = COORDINATED_UNIVERSAL_TIME_OFFSET ( 1, 0, .AHEAD. ) ;
#54 = CYLINDRICAL_SURFACE ( 'NONE', #133, 20.00000000000000000 ) ;
#55 = APPROVAL_PERSON_ORGANIZATION ( #50, #131, #248 ) ;
#56 = SECURITY_CLASSIFICATION ( '', '', #5 ) ;
#57 = CARTESIAN_POINT ( 'NONE',  ( 5.204170427930421283E-15, -20.00000000000000000, -3.469446951953614189E-15 ) ) ;
#58 = CARTESIAN_POINT ( 'NONE',  ( 46.18802153517009401, -19.99999999999998224, 1.467665133191854715E-13 ) ) ;
#59 =( LENGTH_UNIT ( ) NAMED_UNIT ( * ) SI_UNIT ( .MILLI., .METRE. ) );
#60 = PERSON_AND_ORGANIZATION_ROLE ( 'classification_officer' ) ;
#61 = APPROVAL_DATE_TIME ( #126, #142 ) ;
#62 = EDGE_LOOP ( 'NONE', ( #89, #204 ) ) ;
#63 = CALENDAR_DATE ( 2021, 29, 9 ) ;
#64 = AXIS2_PLACEMENT_3D ( 'NONE', #240, #108, #175 ) ;
#65 = CYLINDRICAL_SURFACE ( 'NONE', #51, 20.00000000000000000 ) ;
#66 = SHAPE_DEFINITION_REPRESENTATION ( #86, #215 ) ;
#67 = CLOSED_SHELL ( 'NONE', ( #121, #188, #164, #2, #105, #229 ) ) ;
#68 = COORDINATED_UNIVERSAL_TIME_OFFSET ( 1, 0, .AHEAD. ) ;
#69 = CALENDAR_DATE ( 2021, 29, 9 ) ;
#70 = ORIENTED_EDGE ( 'NONE', *, *, #24, .T. ) ;
#71 = DIRECTION ( 'NONE',  ( -1.000000000000000000, -6.123233995736766282E-16, 0.000000000000000000 ) ) ;
#72 = LOCAL_TIME ( 15, 2, 8.000000000000000000, #35 ) ;
#73 = DIRECTION ( 'NONE',  ( 0.000000000000000000, 0.000000000000000000, -1.000000000000000000 ) ) ;
#74 = AXIS2_PLACEMENT_3D ( 'NONE', #208, #143, #82 ) ;
#75 = CARTESIAN_POINT ( 'NONE',  ( 0.000000000000000000, 0.000000000000000000, 0.000000000000000000 ) ) ;
#76 = ORGANIZATION ( 'UNSPECIFIED', 'UNSPECIFIED', '' ) ;
#77 = ORIENTED_EDGE ( 'NONE', *, *, #90, .T. ) ;
#78 = CARTESIAN_POINT ( 'NONE',  ( 5.204170427930421283E-15, -20.00000000000000000, -3.469446951953614189E-15 ) ) ;
#79 = PERSON_AND_ORGANIZATION_ROLE ( 'creator' ) ;
#80 = LOCAL_TIME ( 15, 2, 8.000000000000000000, #196 ) ;
#81 = DATE_TIME_ROLE ( 'creation_date' ) ;
#82 = DIRECTION ( 'NONE',  ( 1.000000000000000000, 0.000000000000000000, 0.000000000000000000 ) ) ;
#83 = PERSON_AND_ORGANIZATION_ROLE ( 'design_owner' ) ;
#84 = PERSON_AND_ORGANIZATION ( #265, #76 ) ;
#85 = CC_DESIGN_APPROVAL ( #142, ( #6 ) ) ;
#86 = PRODUCT_DEFINITION_SHAPE ( 'NONE', 'NONE',  #10 ) ;
#87 = PERSON_AND_ORGANIZATION ( #265, #76 ) ;
#88 = CC_DESIGN_PERSON_AND_ORGANIZATION_ASSIGNMENT ( #180, #122, ( #10 ) ) ;
#89 = ORIENTED_EDGE ( 'NONE', *, *, #163, .T. ) ;
#90 = EDGE_CURVE ( 'NONE', #226, #129, #267, .T. ) ;
#91 = CARTESIAN_POINT ( 'NONE',  ( 5.204170427930421283E-15, -20.00000000000000000, -3.469446951953614189E-15 ) ) ;
#92 = APPROVAL_DATE_TIME ( #7, #125 ) ;
#93 = CC_DESIGN_APPROVAL ( #222, ( #40 ) ) ;
#94 = CARTESIAN_POINT ( 'NONE',  ( -6.938893903907228378E-15, 20.00000000000000000, 0.000000000000000000 ) ) ;
#95 = CC_DESIGN_PERSON_AND_ORGANIZATION_ASSIGNMENT ( #128, #190, ( #203 ) ) ;
#96 = CARTESIAN_POINT ( 'NONE',  ( 0.000000000000000000, 0.000000000000000000, -0.000000000000000000 ) ) ;
#97 = ORIENTED_EDGE ( 'NONE', *, *, #163, .F. ) ;
#98 =( NAMED_UNIT ( * ) PLANE_ANGLE_UNIT ( ) SI_UNIT ( $, .RADIAN. ) );
#99 = DATE_TIME_ROLE ( 'classification_date' ) ;
#100 = APPROVAL_PERSON_ORGANIZATION ( #26, #150, #207 ) ;
#101 = APPLICATION_CONTEXT ( 'configuration controlled 3d designs of mechanical parts and assemblies' ) ;
#102 = ORIENTED_EDGE ( 'NONE', *, *, #146, .T. ) ;
#103 = CC_DESIGN_DATE_AND_TIME_ASSIGNMENT ( #16, #250, ( #10 ) ) ;
#104 = DIRECTION ( 'NONE',  ( 0.000000000000000000, 0.000000000000000000, 1.000000000000000000 ) ) ;
#105 = ADVANCED_FACE ( 'NONE', ( #218 ), #181, .T. ) ;
#106 = COORDINATED_UNIVERSAL_TIME_OFFSET ( 1, 0, .AHEAD. ) ;
#107 = CC_DESIGN_PERSON_AND_ORGANIZATION_ASSIGNMENT ( #259, #79, ( #40 ) ) ;
#108 = DIRECTION ( 'NONE',  ( -0.5000000000000041078, -4.592425496802587777E-16, 0.8660254037844363761 ) ) ;
#109 = EDGE_LOOP ( 'NONE', ( #70, #148 ) ) ;
#110 = LOCAL_TIME ( 15, 2, 8.000000000000000000, #68 ) ;
#111 = DIRECTION ( 'NONE',  ( 0.8660254037844398178, 2.651438096812270862E-16, -0.4999999999999980571 ) ) ;
#112 = CARTESIAN_POINT ( 'NONE',  ( -46.18802153517008691, 19.99999999999999289, -4.890931483116451958E-13 ) ) ;
#113 = APPROVAL_PERSON_ORGANIZATION ( #172, #222, #43 ) ;
#114 = CARTESIAN_POINT ( 'NONE',  ( 5.204170427930421283E-15, -20.00000000000000000, -3.469446951953614189E-15 ) ) ;
#115 = MECHANICAL_CONTEXT ( 'NONE', #18, 'mechanical' ) ;
#116 = PERSON_AND_ORGANIZATION_ROLE ( 'design_supplier' ) ;
#117 =( NAMED_UNIT ( * ) SI_UNIT ( $, .STERADIAN. ) SOLID_ANGLE_UNIT ( ) );
#118 = APPROVAL_PERSON_ORGANIZATION ( #132, #47, #251 ) ;
#119 = AXIS2_PLACEMENT_3D ( 'NONE', #130, #71, #135 ) ;
#120 = DATE_TIME_ROLE ( 'classification_date' ) ;
#121 = ADVANCED_FACE ( 'NONE', ( #49 ), #244, .T. ) ;
#122 = PERSON_AND_ORGANIZATION_ROLE ( 'creator' ) ;
#123 = CC_DESIGN_APPROVAL ( #131, ( #56 ) ) ;
#124 = LOCAL_TIME ( 15, 2, 8.000000000000000000, #53 ) ;
#125 = APPROVAL ( #228, 'UNSPECIFIED' ) ;
#126 = DATE_AND_TIME ( #255, #72 ) ;
#127 = CC_DESIGN_PERSON_AND_ORGANIZATION_ASSIGNMENT ( #87, #168, ( #6 ) ) ;
#128 = PERSON_AND_ORGANIZATION ( #265, #76 ) ;
#129 = VERTEX_POINT ( 'NONE', #221 ) ;
#130 = CARTESIAN_POINT ( 'NONE',  ( 0.000000000000000000, 0.000000000000000000, 0.000000000000000000 ) ) ;
#131 = APPROVAL ( #23, 'UNSPECIFIED' ) ;
#132 = PERSON_AND_ORGANIZATION ( #265, #76 ) ;
#133 = AXIS2_PLACEMENT_3D ( 'NONE', #96, #182, #158 ) ;
#134 = DESIGN_CONTEXT ( 'detailed design', #46, 'design' ) ;
#135 = DIRECTION ( 'NONE',  ( 0.000000000000000000, 0.000000000000000000, 1.000000000000000000 ) ) ;
#136 = CC_DESIGN_PERSON_AND_ORGANIZATION_ASSIGNMENT ( #264, #162, ( #40 ) ) ;
#137 = CARTESIAN_POINT ( 'NONE',  ( 23.09401076758508609, -19.99999999999998579, -40.00000000000000000 ) ) ;
#138 = DATE_AND_TIME ( #4, #193 ) ;
#139 = SECURITY_CLASSIFICATION ( '', '', #227 ) ;
#140 = CARTESIAN_POINT ( 'NONE',  ( 0.000000000000000000, 0.000000000000000000, 0.000000000000000000 ) ) ;
#141 = APPLICATION_PROTOCOL_DEFINITION ( 'international standard', 'config_control_design', 1994, #18 ) ;
#142 = APPROVAL ( #21, 'UNSPECIFIED' ) ;
#143 = DIRECTION ( 'NONE',  ( 0.000000000000000000, 0.000000000000000000, 1.000000000000000000 ) ) ;
#144 = APPROVAL_ROLE ( '' ) ;
#145 = CALENDAR_DATE ( 2021, 29, 9 ) ;
#146 = EDGE_CURVE ( 'NONE', #129, #226, #186, .T. ) ;
#147 = EDGE_LOOP ( 'NONE', ( #102, #171 ) ) ;
#148 = ORIENTED_EDGE ( 'NONE', *, *, #146, .F. ) ;
#149 = CC_DESIGN_SECURITY_CLASSIFICATION ( #56, ( #40 ) ) ;
#150 = APPROVAL ( #184, 'UNSPECIFIED' ) ;
#151 = DATE_AND_TIME ( #253, #210 ) ;
#152 = EDGE_LOOP ( 'NONE', ( #77, #167 ) ) ;
#153 = CC_DESIGN_APPROVAL ( #125, ( #230 ) ) ;
#154 = CALENDAR_DATE ( 2021, 29, 9 ) ;
#155 = DIRECTION ( 'NONE',  ( -0.5000000000000041078, -4.592425496802587777E-16, 0.8660254037844363761 ) ) ;
#156 = CALENDAR_DATE ( 2021, 29, 9 ) ;
#157 = PRODUCT_DEFINITION_SHAPE ( 'NONE', 'NONE',  #6 ) ;
#158 = DIRECTION ( 'NONE',  ( -0.8660254037844433705, -2.651438096812281708E-16, 0.4999999999999918954 ) ) ;
#159 = CYLINDRICAL_SURFACE ( 'NONE', #8, 20.00000000000000711 ) ;
#160 = APPLICATION_PROTOCOL_DEFINITION ( 'international standard', 'config_control_design', 1994, #101 ) ;
#161 = APPROVAL_STATUS ( 'not_yet_approved' ) ;
#162 = PERSON_AND_ORGANIZATION_ROLE ( 'design_supplier' ) ;
#163 = EDGE_CURVE ( 'NONE', #129, #226, #211, .T. ) ;
#164 = ADVANCED_FACE ( 'NONE', ( #256 ), #159, .T. ) ;
#165 = DATE_AND_TIME ( #145, #233 ) ;
#166 = CARTESIAN_POINT ( 'NONE',  ( -23.09401076758526017, -20.00000000000000355, 40.00000000000000000 ) ) ;
#167 = ORIENTED_EDGE ( 'NONE', *, *, #197, .T. ) ;
#168 = PERSON_AND_ORGANIZATION_ROLE ( 'creator' ) ;
#169 = DESIGN_CONTEXT ( 'detailed design', #25, 'design' ) ;
#170 = AXIS2_PLACEMENT_3D ( 'NONE', #75, #52, #73 ) ;
#171 = ORIENTED_EDGE ( 'NONE', *, *, #197, .F. ) ;
#172 = PERSON_AND_ORGANIZATION ( #265, #76 ) ;
#173 = ORIENTED_EDGE ( 'NONE', *, *, #24, .F. ) ;
#174 = DATE_AND_TIME ( #156, #220 ) ;
#175 = DIRECTION ( 'NONE',  ( 0.8660254037844362651, 2.651438096812259522E-16, 0.5000000000000038858 ) ) ;
#176 = AXIS2_PLACEMENT_3D ( 'NONE', #140, #104, #246 ) ;
#177 = CARTESIAN_POINT ( 'NONE',  ( -23.09401076758488003, -19.99999999999998934, -39.99999999999997868 ) ) ;
#178 = CARTESIAN_POINT ( 'NONE',  ( 5.204170427930421283E-15, -20.00000000000000000, -3.469446951953614189E-15 ) ) ;
#179 = CARTESIAN_POINT ( 'NONE',  ( 23.09401076758491556, -19.99999999999998934, 40.00000000000000000 ) ) ;
#180 = PERSON_AND_ORGANIZATION ( #265, #76 ) ;
#181 = CYLINDRICAL_SURFACE ( 'NONE', #119, 20.00000000000000000 ) ;
#182 = DIRECTION ( 'NONE',  ( -0.4999999999999919509, -4.592425496802550306E-16, -0.8660254037844432595 ) ) ;
#183 = CC_DESIGN_PERSON_AND_ORGANIZATION_ASSIGNMENT ( #200, #225, ( #139 ) ) ;
#184 = APPROVAL_STATUS ( 'not_yet_approved' ) ;
#185 = APPROVAL_ROLE ( '' ) ;
#186 =( BOUNDED_CURVE ( )  B_SPLINE_CURVE ( 3, ( #245, #14, #58, #57 ),
 .UNSPECIFIED., .F., .T. ) 
 B_SPLINE_CURVE_WITH_KNOTS ( ( 4, 4 ),
 ( 4.712388980384689674, 7.853981633974482790 ),
 .UNSPECIFIED. ) 
 CURVE ( )  GEOMETRIC_REPRESENTATION_ITEM ( )  RATIONAL_B_SPLINE_CURVE ( ( 1.000000000000000000, 0.3333333333333333703, 0.3333333333333333703, 1.000000000000000000 ) ) 
 REPRESENTATION_ITEM ( '' )  );
#187 = PERSON_AND_ORGANIZATION ( #265, #76 ) ;
#188 = ADVANCED_FACE ( 'NONE', ( #216 ), #65, .T. ) ;
#189 = PERSON_AND_ORGANIZATION_ROLE ( 'creator' ) ;
#190 = PERSON_AND_ORGANIZATION_ROLE ( 'design_owner' ) ;
#191 = APPROVAL_PERSON_ORGANIZATION ( #263, #125, #185 ) ;
#192 = CC_DESIGN_DATE_AND_TIME_ASSIGNMENT ( #151, #81, ( #6 ) ) ;
#193 = LOCAL_TIME ( 15, 2, 8.000000000000000000, #252 ) ;
#194 = FACE_OUTER_BOUND ( 'NONE', #109, .T. ) ;
#195 = CC_DESIGN_DATE_AND_TIME_ASSIGNMENT ( #165, #99, ( #139 ) ) ;
#196 = COORDINATED_UNIVERSAL_TIME_OFFSET ( 1, 0, .AHEAD. ) ;
#197 = EDGE_CURVE ( 'NONE', #129, #226, #27, .T. ) ;
#198 = CARTESIAN_POINT ( 'NONE',  ( -23.09401076758489779, 19.99999999999997868, -39.99999999999997868 ) ) ;
#199 = DIRECTION ( 'NONE',  ( 0.8660254037844362651, 2.651438096812259522E-16, 0.5000000000000038858 ) ) ;
#200 = PERSON_AND_ORGANIZATION ( #265, #76 ) ;
#201 = FACE_OUTER_BOUND ( 'NONE', #62, .T. ) ;
#202 = CARTESIAN_POINT ( 'NONE',  ( 5.204170427930421283E-15, -20.00000000000000000, -3.469446951953614189E-15 ) ) ;
#203 = PRODUCT ( '3560', '3560', '', ( #224 ) ) ;
#204 = ORIENTED_EDGE ( 'NONE', *, *, #254, .F. ) ;
#205 = APPROVAL_STATUS ( 'not_yet_approved' ) ;
#206 =( BOUNDED_CURVE ( )  B_SPLINE_CURVE ( 3, ( #94, #37, #179, #114 ),
 .UNSPECIFIED., .F., .F. ) 
 B_SPLINE_CURVE_WITH_KNOTS ( ( 4, 4 ),
 ( 4.712388980384689674, 7.853981633974482790 ),
 .UNSPECIFIED. ) 
 CURVE ( )  GEOMETRIC_REPRESENTATION_ITEM ( )  RATIONAL_B_SPLINE_CURVE ( ( 1.000000000000000000, 0.3333333333333333703, 0.3333333333333333703, 1.000000000000000000 ) ) 
 REPRESENTATION_ITEM ( '' )  );
#207 = APPROVAL_ROLE ( '' ) ;
#208 = CARTESIAN_POINT ( 'NONE',  ( 0.000000000000000000, 0.000000000000000000, 0.000000000000000000 ) ) ;
#209 = CC_DESIGN_PERSON_AND_ORGANIZATION_ASSIGNMENT ( #217, #116, ( #230 ) ) ;
#210 = LOCAL_TIME ( 15, 2, 8.000000000000000000, #28 ) ;
#211 =( BOUNDED_CURVE ( )  B_SPLINE_CURVE ( 3, ( #34, #112, #266, #178 ),
 .UNSPECIFIED., .F., .F. ) 
 B_SPLINE_CURVE_WITH_KNOTS ( ( 4, 4 ),
 ( 4.712388980384689674, 7.853981633974482790 ),
 .UNSPECIFIED. ) 
 CURVE ( )  GEOMETRIC_REPRESENTATION_ITEM ( )  RATIONAL_B_SPLINE_CURVE ( ( 1.000000000000000000, 0.3333333333333333703, 0.3333333333333333703, 1.000000000000000000 ) ) 
 REPRESENTATION_ITEM ( '' )  );
#212 = CC_DESIGN_APPROVAL ( #47, ( #139 ) ) ;
#213 = APPROVAL_DATE_TIME ( #138, #47 ) ;
#214 = CALENDAR_DATE ( 2021, 29, 9 ) ;
#215 = ADVANCED_BREP_SHAPE_REPRESENTATION ( '3560', ( #232, #176 ), #235 ) ;
#216 = FACE_OUTER_BOUND ( 'NONE', #147, .T. ) ;
#217 = PERSON_AND_ORGANIZATION ( #265, #76 ) ;
#218 = FACE_OUTER_BOUND ( 'NONE', #29, .T. ) ;
#219 = CARTESIAN_POINT ( 'NONE',  ( -6.938893903907228378E-15, 20.00000000000000000, 0.000000000000000000 ) ) ;
#220 = LOCAL_TIME ( 15, 2, 8.000000000000000000, #1 ) ;
#221 = CARTESIAN_POINT ( 'NONE',  ( -6.938893903907228378E-15, 20.00000000000000000, 0.000000000000000000 ) ) ;
#222 = APPROVAL ( #205, 'UNSPECIFIED' ) ;
#223 = APPROVAL_DATE_TIME ( #174, #131 ) ;
#224 = MECHANICAL_CONTEXT ( 'NONE', #101, 'mechanical' ) ;
#225 = PERSON_AND_ORGANIZATION_ROLE ( 'classification_officer' ) ;
#226 = VERTEX_POINT ( 'NONE', #78 ) ;
#227 = SECURITY_CLASSIFICATION_LEVEL ( 'unclassified' ) ;
#228 = APPROVAL_STATUS ( 'not_yet_approved' ) ;
#229 = ADVANCED_FACE ( 'NONE', ( #201 ), #54, .T. ) ;
#230 = PRODUCT_DEFINITION_FORMATION_WITH_SPECIFIED_SOURCE ( 'ANY', '', #31, .NOT_KNOWN. ) ;
#231 = APPROVAL_PERSON_ORGANIZATION ( #247, #142, #144 ) ;
#232 = MANIFOLD_SOLID_BREP ( 'Kreismuster2', #67 ) ;
#233 = LOCAL_TIME ( 15, 2, 8.000000000000000000, #45 ) ;
#234 = APPROVAL_DATE_TIME ( #22, #222 ) ;
#235 =( GEOMETRIC_REPRESENTATION_CONTEXT ( 3 ) GLOBAL_UNCERTAINTY_ASSIGNED_CONTEXT ( ( #260 ) ) GLOBAL_UNIT_ASSIGNED_CONTEXT ( ( #59, #98, #117 ) ) REPRESENTATION_CONTEXT ( 'NONE', 'WORKASPACE' ) );
#236 = PRODUCT_RELATED_PRODUCT_CATEGORY ( 'detail', '', ( #203 ) ) ;
#237 = APPROVAL_DATE_TIME ( #11, #150 ) ;
#238 = CYLINDRICAL_SURFACE ( 'NONE', #64, 20.00000000000000711 ) ;
#239 = CC_DESIGN_DATE_AND_TIME_ASSIGNMENT ( #9, #120, ( #56 ) ) ;
#240 = CARTESIAN_POINT ( 'NONE',  ( -0.000000000000000000, 0.000000000000000000, 0.000000000000000000 ) ) ;
#241 = CC_DESIGN_SECURITY_CLASSIFICATION ( #139, ( #230 ) ) ;
#242 = DIRECTION ( 'NONE',  ( 0.4999999999999980016, -1.530808498934197734E-16, 0.8660254037844398178 ) ) ;
#243 = CALENDAR_DATE ( 2021, 29, 9 ) ;
#244 = CYLINDRICAL_SURFACE ( 'NONE', #170, 20.00000000000000000 ) ;
#245 = CARTESIAN_POINT ( 'NONE',  ( -6.938893903907228378E-15, 20.00000000000000000, 0.000000000000000000 ) ) ;
#246 = DIRECTION ( 'NONE',  ( 1.000000000000000000, 0.000000000000000000, 0.000000000000000000 ) ) ;
#247 = PERSON_AND_ORGANIZATION ( #265, #76 ) ;
#248 = APPROVAL_ROLE ( '' ) ;
#249 = PERSON_AND_ORGANIZATION ( #265, #76 ) ;
#250 = DATE_TIME_ROLE ( 'creation_date' ) ;
#251 = APPROVAL_ROLE ( '' ) ;
#252 = COORDINATED_UNIVERSAL_TIME_OFFSET ( 1, 0, .AHEAD. ) ;
#253 = CALENDAR_DATE ( 2021, 29, 9 ) ;
#254 = EDGE_CURVE ( 'NONE', #129, #226, #30, .T. ) ;
#255 = CALENDAR_DATE ( 2021, 29, 9 ) ;
#256 = FACE_OUTER_BOUND ( 'NONE', #36, .T. ) ;
#257 = CC_DESIGN_PERSON_AND_ORGANIZATION_ASSIGNMENT ( #187, #83, ( #31 ) ) ;
#258 = ORIENTED_EDGE ( 'NONE', *, *, #90, .F. ) ;
#259 = PERSON_AND_ORGANIZATION ( #265, #76 ) ;
#260 = UNCERTAINTY_MEASURE_WITH_UNIT (LENGTH_MEASURE( 1.000000000000000082E-05 ), #59, 'distance_accuracy_value', 'NONE');
#261 = CARTESIAN_POINT ( 'NONE',  ( -23.09401076758528149, 20.00000000000000000, 39.99999999999998579 ) ) ;
#262 = PRODUCT_RELATED_PRODUCT_CATEGORY ( 'detail', '', ( #31 ) ) ;
#263 = PERSON_AND_ORGANIZATION ( #265, #76 ) ;
#264 = PERSON_AND_ORGANIZATION ( #265, #76 ) ;
#265 = PERSON ( 'UNSPECIFIED', 'UNSPECIFIED', 'UNSPECIFIED', ('UNSPECIFIED'), ('UNSPECIFIED'), ('UNSPECIFIED') ) ;
#266 = CARTESIAN_POINT ( 'NONE',  ( -46.18802153517007980, -20.00000000000001066, -4.749521451286464742E-13 ) ) ;
#267 =( BOUNDED_CURVE ( )  B_SPLINE_CURVE ( 3, ( #202, #177, #198, #13 ),
 .UNSPECIFIED., .F., .T. ) 
 B_SPLINE_CURVE_WITH_KNOTS ( ( 4, 4 ),
 ( 1.570796326794896336, 4.712388980384688786 ),
 .UNSPECIFIED. ) 
 CURVE ( )  GEOMETRIC_REPRESENTATION_ITEM ( )  RATIONAL_B_SPLINE_CURVE ( ( 1.000000000000000000, 0.3333333333333337034, 0.3333333333333337034, 1.000000000000000000 ) ) 
 REPRESENTATION_ITEM ( '' )  );
ENDSEC;
END-ISO-10303-21;
