ISO-10303-21;
HEADER;
FILE_DESCRIPTION (( 'STEP AP203' ),
    '1' );
FILE_NAME ('3572-M8.STEP',
    '2022-03-21T07:35:29',
    ( '' ),
    ( '' ),
    'SwSTEP 2.0',
    'SolidWorks 2018',
    '' );
FILE_SCHEMA (( 'CONFIG_CONTROL_DESIGN' ));
ENDSEC;

DATA;
#1 = UNCERTAINTY_MEASURE_WITH_UNIT (LENGTH_MEASURE( 1.000000000000000082E-05 ), #112, 'distance_accuracy_value', 'NONE');
#2 = FACE_OUTER_BOUND ( 'NONE', #35, .T. ) ;
#3 = PRODUCT_DEFINITION_FORMATION_WITH_SPECIFIED_SOURCE ( 'ANY', '', #115, .NOT_KNOWN. ) ;
#4 = EDGE_LOOP ( 'NONE', ( #33 ) ) ;
#5 = AXIS2_PLACEMENT_3D ( 'NONE', #23, #84, #67 ) ;
#6 = DIRECTION ( 'NONE',  ( -0.000000000000000000, 1.000000000000000000, -0.000000000000000000 ) ) ;
#7 = DIRECTION ( 'NONE',  ( -0.000000000000000000, 1.000000000000000000, -0.000000000000000000 ) ) ;
#8 = PERSON_AND_ORGANIZATION_ROLE ( 'design_owner' ) ;
#9 = PERSON_AND_ORGANIZATION_ROLE ( 'design_supplier' ) ;
#10 = ORIENTED_EDGE ( 'NONE', *, *, #134, .T. ) ;
#11 = VERTEX_POINT ( 'NONE', #22 ) ;
#12 = EDGE_CURVE ( 'NONE', #11, #11, #101, .T. ) ;
#13 = CC_DESIGN_APPROVAL ( #58, ( #3 ) ) ;
#14 = CARTESIAN_POINT ( 'NONE',  ( 0.000000000000000000, -8.500000000000000000, 0.000000000000000000 ) ) ;
#15 = DIRECTION ( 'NONE',  ( -1.000000000000000000, 0.000000000000000000, 0.000000000000000000 ) ) ;
#16 = APPROVAL_ROLE ( '' ) ;
#17 = VERTEX_POINT ( 'NONE', #36 ) ;
#18 = SECURITY_CLASSIFICATION_LEVEL ( 'unclassified' ) ;
#19 = CALENDAR_DATE ( 2022, 21, 3 ) ;
#20 = CC_DESIGN_PERSON_AND_ORGANIZATION_ASSIGNMENT ( #104, #9, ( #3 ) ) ;
#21 = APPROVAL ( #38, 'UNSPECIFIED' ) ;
#22 = CARTESIAN_POINT ( 'NONE',  ( 0.000000000000000000, -8.500000000000000000, 3.399999999999995026 ) ) ;
#23 = CARTESIAN_POINT ( 'NONE',  ( 0.000000000000000000, -8.500000000000000000, 0.000000000000000000 ) ) ;
#24 = APPROVAL_DATE_TIME ( #73, #21 ) ;
#25 = DATE_TIME_ROLE ( 'creation_date' ) ;
#26 = DIRECTION ( 'NONE',  ( 0.000000000000000000, 0.000000000000000000, 1.000000000000000000 ) ) ;
#27 =( GEOMETRIC_REPRESENTATION_CONTEXT ( 3 ) GLOBAL_UNCERTAINTY_ASSIGNED_CONTEXT ( ( #1 ) ) GLOBAL_UNIT_ASSIGNED_CONTEXT ( ( #112, #51, #37 ) ) REPRESENTATION_CONTEXT ( 'NONE', 'WORKASPACE' ) );
#28 = ORIENTED_EDGE ( 'NONE', *, *, #134, .F. ) ;
#29 = PRODUCT_DEFINITION_SHAPE ( 'NONE', 'NONE',  #92 ) ;
#30 = CALENDAR_DATE ( 2022, 21, 3 ) ;
#31 = CC_DESIGN_APPROVAL ( #21, ( #92 ) ) ;
#32 = PERSON ( 'UNSPECIFIED', 'UNSPECIFIED', 'UNSPECIFIED', ('UNSPECIFIED'), ('UNSPECIFIED'), ('UNSPECIFIED') ) ;
#33 = ORIENTED_EDGE ( 'NONE', *, *, #12, .T. ) ;
#34 = DIRECTION ( 'NONE',  ( 0.000000000000000000, 0.000000000000000000, 1.000000000000000000 ) ) ;
#35 = EDGE_LOOP ( 'NONE', ( #10 ) ) ;
#36 = CARTESIAN_POINT ( 'NONE',  ( 0.000000000000000000, 12.02871564216230382, -3.399999999999996803 ) ) ;
#37 =( NAMED_UNIT ( * ) SI_UNIT ( $, .STERADIAN. ) SOLID_ANGLE_UNIT ( ) );
#38 = APPROVAL_STATUS ( 'not_yet_approved' ) ;
#39 = SHAPE_DEFINITION_REPRESENTATION ( #29, #97 ) ;
#40 = APPROVAL ( #132, 'UNSPECIFIED' ) ;
#41 = LOCAL_TIME ( 8, 35, 29.00000000000000000, #52 ) ;
#42 = CALENDAR_DATE ( 2022, 21, 3 ) ;
#43 = APPROVAL_PERSON_ORGANIZATION ( #117, #58, #122 ) ;
#44 = CC_DESIGN_APPROVAL ( #40, ( #96 ) ) ;
#45 = DIRECTION ( 'NONE',  ( -0.000000000000000000, 1.000000000000000000, -0.000000000000000000 ) ) ;
#46 = PERSON_AND_ORGANIZATION ( #32, #54 ) ;
#47 = DATE_TIME_ROLE ( 'classification_date' ) ;
#48 = CC_DESIGN_PERSON_AND_ORGANIZATION_ASSIGNMENT ( #46, #88, ( #96 ) ) ;
#49 = APPROVAL_ROLE ( '' ) ;
#50 = APPROVAL_PERSON_ORGANIZATION ( #81, #40, #16 ) ;
#51 =( NAMED_UNIT ( * ) PLANE_ANGLE_UNIT ( ) SI_UNIT ( $, .RADIAN. ) );
#52 = COORDINATED_UNIVERSAL_TIME_OFFSET ( 1, 0, .AHEAD. ) ;
#53 = PRODUCT_RELATED_PRODUCT_CATEGORY ( 'detail', '', ( #115 ) ) ;
#54 = ORGANIZATION ( 'UNSPECIFIED', 'UNSPECIFIED', '' ) ;
#55 = EDGE_LOOP ( 'NONE', ( #28 ) ) ;
#56 = LOCAL_TIME ( 8, 35, 29.00000000000000000, #105 ) ;
#57 = APPLICATION_PROTOCOL_DEFINITION ( 'international standard', 'config_control_design', 1994, #99 ) ;
#58 = APPROVAL ( #69, 'UNSPECIFIED' ) ;
#59 = CARTESIAN_POINT ( 'NONE',  ( 0.000000000000000000, 12.02871564216230382, 0.000000000000000000 ) ) ;
#60 = PERSON_AND_ORGANIZATION_ROLE ( 'creator' ) ;
#61 = AXIS2_PLACEMENT_3D ( 'NONE', #59, #45, #86 ) ;
#62 = PERSON_AND_ORGANIZATION ( #32, #54 ) ;
#63 = MANIFOLD_SOLID_BREP ( 'M8 Gewindebohrung1', #106 ) ;
#64 = DATE_AND_TIME ( #42, #93 ) ;
#65 = AXIS2_PLACEMENT_3D ( 'NONE', #68, #26, #78 ) ;
#66 = PERSON_AND_ORGANIZATION ( #32, #54 ) ;
#67 = DIRECTION ( 'NONE',  ( 0.000000000000000000, 0.000000000000000000, 1.000000000000000000 ) ) ;
#68 = CARTESIAN_POINT ( 'NONE',  ( 0.000000000000000000, 0.000000000000000000, 0.000000000000000000 ) ) ;
#69 = APPROVAL_STATUS ( 'not_yet_approved' ) ;
#70 = LOCAL_TIME ( 8, 35, 29.00000000000000000, #113 ) ;
#71 = APPLICATION_PROTOCOL_DEFINITION ( 'international standard', 'config_control_design', 1994, #98 ) ;
#72 = CC_DESIGN_PERSON_AND_ORGANIZATION_ASSIGNMENT ( #119, #60, ( #3 ) ) ;
#73 = DATE_AND_TIME ( #95, #70 ) ;
#74 = APPROVAL_DATE_TIME ( #64, #58 ) ;
#75 = ADVANCED_FACE ( 'NONE', ( #114 ), #79, .F. ) ;
#76 = ADVANCED_FACE ( 'NONE', ( #2, #120 ), #123, .F. ) ;
#77 = DIRECTION ( 'NONE',  ( -0.000000000000000000, -0.000000000000000000, -1.000000000000000000 ) ) ;
#78 = DIRECTION ( 'NONE',  ( 1.000000000000000000, 0.000000000000000000, 0.000000000000000000 ) ) ;
#79 = CONICAL_SURFACE ( 'NONE', #5, 3.399999999999995026, 1.029744258676652313 ) ;
#80 = SPHERICAL_SURFACE ( 'NONE', #128, 12.50000000000000000 ) ;
#81 = PERSON_AND_ORGANIZATION ( #32, #54 ) ;
#82 = PERSON_AND_ORGANIZATION ( #32, #54 ) ;
#83 = DESIGN_CONTEXT ( 'detailed design', #98, 'design' ) ;
#84 = DIRECTION ( 'NONE',  ( -0.000000000000000000, 1.000000000000000000, -0.000000000000000000 ) ) ;
#85 = ORIENTED_EDGE ( 'NONE', *, *, #12, .F. ) ;
#86 = DIRECTION ( 'NONE',  ( 0.000000000000000000, 0.000000000000000000, -1.000000000000000000 ) ) ;
#87 = CIRCLE ( 'NONE', #61, 3.399999999999996803 ) ;
#88 = PERSON_AND_ORGANIZATION_ROLE ( 'classification_officer' ) ;
#89 = APPROVAL_DATE_TIME ( #125, #40 ) ;
#90 = FACE_OUTER_BOUND ( 'NONE', #55, .T. ) ;
#91 = ADVANCED_FACE ( 'NONE', ( #90 ), #80, .T. ) ;
#92 = PRODUCT_DEFINITION ( 'UNKNOWN', '', #3, #83 ) ;
#93 = LOCAL_TIME ( 8, 35, 29.00000000000000000, #133 ) ;
#94 = DIRECTION ( 'NONE',  ( 0.000000000000000000, 0.000000000000000000, 1.000000000000000000 ) ) ;
#95 = CALENDAR_DATE ( 2022, 21, 3 ) ;
#96 = SECURITY_CLASSIFICATION ( '', '', #18 ) ;
#97 = ADVANCED_BREP_SHAPE_REPRESENTATION ( '3572-M8', ( #63, #65 ), #27 ) ;
#98 = APPLICATION_CONTEXT ( 'configuration controlled 3d designs of mechanical parts and assemblies' ) ;
#99 = APPLICATION_CONTEXT ( 'configuration controlled 3d designs of mechanical parts and assemblies' ) ;
#100 = LOCAL_TIME ( 8, 35, 29.00000000000000000, #102 ) ;
#101 = CIRCLE ( 'NONE', #111, 3.399999999999995026 ) ;
#102 = COORDINATED_UNIVERSAL_TIME_OFFSET ( 1, 0, .AHEAD. ) ;
#103 = CC_DESIGN_PERSON_AND_ORGANIZATION_ASSIGNMENT ( #66, #8, ( #115 ) ) ;
#104 = PERSON_AND_ORGANIZATION ( #32, #54 ) ;
#105 = COORDINATED_UNIVERSAL_TIME_OFFSET ( 1, 0, .AHEAD. ) ;
#106 = CLOSED_SHELL ( 'NONE', ( #91, #75, #76 ) ) ;
#107 = AXIS2_PLACEMENT_3D ( 'NONE', #127, #7, #34 ) ;
#108 = CARTESIAN_POINT ( 'NONE',  ( 0.000000000000000000, 0.000000000000000000, 0.000000000000000000 ) ) ;
#109 = DATE_AND_TIME ( #30, #56 ) ;
#110 = DATE_AND_TIME ( #135, #41 ) ;
#111 = AXIS2_PLACEMENT_3D ( 'NONE', #14, #6, #94 ) ;
#112 =( LENGTH_UNIT ( ) NAMED_UNIT ( * ) SI_UNIT ( .MILLI., .METRE. ) );
#113 = COORDINATED_UNIVERSAL_TIME_OFFSET ( 1, 0, .AHEAD. ) ;
#114 = FACE_OUTER_BOUND ( 'NONE', #4, .T. ) ;
#115 = PRODUCT ( '3572-M8', '3572-M8', '', ( #121 ) ) ;
#116 = CC_DESIGN_DATE_AND_TIME_ASSIGNMENT ( #109, #25, ( #92 ) ) ;
#117 = PERSON_AND_ORGANIZATION ( #32, #54 ) ;
#118 = CC_DESIGN_PERSON_AND_ORGANIZATION_ASSIGNMENT ( #82, #130, ( #92 ) ) ;
#119 = PERSON_AND_ORGANIZATION ( #32, #54 ) ;
#120 = FACE_OUTER_BOUND ( 'NONE', #129, .T. ) ;
#121 = MECHANICAL_CONTEXT ( 'NONE', #99, 'mechanical' ) ;
#122 = APPROVAL_ROLE ( '' ) ;
#123 = CYLINDRICAL_SURFACE ( 'NONE', #107, 3.399999999999996803 ) ;
#124 = CC_DESIGN_DATE_AND_TIME_ASSIGNMENT ( #110, #47, ( #96 ) ) ;
#125 = DATE_AND_TIME ( #19, #100 ) ;
#126 = APPROVAL_PERSON_ORGANIZATION ( #62, #21, #49 ) ;
#127 = CARTESIAN_POINT ( 'NONE',  ( 0.000000000000000000, 12.50000000000000000, 0.000000000000000000 ) ) ;
#128 = AXIS2_PLACEMENT_3D ( 'NONE', #108, #77, #15 ) ;
#129 = EDGE_LOOP ( 'NONE', ( #85 ) ) ;
#130 = PERSON_AND_ORGANIZATION_ROLE ( 'creator' ) ;
#131 = CC_DESIGN_SECURITY_CLASSIFICATION ( #96, ( #3 ) ) ;
#132 = APPROVAL_STATUS ( 'not_yet_approved' ) ;
#133 = COORDINATED_UNIVERSAL_TIME_OFFSET ( 1, 0, .AHEAD. ) ;
#134 = EDGE_CURVE ( 'NONE', #17, #17, #87, .T. ) ;
#135 = CALENDAR_DATE ( 2022, 21, 3 ) ;
ENDSEC;
END-ISO-10303-21;
