  0
SECTION
  2
HEADER
  9
$ACADVER
  1
AC1015
  9
$ACADMAINTVER
 70
     6
  9
$DWGCODEPAGE
  3
ANSI_1252
  9
$INSBASE
 10
0.0
 20
0.0
 30
0.0
  9
$EXTMIN
 10
0.0
 20
0.0
 30
0.0
  9
$EXTMAX
 10
297.0
 20
210.0
 30
0.0
  9
$LIMMIN
 10
0.0
 20
0.0
  9
$LIMMAX
 10
297.0
 20
210.0
  9
$ORTHOMODE
 70
     0
  9
$REGENMODE
 70
     1
  9
$FILLMODE
 70
     1
  9
$QTEXTMODE
 70
     0
  9
$MIRRTEXT
 70
     1
  9
$LTSCALE
 40
1.0
  9
$ATTMODE
 70
     1
  9
$TEXTSIZE
 40
3.5
  9
$TRACEWID
 40
1.0
  9
$TEXTSTYLE
  7
Standard
  9
$CLAYER
  8
0
  9
$CELTYPE
  6
ByLayer
  9
$CECOLOR
 62
   256
  9
$CELTSCALE
 40
1.0
  9
$DISPSILH
 70
     0
  9
$DIMSCALE
 40
1.0
  9
$DIMASZ
 40
3.302
  9
$DIMEXO
 40
1.0
  9
$DIMDLI
 40
3.75
  9
$DIMRND
 40
0.0
  9
$DIMDLE
 40
0.0
  9
$DIMEXE
 40
1.0
  9
$DIMTP
 40
0.0
  9
$DIMTM
 40
0.0
  9
$DIMTXT
 40
3.5
  9
$DIMCEN
 40
2.5
  9
$DIMTSZ
 40
0.0
  9
$DIMTOL
 70
     0
  9
$DIMLIM
 70
     0
  9
$DIMTIH
 70
     1
  9
$DIMTOH
 70
     1
  9
$DIMSE1
 70
     0
  9
$DIMSE2
 70
     0
  9
$DIMTAD
 70
     1
  9
$DIMZIN
 70
     0
  9
$DIMBLK
  1

  9
$DIMASO
 70
     1
  9
$DIMSHO
 70
     1
  9
$DIMPOST
  1

  9
$DIMAPOST
  1

  9
$DIMALT
 70
     0
  9
$DIMALTD
 70
     3
  9
$DIMALTF
 40
0.0393700787
  9
$DIMLFAC
 40
1.0
  9
$DIMTOFL
 70
     1
  9
$DIMTVP
 40
0.0
  9
$DIMTIX
 70
     0
  9
$DIMSOXD
 70
     0
  9
$DIMSAH
 70
     0
  9
$DIMBLK1
  1

  9
$DIMBLK2
  1

  9
$DIMSTYLE
  2
ISO-25
  9
$DIMCLRD
 70
     0
  9
$DIMCLRE
 70
     0
  9
$DIMCLRT
 70
     0
  9
$DIMTFAC
 40
1.0
  9
$DIMGAP
 40
1.524
  9
$DIMJUST
 70
     0
  9
$DIMSD1
 70
     0
  9
$DIMSD2
 70
     0
  9
$DIMTOLJ
 70
     0
  9
$DIMTZIN
 70
     0
  9
$DIMALTZ
 70
     0
  9
$DIMALTTZ
 70
     0
  9
$DIMUPT
 70
     0
  9
$DIMDEC
 70
     2
  9
$DIMTDEC
 70
     2
  9
$DIMALTU
 70
     2
  9
$DIMALTTD
 70
     3
  9
$DIMTXSTY
  7
Standard
  9
$DIMAUNIT
 70
     0
  9
$DIMADEC
 70
     2
  9
$DIMALTRND
 40
0.0
  9
$DIMAZIN
 70
     0
  9
$DIMDSEP
 70
    44
  9
$DIMATFIT
 70
     3
  9
$DIMFRAC
 70
     0
  9
$DIMLDRBLK
  1

  9
$DIMLUNIT
 70
     2
  9
$DIMLWD
 70
    -2
  9
$DIMLWE
 70
    -2
  9
$DIMTMOVE
 70
     0
  9
$LUNITS
 70
     2
  9
$LUPREC
 70
     2
  9
$SKETCHINC
 40
1.0
  9
$FILLETRAD
 40
10.0
  9
$AUNITS
 70
     0
  9
$AUPREC
 70
     2
  9
$MENU
  1
.
  9
$ELEVATION
 40
0.0
  9
$PELEVATION
 40
0.0
  9
$THICKNESS
 40
0.0
  9
$LIMCHECK
 70
     0
  9
$CHAMFERA
 40
0.0
  9
$CHAMFERB
 40
0.0
  9
$CHAMFERC
 40
0.0
  9
$CHAMFERD
 40
0.0
  9
$SKPOLY
 70
     0
  9
$TDCREATE
 40
2456944.456744641
  9
$TDUCREATE
 40
2456944.373411308
  9
$TDUPDATE
 40
2456944.45674647
  9
$TDUUPDATE
 40
2456944.373413137
  9
$TDINDWG
 40
0.0000000116
  9
$TDUSRTIMER
 40
0.0000000116
  9
$USRTIMER
 70
     1
  9
$ANGBASE
 50
0.0
  9
$ANGDIR
 70
     0
  9
$PDMODE
 70
     0
  9
$PDSIZE
 40
-1.0
  9
$PLINEWID
 40
0.0
  9
$SPLFRAME
 70
     0
  9
$SPLINETYPE
 70
     6
  9
$SPLINESEGS
 70
     8
  9
$HANDSEED
  5
213
  9
$SURFTAB1
 70
     6
  9
$SURFTAB2
 70
     6
  9
$SURFTYPE
 70
     6
  9
$SURFU
 70
     6
  9
$SURFV
 70
     6
  9
$UCSBASE
  2

  9
$UCSNAME
  2

  9
$UCSORG
 10
0.0
 20
0.0
 30
0.0
  9
$UCSXDIR
 10
1.0
 20
0.0
 30
0.0
  9
$UCSYDIR
 10
0.0
 20
1.0
 30
0.0
  9
$UCSORTHOREF
  2

  9
$UCSORTHOVIEW
 70
     0
  9
$UCSORGTOP
 10
0.0
 20
0.0
 30
0.0
  9
$UCSORGBOTTOM
 10
0.0
 20
0.0
 30
0.0
  9
$UCSORGLEFT
 10
0.0
 20
0.0
 30
0.0
  9
$UCSORGRIGHT
 10
0.0
 20
0.0
 30
0.0
  9
$UCSORGFRONT
 10
0.0
 20
0.0
 30
0.0
  9
$UCSORGBACK
 10
0.0
 20
0.0
 30
0.0
  9
$PUCSBASE
  2

  9
$PUCSNAME
  2

  9
$PUCSORG
 10
0.0
 20
0.0
 30
0.0
  9
$PUCSXDIR
 10
1.0
 20
0.0
 30
0.0
  9
$PUCSYDIR
 10
0.0
 20
1.0
 30
0.0
  9
$PUCSORTHOREF
  2

  9
$PUCSORTHOVIEW
 70
     0
  9
$PUCSORGTOP
 10
0.0
 20
0.0
 30
0.0
  9
$PUCSORGBOTTOM
 10
0.0
 20
0.0
 30
0.0
  9
$PUCSORGLEFT
 10
0.0
 20
0.0
 30
0.0
  9
$PUCSORGRIGHT
 10
0.0
 20
0.0
 30
0.0
  9
$PUCSORGFRONT
 10
0.0
 20
0.0
 30
0.0
  9
$PUCSORGBACK
 10
0.0
 20
0.0
 30
0.0
  9
$USERI1
 70
     0
  9
$USERI2
 70
     0
  9
$USERI3
 70
     0
  9
$USERI4
 70
     0
  9
$USERI5
 70
     0
  9
$USERR1
 40
0.0
  9
$USERR2
 40
0.0
  9
$USERR3
 40
0.0
  9
$USERR4
 40
0.0
  9
$USERR5
 40
0.0
  9
$WORLDVIEW
 70
     1
  9
$SHADEDGE
 70
     3
  9
$SHADEDIF
 70
    70
  9
$TILEMODE
 70
     1
  9
$MAXACTVP
 70
    64
  9
$PINSBASE
 10
0.0
 20
0.0
 30
0.0
  9
$PLIMCHECK
 70
     0
  9
$PEXTMIN
 10
1.0000000000E+20
 20
1.0000000000E+20
 30
1.0000000000E+20
  9
$PEXTMAX
 10
-1.0000000000E+20
 20
-1.0000000000E+20
 30
-1.0000000000E+20
  9
$PLIMMIN
 10
0.0
 20
0.0
  9
$PLIMMAX
 10
420.0
 20
297.0
  9
$UNITMODE
 70
     0
  9
$VISRETAIN
 70
     1
  9
$PLINEGEN
 70
     0
  9
$PSLTSCALE
 70
     1
  9
$TREEDEPTH
 70
  3020
  9
$CMLSTYLE
  2
Standard
  9
$CMLJUST
 70
     0
  9
$CMLSCALE
 40
20.0
  9
$PROXYGRAPHICS
 70
     1
  9
$MEASUREMENT
 70
     1
  9
$CELWEIGHT
370
    -1
  9
$ENDCAPS
280
     0
  9
$JOINSTYLE
280
     0
  9
$LWDISPLAY
290
     1
  9
$INSUNITS
 70
     4
  9
$HYPERLINKBASE
  1

  9
$STYLESHEET
  1

  9
$XEDIT
290
     1
  9
$CEPSNTYPE
380
     0
  9
$PSTYLEMODE
290
     1
  9
$FINGERPRINTGUID
  2
{74F66AF9-D9AF-487D-8A8C-1094707412A7}
  9
$VERSIONGUID
  2
{FAEB1C32-E019-11D5-929B-00C0DF256EC4}
  9
$EXTNAMES
290
     1
  9
$PSVPSCALE
 40
0.0
  9
$OLESTARTUP
290
     0
  0
ENDSEC
  0
SECTION
  2
CLASSES
  0
CLASS
  1
ACDBDICTIONARYWDFLT
  2
AcDbDictionaryWithDefault
  3
ObjectDBX Classes
 90
        0
280
     0
281
     0
  0
CLASS
  1
VISUALSTYLE
  2
AcDbVisualStyle
  3
ObjectDBX Classes
 90
     4095
280
     0
281
     0
  0
CLASS
  1
MATERIAL
  2
AcDbMaterial
  3
ObjectDBX Classes
 90
     1153
280
     0
281
     0
  0
CLASS
  1
SCALE
  2
AcDbScale
  3
ObjectDBX Classes
 90
     1153
280
     0
281
     0
  0
CLASS
  1
SUN
  2
AcDbSun
  3
SCENEOE
 90
     1153
280
     0
281
     0
  0
CLASS
  1
ACDBPLACEHOLDER
  2
AcDbPlaceHolder
  3
ObjectDBX Classes
 90
        0
280
     0
281
     0
  0
CLASS
  1
LAYOUT
  2
AcDbLayout
  3
ObjectDBX Classes
 90
        0
280
     0
281
     0
  0
ENDSEC
  0
SECTION
  2
TABLES
  0
TABLE
  2
VPORT
  5
8
330
0
100
AcDbSymbolTable
 70
     1
  0
VPORT
  5
29
330
8
100
AcDbSymbolTableRecord
100
AcDbViewportTableRecord
  2
*Active
 70
     0
 10
0.0
 20
0.0
 11
1.0
 21
1.0
 12
148.5
 22
105.0
 13
0.0
 23
0.0
 14
10.0
 24
10.0
 15
10.0
 25
10.0
 16
0.0
 26
0.0
 36
1.0
 17
0.0
 27
0.0
 37
0.0
 40
210.0
 41
1.4142857143
 42
50.0
 43
0.0
 44
0.0
 50
0.0
 51
0.0
 71
     0
 72
  2000
 73
     1
 74
     3
 75
     0
 76
     0
 77
     0
 78
     0
281
     0
 65
     1
110
0.0
120
0.0
130
0.0
111
1.0
121
0.0
131
0.0
112
0.0
122
1.0
132
0.0
 79
     0
146
0.0
  0
ENDTAB
  0
TABLE
  2
LTYPE
  5
5
330
0
100
AcDbSymbolTable
 70
     6
  0
LTYPE
  5
14
330
5
100
AcDbSymbolTableRecord
100
AcDbLinetypeTableRecord
  2
ByBlock
 70
     0
  3

 72
    65
 73
     0
 40
0.0
  0
LTYPE
  5
15
330
5
100
AcDbSymbolTableRecord
100
AcDbLinetypeTableRecord
  2
ByLayer
 70
     0
  3

 72
    65
 73
     0
 40
0.0
  0
LTYPE
  5
16
330
5
100
AcDbSymbolTableRecord
100
AcDbLinetypeTableRecord
  2
Continuous
 70
     0
  3
Solid line
 72
    65
 73
     0
 40
0.0
  0
LTYPE
  5
6A
330
5
100
AcDbSymbolTableRecord
100
AcDbLinetypeTableRecord
  2
HIDDEN
 70
     0
  3
Hidden __ __ __ __ __ __ __ __ __ __ __ __ __ __
 72
    65
 73
     2
 40
1.905
 49
1.27
 74
     0
 49
-0.635
 74
     0
  0
LTYPE
  5
6B
330
5
100
AcDbSymbolTableRecord
100
AcDbLinetypeTableRecord
  2
PHANTOM
 70
     0
  3
Phantom ______  __  __  ______  __  __  ______
 72
    65
 73
     6
 40
12.7
 49
6.35
 74
     0
 49
-1.27
 74
     0
 49
1.27
 74
     0
 49
-1.27
 74
     0
 49
1.27
 74
     0
 49
-1.27
 74
     0
  0
LTYPE
  5
6C
330
5
100
AcDbSymbolTableRecord
100
AcDbLinetypeTableRecord
  2
CENTER
 70
     0
  3
Center ____ _ ____ _ ____ _ ____ _ ____ _ ____
 72
    65
 73
     4
 40
10.16
 49
6.35
 74
     0
 49
-1.27
 74
     0
 49
1.27
 74
     0
 49
-1.27
 74
     0
  0
LTYPE
  5
6D
330
5
100
AcDbSymbolTableRecord
100
AcDbLinetypeTableRecord
  2
CENTERX2
 70
     0
  3
Center (2x) ________  __  ________  __  _____
 72
    65
 73
     4
 40
20.32
 49
12.7
 74
     0
 49
-2.54
 74
     0
 49
2.54
 74
     0
 49
-2.54
 74
     0
  0
LTYPE
  5
6E
330
5
100
AcDbSymbolTableRecord
100
AcDbLinetypeTableRecord
  2
DOT2
 70
     0
  3
Dot (.5x) ........................................
 72
    65
 73
     2
 40
0.635
 49
0.0
 74
     0
 49
-0.635
 74
     0
  0
ENDTAB
  0
TABLE
  2
LAYER
  5
2
330
0
100
AcDbSymbolTable
 70
     2
  0
LAYER
  5
10
330
2
100
AcDbSymbolTableRecord
100
AcDbLayerTableRecord
  2
0
 70
     0
 62
     7
  6
Continuous
370
    -3
390
F
  0
LAYER
  5
6F
330
2
100
AcDbSymbolTableRecord
100
AcDbLayerTableRecord
  2
FORMAT
 70
     0
 62
     7
  6
Continuous
370
    -3
390
F
  0
ENDTAB
  0
TABLE
  2
STYLE
  5
3
330
0
100
AcDbSymbolTable
 70
     3
  0
STYLE
  5
11
330
3
100
AcDbSymbolTableRecord
100
AcDbTextStyleTableRecord
  2
Standard
 70
     0
 40
0.0
 41
1.0
 50
0.0
 71
     0
 42
3.5
  3
txt
  4

  0
STYLE
  5
8C
330
3
100
AcDbSymbolTableRecord
100
AcDbTextStyleTableRecord
  2
SLDTEXTSTYLE0
 70
     0
 40
0.0
 41
0.75
 50
0.0
 71
     0
 42
3.5
  3
TXT
  4

  0
STYLE
  5
94
330
3
100
AcDbSymbolTableRecord
100
AcDbTextStyleTableRecord
  2
SLDTEXTSTYLE1
 70
     0
 40
0.0
 41
0.6923076923
 50
0.0
 71
     0
 42
3.5
  3
TXT
  4

  0
ENDTAB
  0
TABLE
  2
VIEW
  5
6
330
0
100
AcDbSymbolTable
 70
     0
  0
ENDTAB
  0
TABLE
  2
UCS
  5
7
330
0
100
AcDbSymbolTable
 70
     0
  0
ENDTAB
  0
TABLE
  2
APPID
  5
9
330
0
100
AcDbSymbolTable
 70
     1
  0
APPID
  5
12
330
9
100
AcDbSymbolTableRecord
100
AcDbRegAppTableRecord
  2
ACAD
 70
     0
  0
ENDTAB
  0
TABLE
  2
DIMSTYLE
  5
A
330
0
100
AcDbSymbolTable
 70
     1
100
AcDbDimStyleTable
  0
DIMSTYLE
105
27
330
A
100
AcDbSymbolTableRecord
100
AcDbDimStyleTableRecord
  2
ISO-25
 70
     0
 41
2.5
 42
0.625
 43
3.75
 44
1.25
 73
     0
 74
     0
 77
     1
 78
     8
140
2.5
141
2.5
143
0.0393700787
147
0.625
171
     3
172
     1
178
     0
271
     2
272
     2
274
     3
278
    44
283
     0
284
     8
340
11
  0
ENDTAB
  0
TABLE
  2
BLOCK_RECORD
  5
1
330
0
100
AcDbSymbolTable
 70
     3
  0
BLOCK_RECORD
  5
1F
330
1
100
AcDbSymbolTableRecord
100
AcDbBlockTableRecord
  2
*Model_Space
340
22
  0
BLOCK_RECORD
  5
1B
330
1
100
AcDbSymbolTableRecord
100
AcDbBlockTableRecord
  2
*Paper_Space
340
1E
  0
BLOCK_RECORD
  5
23
330
1
100
AcDbSymbolTableRecord
100
AcDbBlockTableRecord
  2
*Paper_Space0
340
26
  0
BLOCK_RECORD
  5
B1
330
1
100
AcDbSymbolTableRecord
100
AcDbBlockTableRecord
  2
SW_CENTERMARKSYMBOL_0
340
0
102
{BLKREFS
331
BC
102
}
  0
BLOCK_RECORD
  5
183
330
1
100
AcDbSymbolTableRecord
100
AcDbBlockTableRecord
  2
SW_CENTERMARKSYMBOL_1
340
0
102
{BLKREFS
331
18E
102
}
  0
ENDTAB
  0
ENDSEC
  0
SECTION
  2
BLOCKS
  0
BLOCK
  5
20
330
1F
100
AcDbEntity
  8
0
100
AcDbBlockBegin
  2
*Model_Space
 70
     0
 10
0.0
 20
0.0
 30
0.0
  3
*Model_Space
  1
*Model_Space
  0
ENDBLK
  5
21
330
1F
100
AcDbEntity
  8
0
100
AcDbBlockEnd
  0
BLOCK
  5
1C
330
1B
100
AcDbEntity
 67
     1
  8
0
100
AcDbBlockBegin
  2
*Paper_Space
 70
     0
 10
0.0
 20
0.0
 30
0.0
  3
*Paper_Space
  1
*Paper_Space
  0
ENDBLK
  5
1D
330
1B
100
AcDbEntity
 67
     1
  8
0
100
AcDbBlockEnd
  0
BLOCK
  5
24
330
23
100
AcDbEntity
  8
0
100
AcDbBlockBegin
  2
*Paper_Space0
 70
     0
 10
0.0
 20
0.0
 30
0.0
  3
*Paper_Space0
  1
*Paper_Space0
  0
ENDBLK
  5
25
330
23
100
AcDbEntity
  8
0
100
AcDbBlockEnd
  0
BLOCK
  5
B2
330
B1
100
AcDbEntity
  8
0
100
AcDbBlockBegin
  2
SW_CENTERMARKSYMBOL_0
 70
     0
 10
0.0
 20
0.0
 30
0.0
  3
SW_CENTERMARKSYMBOL_0
  1
SW_CENTERMARKSYMBOL_0
  0
LINE
  5
B4
330
B1
100
AcDbEntity
  8
0
  6
Continuous
 62
     0
370
     0
100
AcDbLine
 10
0.0
 20
0.0
 30
0.0
 11
0.0
 21
2.5
 31
0.0
  0
LINE
  5
B5
330
B1
100
AcDbEntity
  8
0
  6
Continuous
 62
     0
370
     0
100
AcDbLine
 10
0.0
 20
0.0
 30
0.0
 11
-2.5
 21
0.0
 31
0.0
  0
LINE
  5
B6
330
B1
100
AcDbEntity
  8
0
  6
Continuous
 62
     0
370
     0
100
AcDbLine
 10
0.0
 20
0.0
 30
0.0
 11
0.0
 21
-2.5
 31
0.0
  0
LINE
  5
B7
330
B1
100
AcDbEntity
  8
0
  6
Continuous
 62
     0
370
     0
100
AcDbLine
 10
0.0
 20
0.0
 30
0.0
 11
2.5
 21
0.0
 31
0.0
  0
LINE
  5
B8
330
B1
100
AcDbEntity
  8
0
  6
Continuous
 62
     0
370
     0
100
AcDbLine
 10
0.0
 20
5.0
 30
0.0
 11
0.0
 21
28.5
 31
0.0
  0
LINE
  5
B9
330
B1
100
AcDbEntity
  8
0
  6
Continuous
 62
     0
370
     0
100
AcDbLine
 10
-5.0
 20
0.0
 30
0.0
 11
-28.5
 21
0.0
 31
0.0
  0
LINE
  5
BA
330
B1
100
AcDbEntity
  8
0
  6
Continuous
 62
     0
370
     0
100
AcDbLine
 10
0.0
 20
-5.0
 30
0.0
 11
0.0
 21
-28.5
 31
0.0
  0
LINE
  5
BB
330
B1
100
AcDbEntity
  8
0
  6
Continuous
 62
     0
370
     0
100
AcDbLine
 10
5.0
 20
0.0
 30
0.0
 11
28.5
 21
0.0
 31
0.0
  0
ENDBLK
  5
B3
330
B1
100
AcDbEntity
  8
0
100
AcDbBlockEnd
  0
BLOCK
  5
184
330
183
100
AcDbEntity
  8
0
100
AcDbBlockBegin
  2
SW_CENTERMARKSYMBOL_1
 70
     0
 10
0.0
 20
0.0
 30
0.0
  3
SW_CENTERMARKSYMBOL_1
  1
SW_CENTERMARKSYMBOL_1
  0
LINE
  5
186
330
183
100
AcDbEntity
  8
0
  6
Continuous
 62
     0
370
     0
100
AcDbLine
 10
0.0
 20
0.0
 30
0.0
 11
0.0
 21
2.5
 31
0.0
  0
LINE
  5
187
330
183
100
AcDbEntity
  8
0
  6
Continuous
 62
     0
370
     0
100
AcDbLine
 10
0.0
 20
0.0
 30
0.0
 11
-2.5
 21
0.0
 31
0.0
  0
LINE
  5
188
330
183
100
AcDbEntity
  8
0
  6
Continuous
 62
     0
370
     0
100
AcDbLine
 10
0.0
 20
0.0
 30
0.0
 11
0.0
 21
-2.5
 31
0.0
  0
LINE
  5
189
330
183
100
AcDbEntity
  8
0
  6
Continuous
 62
     0
370
     0
100
AcDbLine
 10
0.0
 20
0.0
 30
0.0
 11
2.5
 21
0.0
 31
0.0
  0
LINE
  5
18A
330
183
100
AcDbEntity
  8
0
  6
Continuous
 62
     0
370
     0
100
AcDbLine
 10
0.0
 20
5.0
 30
0.0
 11
0.0
 21
28.5
 31
0.0
  0
LINE
  5
18B
330
183
100
AcDbEntity
  8
0
  6
Continuous
 62
     0
370
     0
100
AcDbLine
 10
-5.0
 20
0.0
 30
0.0
 11
-28.5
 21
0.0
 31
0.0
  0
LINE
  5
18C
330
183
100
AcDbEntity
  8
0
  6
Continuous
 62
     0
370
     0
100
AcDbLine
 10
0.0
 20
-5.0
 30
0.0
 11
0.0
 21
-28.5
 31
0.0
  0
LINE
  5
18D
330
183
100
AcDbEntity
  8
0
  6
Continuous
 62
     0
370
     0
100
AcDbLine
 10
5.0
 20
0.0
 30
0.0
 11
28.5
 21
0.0
 31
0.0
  0
ENDBLK
  5
185
330
183
100
AcDbEntity
  8
0
100
AcDbBlockEnd
  0
ENDSEC
  0
SECTION
  2
ENTITIES
  0
LINE
  5
70
330
1F
100
AcDbEntity
  8
0
  6
Continuous
 62
     7
370
     0
100
AcDbLine
 10
292.0
 20
205.0
 30
0.0
 11
292.0
 21
5.0
 31
0.0
  0
LINE
  5
71
330
1F
100
AcDbEntity
  8
0
  6
Continuous
 62
     7
370
     0
100
AcDbLine
 10
159.4
 20
34.75
 30
0.0
 11
174.13
 21
34.75
 31
0.0
  0
LINE
  5
72
330
1F
100
AcDbEntity
  8
0
  6
Continuous
 62
     7
370
     0
100
AcDbLine
 10
203.6
 20
34.75
 30
0.0
 11
292.0
 21
34.75
 31
0.0
  0
LINE
  5
73
330
1F
100
AcDbEntity
  8
0
  6
Continuous
 62
     7
370
     0
100
AcDbLine
 10
159.4
 20
9.25
 30
0.0
 11
292.0
 21
9.25
 31
0.0
  0
LINE
  5
74
330
1F
100
AcDbEntity
  8
0
  6
Continuous
 62
     7
370
     0
100
AcDbLine
 10
159.4
 20
34.75
 30
0.0
 11
159.4
 21
28.375
 31
0.0
  0
LINE
  5
75
330
1F
100
AcDbEntity
  8
0
  6
Continuous
 62
     7
370
     0
100
AcDbLine
 10
292.0
 20
22.0
 30
0.0
 11
279.0
 21
22.0
 31
0.0
  0
LINE
  5
76
330
1F
100
AcDbEntity
  8
0
  6
Continuous
 62
     7
370
     0
100
AcDbLine
 10
188.86
 20
22.0
 30
0.0
 11
203.6
 21
22.0
 31
0.0
  0
LINE
  5
77
330
1F
100
AcDbEntity
  8
0
  6
Continuous
 62
     7
370
     0
100
AcDbLine
 10
203.6
 20
34.75
 30
0.0
 11
203.6
 21
5.0
 31
0.0
  0
LINE
  5
78
330
1F
100
AcDbEntity
  8
0
  6
Continuous
 62
     7
370
     0
100
AcDbLine
 10
247.8
 20
5.0
 30
0.0
 11
247.8
 21
9.25
 31
0.0
  0
LINE
  5
79
330
1F
100
AcDbEntity
  8
0
  6
Continuous
 62
     7
370
     0
100
AcDbLine
 10
174.13
 20
34.75
 30
0.0
 11
188.86
 21
34.75
 31
0.0
  0
LINE
  5
7A
330
1F
100
AcDbEntity
  8
0
  6
Continuous
 62
     7
370
     0
100
AcDbLine
 10
279.0
 20
9.25
 30
0.0
 11
279.0
 21
15.4949693602
 31
0.0
  0
LINE
  5
7B
330
1F
100
AcDbEntity
  8
0
  6
Continuous
 62
     7
370
     0
100
AcDbLine
 10
188.86
 20
34.75
 30
0.0
 11
203.6
 21
34.75
 31
0.0
  0
LINE
  5
7C
330
1F
100
AcDbEntity
  8
0
  6
Continuous
 62
     7
370
     0
100
AcDbLine
 10
292.0
 20
15.4949693602
 30
0.0
 11
279.0
 21
15.4949693602
 31
0.0
  0
LINE
  5
7D
330
1F
100
AcDbEntity
  8
0
  6
Continuous
 62
     7
370
     0
100
AcDbLine
 10
203.6
 20
22.0
 30
0.0
 11
279.0
 21
22.0
 31
0.0
  0
LINE
  5
7E
330
1F
100
AcDbEntity
  8
0
  6
Continuous
 62
     7
370
     0
100
AcDbLine
 10
188.86
 20
34.75
 30
0.0
 11
188.86
 21
22.0
 31
0.0
  0
LINE
  5
7F
330
1F
100
AcDbEntity
  8
0
  6
Continuous
 62
     7
370
     0
100
AcDbLine
 10
188.86
 20
22.0
 30
0.0
 11
174.13
 21
22.0
 31
0.0
  0
LINE
  5
80
330
1F
100
AcDbEntity
  8
0
  6
Continuous
 62
     7
370
     0
100
AcDbLine
 10
292.0
 20
205.0
 30
0.0
 11
5.0
 21
205.0
 31
0.0
  0
LINE
  5
81
330
1F
100
AcDbEntity
  8
0
  6
Continuous
 62
     7
370
     0
100
AcDbLine
 10
5.0
 20
205.0
 30
0.0
 11
5.0
 21
5.0
 31
0.0
  0
LINE
  5
82
330
1F
100
AcDbEntity
  8
0
  6
Continuous
 62
     7
370
     0
100
AcDbLine
 10
5.0
 20
5.0
 30
0.0
 11
292.0
 21
5.0
 31
0.0
  0
LINE
  5
83
330
1F
100
AcDbEntity
  8
0
  6
Continuous
 62
     7
370
     0
100
AcDbLine
 10
174.13
 20
22.0
 30
0.0
 11
174.13
 21
34.75
 31
0.0
  0
LINE
  5
84
330
1F
100
AcDbEntity
  8
0
  6
Continuous
 62
     7
370
     0
100
AcDbLine
 10
174.13
 20
22.0
 30
0.0
 11
159.4
 21
22.0
 31
0.0
  0
LINE
  5
85
330
1F
100
AcDbEntity
  8
0
  6
Continuous
 62
     7
370
     0
100
AcDbLine
 10
279.0
 20
15.4949693602
 30
0.0
 11
279.0
 21
22.0
 31
0.0
  0
LINE
  5
86
330
1F
100
AcDbEntity
  8
0
  6
Continuous
 62
     7
370
     0
100
AcDbLine
 10
159.4
 20
28.375
 30
0.0
 11
174.13
 21
28.375
 31
0.0
  0
LINE
  5
87
330
1F
100
AcDbEntity
  8
0
  6
Continuous
 62
     7
370
     0
100
AcDbLine
 10
174.13
 20
28.375
 30
0.0
 11
188.86
 21
28.375
 31
0.0
  0
LINE
  5
88
330
1F
100
AcDbEntity
  8
0
  6
Continuous
 62
     7
370
     0
100
AcDbLine
 10
188.86
 20
28.375
 30
0.0
 11
203.6
 21
28.375
 31
0.0
  0
LINE
  5
89
330
1F
100
AcDbEntity
  8
0
  6
Continuous
 62
     7
370
     0
100
AcDbLine
 10
159.4
 20
22.0
 30
0.0
 11
159.4
 21
28.375
 31
0.0
  0
LINE
  5
8A
330
1F
100
AcDbEntity
  8
0
  6
Continuous
 62
     7
370
     0
100
AcDbLine
 10
159.4
 20
22.0
 30
0.0
 11
159.4
 21
9.25
 31
0.0
  0
LINE
  5
8B
330
1F
100
AcDbEntity
  8
0
  6
Continuous
 62
     7
370
     0
100
AcDbLine
 10
159.4
 20
5.0
 30
0.0
 11
159.4
 21
9.25
 31
0.0
  0
MTEXT
  5
8D
330
1F
100
AcDbEntity
  8
0
  6
Continuous
 62
     7
370
     0
100
AcDbMText
 10
280.2769372799
 20
19.4324449477
 30
0.0
 40
1.5
 41
0.0
 71
     1
 72
     1
  1
Blattformat
  7
SLDTEXTSTYLE0
 73
     1
 44
1.0
  0
MTEXT
  5
8E
330
1F
100
AcDbEntity
  8
0
  6
Continuous
 62
     7
370
     0
100
AcDbMText
 10
162.3642408927
 20
25.8749304694
 30
0.0
 40
1.5
 41
0.0
 71
     1
 72
     1
  1
Ch. Höfig
  7
SLDTEXTSTYLE0
 73
     1
 44
1.0
  0
MTEXT
  5
8F
330
1F
100
AcDbEntity
  8
0
  6
Continuous
 62
     7
370
     0
100
AcDbMText
 10
166.7761978259
 20
32.2182056354
 30
0.0
 40
1.5
 41
0.0
 71
     2
 72
     1
  1
Name
  7
SLDTEXTSTYLE0
 73
     1
 44
1.0
  0
MTEXT
  5
90
330
1F
100
AcDbEntity
  8
0
  6
Continuous
 62
     7
370
     0
100
AcDbMText
 10
160.4458623088
 20
20.9860562892
 30
0.0
 40
1.5
 41
0.0
 71
     1
 72
     1
  1
Werkstoff:
  7
SLDTEXTSTYLE0
 73
     1
 44
1.0
  0
MTEXT
  5
91
330
1F
100
AcDbEntity
  8
0
  6
Continuous
 62
     7
370
     0
100
AcDbMText
 10
204.8649859034
 20
32.246101463
 30
0.0
 40
1.5
 41
0.0
 71
     1
 72
     1
  1
Artikelnummer
  7
SLDTEXTSTYLE0
 73
     1
 44
1.0
  0
MTEXT
  5
92
330
1F
100
AcDbEntity
  8
0
  6
Continuous
 62
     7
370
     0
100
AcDbMText
 10
204.8739661175
 20
19.868637827
 30
0.0
 40
1.5
 41
0.0
 71
     1
 72
     1
  1
Hersteller
  7
SLDTEXTSTYLE0
 73
     1
 44
1.0
  0
MTEXT
  5
93
330
1F
100
AcDbEntity
  8
0
  6
Continuous
 62
     7
370
     0
100
AcDbMText
 10
204.8739661175
 20
7.9000872745
 30
0.0
 40
1.5
 41
0.0
 71
     1
 72
     1
  1
Massstab: 1:1
  7
SLDTEXTSTYLE0
 73
     1
 44
1.0
  0
MTEXT
  5
95
330
1F
100
AcDbEntity
  8
0
  6
Continuous
 62
     7
370
     0
100
AcDbMText
 10
249.2782944278
 20
7.9000872745
 30
0.0
 40
1.5
 41
0.0
 71
     1
 72
     1
  1
Blatt 1 von 1
  7
SLDTEXTSTYLE1
 73
     1
 44
1.0
  0
MTEXT
  5
96
330
1F
100
AcDbEntity
  8
0
  6
Continuous
 62
     7
370
     0
100
AcDbMText
 10
283.018201252
 20
14.214493588
 30
0.0
 40
2.9104166667
 41
0.0
 71
     1
 72
     1
  1
A4
  7
SLDTEXTSTYLE0
 73
     1
 44
1.0
  0
MTEXT
  5
97
330
1F
100
AcDbEntity
  8
0
  6
Continuous
 62
     7
370
     0
100
AcDbMText
 10
244.7857210818
 20
18.2877193736
 30
0.0
 40
5.2916666667
 41
0.0
 71
     2
 72
     1
  1
Feldmann GmbH
  7
SLDTEXTSTYLE0
 73
     1
 44
1.0
  0
MTEXT
  5
98
330
1F
100
AcDbEntity
  8
0
  6
Continuous
 62
     7
370
     0
100
AcDbMText
 10
196.2543489966
 20
32.2182056354
 30
0.0
 40
1.5
 41
0.0
 71
     2
 72
     1
  1
Datum
  7
SLDTEXTSTYLE0
 73
     1
 44
1.0
  0
MTEXT
  5
99
330
1F
100
AcDbEntity
  8
0
  6
Continuous
 62
     7
370
     0
100
AcDbMText
 10
180.0267509503
 20
25.8749304694
 30
0.0
 40
1.5
 41
0.0
 71
     1
 72
     1
  1
CH
  7
SLDTEXTSTYLE0
 73
     1
 44
1.0
  0
MTEXT
  5
9A
330
1F
100
AcDbEntity
  8
0
  6
Continuous
 62
     7
370
     0
100
AcDbMText
 10
191.3972993064
 20
25.8769670829
 30
0.0
 40
1.5
 41
0.0
 71
     1
 72
     1
  1
13.10.2014
  7
SLDTEXTSTYLE0
 73
     1
 44
1.0
  0
MTEXT
  5
9B
330
1F
100
AcDbEntity
  8
0
  6
Continuous
 62
     7
370
     0
100
AcDbMText
 10
181.5766666583
 20
7.872191447
 30
0.0
 40
1.5
 41
0.0
 71
     2
 72
     1
  1
Gewicht 0.035 kg
  7
SLDTEXTSTYLE0
 73
     1
 44
1.0
  0
MTEXT
  5
9C
330
1F
100
AcDbEntity
  8
0
  6
Continuous
 62
     7
370
     0
100
AcDbMText
 10
181.5165895434
 20
15.452418595
 30
0.0
 40
2.1166666667
 41
0.0
 71
     2
 72
     1
  1
1.0037 (S235JR)
  7
SLDTEXTSTYLE0
 73
     1
 44
1.0
  0
MTEXT
  5
9D
330
1F
100
AcDbEntity
  8
0
  6
Continuous
 62
     7
370
     0
100
AcDbMText
 10
230.5061663659
 20
29.393250804
 30
0.0
 40
4.2333333333
 41
0.0
 71
     2
 72
     1
  1
54252-ST
  7
SLDTEXTSTYLE0
 73
     1
 44
1.0
  0
MTEXT
  5
9E
330
1F
100
AcDbEntity
  8
0
  6
Continuous
 62
     7
370
     0
100
AcDbMText
 10
181.7530017825
 20
32.0187940875
 30
0.0
 40
1.5
 41
0.0
 71
     2
 72
     1
  1
Signatur
  7
SLDTEXTSTYLE0
 73
     1
 44
1.0
  0
ARC
  5
9F
330
1F
100
AcDbEntity
  8
0
  6
Continuous
 62
     7
370
    15
100
AcDbCircle
 10
59.2724673404
 20
105.7775061991
 30
0.0
 40
59.33333333333349
100
AcDbArc
 50
64.0107664162
 51
115.9892335838
  0
LINE
  5
A0
330
1F
100
AcDbEntity
  8
0
  6
Continuous
 62
     7
370
    15
100
AcDbLine
 10
85.2724678768
 20
157.1108395324
 30
0.0
 11
85.2724678768
 21
159.1108396274
 31
0.0
  0
LINE
  5
A1
330
1F
100
AcDbEntity
  8
0
  6
Continuous
 62
     7
370
    15
100
AcDbLine
 10
33.2724668039
 20
159.1108396274
 30
0.0
 11
33.2724668039
 21
157.1108395324
 31
0.0
  0
LINE
  5
A2
330
1F
100
AcDbEntity
  8
0
  6
Continuous
 62
     7
370
    15
100
AcDbLine
 10
85.2724678768
 20
159.1108396274
 30
0.0
 11
33.2724668039
 21
159.1108396274
 31
0.0
  0
LINE
  5
A3
330
1F
100
AcDbEntity
  8
0
  6
Continuous
 62
     7
370
    15
100
AcDbLine
 10
85.2724678768
 20
157.1108395324
 30
0.0
 11
33.2724668039
 21
157.1108395324
 31
0.0
  0
ARC
  5
A4
330
1F
100
AcDbEntity
  8
0
  6
Continuous
 62
     7
370
    15
100
AcDbCircle
 10
142.1298531002
 20
105.7775061991
 30
0.0
 40
59.33333333333348
100
AcDbArc
 50
64.0107664162
 51
115.9892335838
  0
LINE
  5
A5
330
1F
100
AcDbEntity
  8
0
  6
Continuous
 62
     7
370
    15
100
AcDbLine
 10
168.1298536366
 20
157.1108395324
 30
0.0
 11
168.1298536366
 21
159.1108396274
 31
0.0
  0
LINE
  5
A6
330
1F
100
AcDbEntity
  8
0
  6
Continuous
 62
     7
370
    15
100
AcDbLine
 10
116.1298525638
 20
159.1108396274
 30
0.0
 11
116.1298525638
 21
157.1108395324
 31
0.0
  0
LINE
  5
A7
330
1F
100
AcDbEntity
  8
0
  6
Continuous
 62
     7
370
    15
100
AcDbLine
 10
168.1298536366
 20
159.1108396274
 30
0.0
 11
116.1298525638
 21
159.1108396274
 31
0.0
  0
LINE
  5
A8
330
1F
100
AcDbEntity
  8
0
  6
Continuous
 62
     7
370
    15
100
AcDbLine
 10
168.1298536366
 20
157.1108395324
 30
0.0
 11
116.1298525638
 21
157.1108395324
 31
0.0
  0
LINE
  5
A9
330
1F
100
AcDbEntity
  8
0
  6
PHANTOM
 62
     7
370
    30
100
AcDbLine
 10
142.1298531002
 20
167.1108395324
 30
0.0
 11
142.1298531002
 21
155.1108395324
 31
0.0
  0
LINE
  5
AA
330
1F
100
AcDbEntity
  8
0
  6
Continuous
 62
     7
370
    30
100
AcDbLine
 10
154.8298531002
 20
165.1108395324
 30
0.0
 11
142.1298531002
 21
165.1108395324
 31
0.0
  0
SOLID
  5
AB
330
1F
100
AcDbEntity
  8
0
  6
Continuous
 62
     7
370
    30
100
AcDbTrace
 10
142.1298531002
 20
165.1108395324
 30
0.0
 11
148.4798531002
 21
164.0948395324
 31
0.0
 12
148.4798531002
 22
166.1268395324
 32
0.0
 13
148.4798531002
 23
166.1268395324
 33
0.0
  0
LINE
  5
AC
330
1F
100
AcDbEntity
  8
0
  6
Continuous
 62
     7
370
    30
100
AcDbLine
 10
154.8298531002
 20
157.1108395324
 30
0.0
 11
142.1298531002
 21
157.1108395324
 31
0.0
  0
SOLID
  5
AD
330
1F
100
AcDbEntity
  8
0
  6
Continuous
 62
     7
370
    30
100
AcDbTrace
 10
142.1298531002
 20
157.1108395324
 30
0.0
 11
148.4798531002
 21
156.0948395324
 31
0.0
 12
148.4798531002
 22
158.1268395324
 32
0.0
 13
148.4798531002
 23
158.1268395324
 33
0.0
  0
MTEXT
  5
AE
330
1F
100
AcDbEntity
  8
0
  6
Continuous
 62
     7
100
AcDbMText
 10
151.3789795614
 20
170.6672922423
 30
0.0
 40
3.5
 41
0.0
 71
     1
 72
     1
  1
A
  7
SLDTEXTSTYLE0
 73
     1
 44
1.0
  0
MTEXT
  5
AF
330
1F
100
AcDbEntity
  8
0
  6
Continuous
 62
     7
100
AcDbMText
 10
151.3789795614
 20
162.6672922423
 30
0.0
 40
3.5
 41
0.0
 71
     1
 72
     1
  1
A
  7
SLDTEXTSTYLE0
 73
     1
 44
1.0
  0
CIRCLE
  5
B0
330
1F
100
AcDbEntity
  8
0
  6
Continuous
 62
     7
370
    15
100
AcDbCircle
 10
59.2724673404
 20
97.6020191286
 30
0.0
 40
26.00000000000004
  0
INSERT
  5
BC
330
1F
100
AcDbEntity
  8
0
  6
Continuous
 62
     7
370
     0
100
AcDbBlockReference
  2
SW_CENTERMARKSYMBOL_0
 10
59.2724673404
 20
97.6020191286
 30
0.0
  0
LINE
  5
BD
330
1F
100
AcDbEntity
  8
0
  6
Continuous
 62
     7
370
    15
100
AcDbLine
 10
136.0495246133
 20
101.2351585077
 30
0.0
 11
136.0495246133
 21
99.8783209352
 31
0.0
  0
LINE
  5
BE
330
1F
100
AcDbEntity
  8
0
  6
Continuous
 62
     7
370
    15
100
AcDbLine
 10
135.9308014742
 20
101.2351585077
 30
0.0
 11
136.0495246133
 21
101.2351585077
 31
0.0
  0
LINE
  5
BF
330
1F
100
AcDbEntity
  8
0
  6
Continuous
 62
     7
370
    15
100
AcDbLine
 10
135.9308014742
 20
99.8783209352
 30
0.0
 11
135.9308014742
 21
101.2351585077
 31
0.0
  0
LINE
  5
C0
330
1F
100
AcDbEntity
  8
0
  6
Continuous
 62
     7
370
    15
100
AcDbLine
 10
136.0495246133
 20
99.8783209352
 30
0.0
 11
135.9308014742
 21
99.8783209352
 31
0.0
  0
LINE
  5
C1
330
1F
100
AcDbEntity
  8
0
  6
Continuous
 62
     7
370
    15
100
AcDbLine
 10
137.3045991293
 20
101.2351585077
 30
0.0
 11
137.3045991293
 21
99.8783209352
 31
0.0
  0
LINE
  5
C2
330
1F
100
AcDbEntity
  8
0
  6
Continuous
 62
     7
370
    15
100
AcDbLine
 10
137.1858759901
 20
101.2351585077
 30
0.0
 11
137.3045991293
 21
101.2351585077
 31
0.0
  0
LINE
  5
C3
330
1F
100
AcDbEntity
  8
0
  6
Continuous
 62
     7
370
    15
100
AcDbLine
 10
137.1858759901
 20
100.6579725644
 30
0.0
 11
137.1858759901
 21
101.2351585077
 31
0.0
  0
SPLINE
  5
C4
330
1F
100
AcDbEntity
  8
0
  6
Continuous
 62
     7
370
    15
100
AcDbSpline
210
0.0
220
0.0
230
1.0
 70
     8
 71
     3
 72
    13
 73
     9
 74
     0
 42
0.000000001
 43
0.00000001
 40
0.0
 40
0.0
 40
0.0
 40
0.0
 40
0.1258379911236292
 40
0.2514455326078393
 40
0.5008796772316434
 40
0.7495616797227709
 40
0.8675522881730763
 40
1.0
 40
1.0
 40
1.0
 40
1.0
 10
137.185876070286
 20
100.6579725444168
 30
0.0
 10
137.1739488811347
 20
100.6731113553876
 30
0.0
 10
137.1501163453329
 20
100.7033612533208
 30
0.0
 10
137.0969865547471
 20
100.7588119941386
 30
0.0
 10
137.0181740953201
 20
100.8145511644074
 30
0.0
 10
136.9286229310712
 20
100.8471790095893
 30
0.0
 10
136.8531670558432
 20
100.8590821061226
 30
0.0
 10
136.8149413914512
 20
100.8610090890193
 30
0.0
 10
136.7947252289399
 20
100.8620282001326
 30
0.0
  0
SPLINE
  5
C5
330
1F
100
AcDbEntity
  8
0
  6
Continuous
 62
     7
370
    15
100
AcDbSpline
210
0.0
220
0.0
230
1.0
 70
     8
 71
     3
 72
    14
 73
    10
 74
     0
 42
0.000000001
 43
0.00000001
 40
0.0
 40
0.0
 40
0.0
 40
0.0
 40
0.0631740476050283
 40
0.1262697185963918
 40
0.2512399003948347
 40
0.500644744182952
 40
0.7499748105220513
 40
0.8746931454660581
 40
1.0
 40
1.0
 40
1.0
 40
1.0
 10
136.7947252289399
 20
100.8620282001326
 30
0.0
 10
136.7781878764955
 20
100.8614401930407
 30
0.0
 10
136.7451336886029
 20
100.8602649083656
 30
0.0
 10
136.6797015136693
 20
100.8523863046707
 30
0.0
 10
136.568827205606
 20
100.8199676282164
 30
0.0
 10
136.4297394408765
 20
100.7264980140979
 30
0.0
 10
136.3314038332944
 20
100.5900729799062
 30
0.0
 10
136.2928703861392
 20
100.4631409998228
 30
0.0
 10
136.2889406492093
 20
100.3973282415761
 30
0.0
 10
136.286971155756
 20
100.3643444060621
 30
0.0
  0
SPLINE
  5
C6
330
1F
100
AcDbEntity
  8
0
  6
Continuous
 62
     7
370
    15
100
AcDbSpline
210
0.0
220
0.0
230
1.0
 70
     8
 71
     3
 72
    15
 73
    11
 74
     0
 42
0.000000001
 43
0.00000001
 40
0.0
 40
0.0
 40
0.0
 40
0.0
 40
0.0631422650363527
 40
0.126011627198782
 40
0.2510427220141888
 40
0.5001527499656209
 40
0.6647521219005542
 40
0.8288727640530786
 40
0.9107790107874032
 40
1.0
 40
1.0
 40
1.0
 40
1.0
 10
136.286971155756
 20
100.3643444060621
 30
0.0
 10
136.2875149001605
 20
100.3476788867258
 30
0.0
 10
136.2886000388889
 20
100.314419876957
 30
0.0
 10
136.2972117507829
 20
100.248610939198
 30
0.0
 10
136.3301113478944
 20
100.1371865862096
 30
0.0
 10
136.4141010371699
 20
100.0176342809357
 30
0.0
 10
136.5344999977411
 20
99.92280590854475
 30
0.0
 10
136.6356875922498
 20
99.88066951729593
 30
0.0
 10
136.72262600749
 20
99.86490978180827
 30
0.0
 10
136.7675782664535
 20
99.86257681119112
 30
0.0
 10
136.7910151261086
 20
99.86136046508985
 30
0.0
  0
SPLINE
  5
C7
330
1F
100
AcDbEntity
  8
0
  6
Continuous
 62
     7
370
    15
100
AcDbSpline
210
0.0
220
0.0
230
1.0
 70
     8
 71
     3
 72
    14
 73
    10
 74
     0
 42
0.000000001
 43
0.00000001
 40
0.0
 40
0.0
 40
0.0
 40
0.0
 40
0.125393872167339
 40
0.2505472503517623
 40
0.3102224735190986
 40
0.5000350494923083
 40
0.7491715664440805
 40
0.874458100981126
 40
1.0
 40
1.0
 40
1.0
 40
1.0
 10
136.7910151261086
 20
99.86136046508985
 30
0.0
 10
136.8098427006015
 20
99.86186143114854
 30
0.0
 10
136.8474617400205
 20
99.86286240245884
 30
0.0
 10
136.8936406838563
 20
99.86986995845582
 30
0.0
 10
136.9484716185788
 20
99.8824641382687
 30
0.0
 10
137.019524990527
 20
99.90731591454124
 30
0.0
 10
137.0927313287999
 20
99.95215436019309
 30
0.0
 10
137.1480683665045
 20
100.0033300998557
 30
0.0
 10
137.1732649516099
 20
100.0314608667377
 30
0.0
 10
137.185876070286
 20
100.0455405699242
 30
0.0
  0
LINE
  5
C8
330
1F
100
AcDbEntity
  8
0
  6
Continuous
 62
     7
370
    15
100
AcDbLine
 10
137.1858759901
 20
99.8783209352
 30
0.0
 11
137.1858759901
 21
100.0455405728
 31
0.0
  0
LINE
  5
C9
330
1F
100
AcDbEntity
  8
0
  6
Continuous
 62
     7
370
    15
100
AcDbLine
 10
137.3045991293
 20
99.8783209352
 30
0.0
 11
137.1858759901
 21
99.8783209352
 31
0.0
  0
LINE
  5
CA
330
1F
100
AcDbEntity
  8
0
  6
Continuous
 62
     7
370
    15
100
AcDbLine
 10
141.3920726279
 20
100.3720296421
 30
0.0
 11
141.3920726279
 21
99.8783209352
 31
0.0
  0
SPLINE
  5
CB
330
1F
100
AcDbEntity
  8
0
  6
Continuous
 62
     7
370
    15
100
AcDbSpline
210
0.0
220
0.0
230
1.0
 70
     8
 71
     3
 72
    15
 73
    11
 74
     0
 42
0.000000001
 43
0.00000001
 40
0.0
 40
0.0
 40
0.0
 40
0.0
 40
0.1280928155293928
 40
0.2507334349086583
 40
0.3757441985466563
 40
0.5006227500770372
 40
0.6256222432744546
 40
0.750559532531455
 40
0.8750580080431265
 40
1.0
 40
1.0
 40
1.0
 40
1.0
 10
141.3920726514826
 20
100.3720296190696
 30
0.0
 10
141.391712630257
 20
100.4016537757015
 30
0.0
 10
141.3910079118999
 20
100.459641153978
 30
0.0
 10
141.3827997678125
 20
100.5461886527671
 30
0.0
 10
141.3660349545258
 20
100.6310763457739
 30
0.0
 10
141.3292080884277
 20
100.7107119655569
 30
0.0
 10
141.2719820442403
 20
100.7771918395496
 30
0.0
 10
141.1999100968197
 20
100.8266660114564
 30
0.0
 10
141.117263239814
 20
100.8562725547024
 30
0.0
 10
141.0595237229538
 20
100.8601073788255
 30
0.0
 10
141.030602632786
 20
100.8620282001326
 30
0.0
  0
SPLINE
  5
CC
330
1F
100
AcDbEntity
  8
0
  6
Continuous
 62
     7
370
    15
100
AcDbSpline
210
0.0
220
0.0
230
1.0
 70
     8
 71
     3
 72
    14
 73
    10
 74
     0
 42
0.000000001
 43
0.00000001
 40
0.0
 40
0.0
 40
0.0
 40
0.0
 40
0.0631091603262527
 40
0.1256836893580557
 40
0.2507917302381711
 40
0.4999017461472749
 40
0.7491594026873273
 40
0.874480101172487
 40
1.0
 40
1.0
 40
1.0
 40
1.0
 10
141.030602632786
 20
100.8620282001326
 30
0.0
 10
141.0215507509093
 20
100.861742688778
 30
0.0
 10
141.0035236704663
 20
100.8611740847874
 30
0.0
 10
140.9676056134107
 20
100.8586042656093
 30
0.0
 10
140.9056996996657
 20
100.8478961183601
 30
0.0
 10
140.8207400992009
 20
100.8166906500989
 30
0.0
 10
140.746931074081
 20
100.7641921253855
 30
0.0
 10
140.6967789452973
 20
100.7126886250879
 30
0.0
 10
140.6741139399666
 20
100.6846988821925
 30
0.0
 10
140.6627724378073
 20
100.6706928969809
 30
0.0
  0
LINE
  5
CD
330
1F
100
AcDbEntity
  8
0
  6
Continuous
 62
     7
370
    15
100
AcDbLine
 10
140.6627724298
 20
100.8450677027
 30
0.0
 11
140.6627724298
 21
100.6706929174
 31
0.0
  0
LINE
  5
CE
330
1F
100
AcDbEntity
  8
0
  6
Continuous
 62
     7
370
    15
100
AcDbLine
 10
140.5440491742
 20
100.8450677027
 30
0.0
 11
140.6627724298
 21
100.8450677027
 31
0.0
  0
SPLINE
  5
CF
330
1F
100
AcDbEntity
  8
0
  6
Continuous
 62
     7
370
    15
100
AcDbSpline
210
0.0
220
0.0
230
1.0
 70
    24
 71
     3
 72
    10
 73
     6
 74
     0
 42
0.000000001
 43
0.00000001
 40
0.0
 40
0.0
 40
0.0
 40
0.0
 40
0.4999994442044844
 40
0.7499997221022392
 40
1.0
 40
1.0
 40
1.0
 40
1.0
 10
140.5440491472091
 20
100.8450677300471
 30
0.0
 10
140.5440491472091
 20
100.6839521106851
 30
0.0
 10
140.5440491472091
 20
100.4422785025471
 30
0.0
 10
140.5440491472091
 20
100.1200188711217
 30
0.0
 10
140.5440491472091
 20
99.95888691382412
 30
0.0
 10
140.5440491472091
 20
99.87832093517532
 30
0.0
  0
LINE
  5
D0
330
1F
100
AcDbEntity
  8
0
  6
Continuous
 62
     7
370
    15
100
AcDbLine
 10
140.6627724298
 20
99.8783209352
 30
0.0
 11
140.5440491742
 21
99.8783209352
 31
0.0
  0
LINE
  5
D1
330
1F
100
AcDbEntity
  8
0
  6
Continuous
 62
     7
370
    15
100
AcDbLine
 10
140.6627724298
 20
100.2278656224
 30
0.0
 11
140.6627724298
 21
99.8783209352
 31
0.0
  0
SPLINE
  5
D2
330
1F
100
AcDbEntity
  8
0
  6
Continuous
 62
     7
370
    15
100
AcDbSpline
210
0.0
220
0.0
230
1.0
 70
     8
 71
     3
 72
    10
 73
     6
 74
     0
 42
0.000000001
 43
0.00000001
 40
0.0
 40
0.0
 40
0.0
 40
0.0
 40
0.5001106462962357
 40
0.7501595521943009
 40
0.9999999999999999
 40
0.9999999999999999
 40
0.9999999999999999
 40
0.9999999999999999
 10
140.6627724378073
 20
100.2278656233431
 30
0.0
 10
140.6632908493671
 20
100.2712817825597
 30
0.0
 10
140.6640684600548
 20
100.3364054642832
 30
0.0
 10
140.6691610500904
 20
100.4232335028575
 30
0.0
 10
140.6770934157302
 20
100.4659556489058
 30
0.0
 10
140.6810579446182
 20
100.4873078141817
 30
0.0
  0
SPLINE
  5
D3
330
1F
100
AcDbEntity
  8
0
  6
Continuous
 62
     7
370
    15
100
AcDbSpline
210
0.0
220
0.0
230
1.0
 70
     8
 71
     3
 72
    13
 73
     9
 74
     0
 42
0.000000001
 43
0.00000001
 40
0.0
 40
0.0
 40
0.0
 40
0.0
 40
0.1324881180071014
 40
0.2509616895022795
 40
0.500956072604093
 40
0.750193349631591
 40
0.8691566704309842
 40
1.0
 40
1.0
 40
1.0
 40
1.0
 10
140.6810579446182
 20
100.4873078141817
 30
0.0
 10
140.6872485656039
 20
100.5060610850568
 30
0.0
 10
140.6989749658654
 20
100.5415839124113
 30
0.0
 10
140.735459712877
 20
100.6070642150836
 30
0.0
 10
140.799856581906
 20
100.6746799124883
 30
0.0
 10
140.880927289548
 20
100.721504987875
 30
0.0
 10
140.9532893230091
 20
100.7401292722322
 30
0.0
 10
140.9904618781346
 20
100.742213326768
 30
0.0
 10
141.0099320598693
 20
100.7433049095343
 30
0.0
  0
SPLINE
  5
D4
330
1F
100
AcDbEntity
  8
0
  6
Continuous
 62
     7
370
    15
100
AcDbSpline
210
0.0
220
0.0
230
1.0
 70
     8
 71
     3
 72
    12
 73
     8
 74
     0
 42
0.000000001
 43
0.00000001
 40
0.0
 40
0.0
 40
0.0
 40
0.0
 40
0.1256203327781367
 40
0.2509674450115197
 40
0.500980214296633
 40
0.7502890150481105
 40
0.9999999999999999
 40
0.9999999999999999
 40
0.9999999999999999
 40
0.9999999999999999
 10
141.0099320598693
 20
100.7433049095343
 30
0.0
 10
141.024251063523
 20
100.7426741377041
 30
0.0
 10
141.0528579274167
 20
100.7414139659541
 30
0.0
 10
141.1093425810824
 20
100.7320165480564
 30
0.0
 10
141.1760786912027
 20
100.7021111314925
 30
0.0
 10
141.234224558626
 20
100.6353217716412
 30
0.0
 10
141.2509396767642
 20
100.5804750822563
 30
0.0
 10
141.2593039715948
 20
100.5530296357629
 30
0.0
  0
SPLINE
  5
D5
330
1F
100
AcDbEntity
  8
0
  6
Continuous
 62
     7
370
    15
100
AcDbSpline
210
0.0
220
0.0
230
1.0
 70
     8
 71
     3
 72
    10
 73
     6
 74
     0
 42
0.000000001
 43
0.00000001
 40
0.0
 40
0.0
 40
0.0
 40
0.0
 40
0.2350472222846476
 40
0.4997134283148548
 40
0.9999999999999999
 40
0.9999999999999999
 40
0.9999999999999999
 40
0.9999999999999999
 10
141.2593039715948
 20
100.5530296357629
 30
0.0
 10
141.2622713636146
 20
100.5359788804399
 30
0.0
 10
141.2685800773486
 20
100.4997287545502
 30
0.0
 10
141.2726925810711
 20
100.4261507621644
 30
0.0
 10
141.2730896644709
 20
100.3698770775262
 30
0.0
 10
141.2733493608843
 20
100.333073539342
 30
0.0
  0
LINE
  5
D6
330
1F
100
AcDbEntity
  8
0
  6
Continuous
 62
     7
370
    15
100
AcDbLine
 10
141.2733493724
 20
99.8783209352
 30
0.0
 11
141.2733493724
 21
100.3330735539
 31
0.0
  0
LINE
  5
D7
330
1F
100
AcDbEntity
  8
0
  6
Continuous
 62
     7
370
    15
100
AcDbLine
 10
141.3920726279
 20
99.8783209352
 30
0.0
 11
141.2733493724
 21
99.8783209352
 31
0.0
  0
LINE
  5
D8
330
1F
100
AcDbEntity
  8
0
  6
Continuous
 62
     7
370
    15
100
AcDbLine
 10
141.7821634621
 20
100.2278656224
 30
0.0
 11
141.7821634621
 21
99.8783209352
 31
0.0
  0
SPLINE
  5
D9
330
1F
100
AcDbEntity
  8
0
  6
Continuous
 62
     7
370
    15
100
AcDbSpline
210
0.0
220
0.0
230
1.0
 70
     8
 71
     3
 72
    10
 73
     6
 74
     0
 42
0.000000001
 43
0.00000001
 40
0.0
 40
0.0
 40
0.0
 40
0.0
 40
0.5001105329474482
 40
0.7501594479316578
 40
1.0
 40
1.0
 40
1.0
 40
1.0
 10
141.7821634634484
 20
100.2278656233431
 30
0.0
 10
141.7826818750138
 20
100.2712821625588
 30
0.0
 10
141.7834594857779
 20
100.3364064199849
 30
0.0
 10
141.7885522060904
 20
100.4232345257079
 30
0.0
 10
141.7964844843084
 20
100.4659559870481
 30
0.0
 10
141.8004489702593
 20
100.4873078141817
 30
0.0
  0
SPLINE
  5
DA
330
1F
100
AcDbEntity
  8
0
  6
Continuous
 62
     7
370
    15
100
AcDbSpline
210
0.0
220
0.0
230
1.0
 70
     8
 71
     3
 72
    13
 73
     9
 74
     0
 42
0.000000001
 43
0.00000001
 40
0.0
 40
0.0
 40
0.0
 40
0.0
 40
0.1368681095030555
 40
0.2509500869197086
 40
0.5009517138088162
 40
0.7501964874028357
 40
0.8669345750699231
 40
1.0
 40
1.0
 40
1.0
 40
1.0
 10
141.8004489702593
 20
100.4873078141817
 30
0.0
 10
141.8068899759587
 20
100.5066657798724
 30
0.0
 10
141.8186996732358
 20
100.5421589505628
 30
0.0
 10
141.8552642386475
 20
100.6075546591479
 30
0.0
 10
141.9192503388978
 20
100.6746550846463
 30
0.0
 10
142.0000066798666
 20
100.7213548468142
 30
0.0
 10
142.0723453380975
 20
100.7400360916625
 30
0.0
 10
142.109520569746
 20
100.74216883764
 30
0.0
 10
142.1293230855104
 20
100.7433049095343
 30
0.0
  0
SPLINE
  5
DB
330
1F
100
AcDbEntity
  8
0
  6
Continuous
 62
     7
370
    15
100
AcDbSpline
210
0.0
220
0.0
230
1.0
 70
     8
 71
     3
 72
    13
 73
     9
 74
     0
 42
0.000000001
 43
0.00000001
 40
0.0
 40
0.0
 40
0.0
 40
0.0
 40
0.1255584072302953
 40
0.2508437541388838
 40
0.5007331900738267
 40
0.7499194057237958
 40
0.8748468990899456
 40
0.9999999999999999
 40
0.9999999999999999
 40
0.9999999999999999
 40
0.9999999999999999
 10
142.1293230855104
 20
100.7433049095343
 30
0.0
 10
142.1436432946904
 20
100.7426741471622
 30
0.0
 10
142.1722525699275
 20
100.7414139941796
 30
0.0
 10
142.2287198044351
 20
100.7320142543263
 30
0.0
 10
142.2956072673288
 20
100.7021205747419
 30
0.0
 10
142.3435621442279
 20
100.6463972440642
 30
0.0
 10
142.3668289842651
 20
100.5941932640103
 30
0.0
 10
142.3747372814502
 20
100.5667590949932
 30
0.0
 10
142.3786949972358
 20
100.5530296357629
 30
0.0
  0
SPLINE
  5
DC
330
1F
100
AcDbEntity
  8
0
  6
Continuous
 62
     7
370
    15
100
AcDbSpline
210
0.0
220
0.0
230
1.0
 70
     8
 71
     3
 72
    10
 73
     6
 74
     0
 42
0.000000001
 43
0.00000001
 40
0.0
 40
0.0
 40
0.0
 40
0.0
 40
0.2496566784083537
 40
0.499722256039246
 40
1.0
 40
1.0
 40
1.0
 40
1.0
 10
142.3786949972358
 20
100.5530296357629
 30
0.0
 10
142.3818468471683
 20
100.5349159433197
 30
0.0
 10
142.3881557092786
 20
100.4986588909923
 30
0.0
 10
142.3920309198854
 20
100.4250733373275
 30
0.0
 10
142.3924565832376
 20
100.3698756152455
 30
0.0
 10
142.3927403865253
 20
100.333073539342
 30
0.0
  0
LINE
  5
DD
330
1F
100
AcDbEntity
  8
0
  6
Continuous
 62
     7
370
    15
100
AcDbLine
 10
142.3927403755
 20
99.8783209352
 30
0.0
 11
142.3927403755
 21
100.3330735539
 31
0.0
  0
LINE
  5
DE
330
1F
100
AcDbEntity
  8
0
  6
Continuous
 62
     7
370
    15
100
AcDbLine
 10
142.5114636893
 20
99.8783209352
 30
0.0
 11
142.3927403755
 21
99.8783209352
 31
0.0
  0
SPLINE
  5
DF
330
1F
100
AcDbEntity
  8
0
  6
Continuous
 62
     7
370
    15
100
AcDbSpline
210
0.0
220
0.0
230
1.0
 70
    24
 71
     3
 72
    10
 73
     6
 74
     0
 42
0.000000001
 43
0.00000001
 40
0.0
 40
0.0
 40
0.0
 40
0.0
 40
0.2500000724197924
 40
0.5000001448395817
 40
1.0
 40
1.0
 40
1.0
 40
1.0
 10
142.5114636771236
 20
99.87832093517532
 30
0.0
 10
142.5114636771236
 20
99.91946382399126
 30
0.0
 10
142.5114636771236
 20
100.0017496016232
 30
0.0
 10
142.5114636771236
 20
100.166320586883
 30
0.0
 10
142.5114636771236
 20
100.2897460157293
 30
0.0
 10
142.5114636771236
 20
100.3720296190696
 30
0.0
  0
SPLINE
  5
E0
330
1F
100
AcDbEntity
  8
0
  6
Continuous
 62
     7
370
    15
100
AcDbSpline
210
0.0
220
0.0
230
1.0
 70
     8
 71
     3
 72
    15
 73
    11
 74
     0
 42
0.000000001
 43
0.00000001
 40
0.0
 40
0.0
 40
0.0
 40
0.0
 40
0.125667658316502
 40
0.2512483875148461
 40
0.3013812380768243
 40
0.3766053629893472
 40
0.5017412223280656
 40
0.7500476483006636
 40
0.874801727945189
 40
1.0
 40
1.0
 40
1.0
 40
1.0
 10
142.5114636771236
 20
100.3720296190696
 30
0.0
 10
142.5111205922703
 20
100.4010220911484
 30
0.0
 10
142.5104346598885
 20
100.4589869801061
 30
0.0
 10
142.5040242467956
 20
100.5283528237845
 30
0.0
 10
142.4942720009551
 20
100.5854228178253
 30
0.0
 10
142.4805988197991
 20
100.6416956880812
 30
0.0
 10
142.4366838440674
 20
100.7366258464795
 30
0.0
 10
142.34620683117
 20
100.8171984800829
 30
0.0
 10
142.2367022428382
 20
100.8562271448709
 30
0.0
 10
142.1789307419695
 20
100.8600922254897
 30
0.0
 10
142.149993658427
 20
100.8620282001326
 30
0.0
  0
SPLINE
  5
E1
330
1F
100
AcDbEntity
  8
0
  6
Continuous
 62
     7
370
    15
100
AcDbSpline
210
0.0
220
0.0
230
1.0
 70
     8
 71
     3
 72
    14
 73
    10
 74
     0
 42
0.000000001
 43
0.00000001
 40
0.0
 40
0.0
 40
0.0
 40
0.0
 40
0.0631092828460213
 40
0.125682572159806
 40
0.2507909308295228
 40
0.4999002670882033
 40
0.7491585223106331
 40
0.8744797904671451
 40
1.0
 40
1.0
 40
1.0
 40
1.0
 10
142.149993658427
 20
100.8620282001326
 30
0.0
 10
142.1409408292191
 20
100.8617427055521
 30
0.0
 10
142.1229120573988
 20
100.8611741411256
 30
0.0
 10
142.0869906026485
 20
100.8586028981315
 30
0.0
 10
142.0250803647616
 20
100.8478931022796
 30
0.0
 10
141.940118896333
 20
100.8166840727939
 30
0.0
 10
141.8663147022649
 20
100.7641854349527
 30
0.0
 10
141.8161670919546
 20
100.7126851586039
 30
0.0
 10
141.7935039976204
 20
100.6846977164315
 30
0.0
 10
141.7821634634484
 20
100.6706928969809
 30
0.0
  0
LINE
  5
E2
330
1F
100
AcDbEntity
  8
0
  6
Continuous
 62
     7
370
    15
100
AcDbLine
 10
141.7821634621
 20
100.8450677027
 30
0.0
 11
141.7821634621
 21
100.6706929174
 31
0.0
  0
LINE
  5
E3
330
1F
100
AcDbEntity
  8
0
  6
Continuous
 62
     7
370
    15
100
AcDbLine
 10
141.6634401774
 20
100.8450677027
 30
0.0
 11
141.7821634621
 21
100.8450677027
 31
0.0
  0
LINE
  5
E4
330
1F
100
AcDbEntity
  8
0
  6
Continuous
 62
     7
370
    15
100
AcDbLine
 10
141.6634401774
 20
99.8783209352
 30
0.0
 11
141.6634401774
 21
100.8450677027
 31
0.0
  0
LINE
  5
E5
330
1F
100
AcDbEntity
  8
0
  6
Continuous
 62
     7
370
    15
100
AcDbLine
 10
141.7821634621
 20
99.8783209352
 30
0.0
 11
141.6634401774
 21
99.8783209352
 31
0.0
  0
SPLINE
  5
E6
330
1F
100
AcDbEntity
  8
0
  6
Continuous
 62
     7
370
    15
100
AcDbSpline
210
0.0
220
0.0
230
1.0
 70
     8
 71
     3
 72
    14
 73
    10
 74
     0
 42
0.000000001
 43
0.00000001
 40
0.0
 40
0.0
 40
0.0
 40
0.0
 40
0.0631834542438199
 40
0.1260221569045592
 40
0.2516077263401109
 40
0.501367075818331
 40
0.7500677801043267
 40
0.8747697106240593
 40
1.0
 40
1.0
 40
1.0
 40
1.0
 10
143.2238034207133
 20
100.2175303368847
 30
0.0
 10
143.2257533394141
 20
100.2049986297708
 30
0.0
 10
143.2296425373599
 20
100.1800035930306
 30
0.0
 10
143.2414493556633
 20
100.130862900076
 30
0.0
 10
143.2719115105704
 20
100.0479649269103
 30
0.0
 10
143.3470531845769
 20
99.9442367877976
 30
0.0
 10
143.454573292747
 20
99.87389550412053
 30
0.0
 10
143.5521071403212
 20
99.84820692452274
 30
0.0
 10
143.6022734343009
 20
99.84567075866929
 30
0.0
 10
143.6274096072785
 20
99.84439999500438
 30
0.0
  0
SPLINE
  5
E7
330
1F
100
AcDbEntity
  8
0
  6
Continuous
 62
     7
370
    15
100
AcDbSpline
210
0.0
220
0.0
230
1.0
 70
     8
 71
     3
 72
    16
 73
    12
 74
     0
 42
0.000000001
 43
0.00000001
 40
0.0
 40
0.0
 40
0.0
 40
0.0
 40
0.0646179970025617
 40
0.1258968386263299
 40
0.2511357302714473
 40
0.3758153771856519
 40
0.500662560987341
 40
0.6252948478349529
 40
0.750218739903067
 40
0.8669192308441283
 40
0.9999999999999999
 40
0.9999999999999999
 40
0.9999999999999999
 40
0.9999999999999999
 10
143.6274096072785
 20
99.84439999500438
 30
0.0
 10
143.6432181957084
 20
99.84482612602409
 30
0.0
 10
143.6740184587743
 20
99.84565636760864
 30
0.0
 10
143.7350756548282
 20
99.85303067934748
 30
0.0
 10
143.8092445447791
 20
99.8724757183389
 30
0.0
 10
143.8914468816859
 20
99.91467679990691
 30
0.0
 10
143.9624335258529
 20
99.97370810380217
 30
0.0
 10
144.0182677938418
 20
100.0471504623671
 30
0.0
 10
144.0585148795764
 20
100.1277737440161
 30
0.0
 10
144.0829885316347
 20
100.2168418235517
 30
0.0
 10
144.0867717415273
 20
100.2779761847962
 30
0.0
 10
144.0887873950723
 20
100.3105479150097
 30
0.0
  0
SPLINE
  5
E8
330
1F
100
AcDbEntity
  8
0
  6
Continuous
 62
     7
370
    15
100
AcDbSpline
210
0.0
220
0.0
230
1.0
 70
     8
 71
     3
 72
    13
 73
     9
 74
     0
 42
0.000000001
 43
0.00000001
 40
0.0
 40
0.0
 40
0.0
 40
0.0
 40
0.1261676648424394
 40
0.2516943511983315
 40
0.5012149314921491
 40
0.7500349140719414
 40
0.8747028150705463
 40
1.0
 40
1.0
 40
1.0
 40
1.0
 10
144.0887873950723
 20
100.3105479150097
 30
0.0
 10
144.0875960426195
 20
100.338779594947
 30
0.0
 10
144.0852193902258
 20
100.3950995274267
 30
0.0
 10
144.0579015993515
 20
100.5045511955502
 30
0.0
 10
143.982984207256
 20
100.6270249395388
 30
0.0
 10
143.8646360588277
 20
100.7086583456951
 30
0.0
 10
143.7564059952331
 20
100.7390806722184
 30
0.0
 10
143.7004894920687
 20
100.7418944691963
 30
0.0
 10
143.672460855943
 20
100.7433049095343
 30
0.0
  0
SPLINE
  5
E9
330
1F
100
AcDbEntity
  8
0
  6
Continuous
 62
     7
370
    15
100
AcDbSpline
210
0.0
220
0.0
230
1.0
 70
     8
 71
     3
 72
    10
 73
     6
 74
     0
 42
0.000000001
 43
0.00000001
 40
0.0
 40
0.0
 40
0.0
 40
0.0
 40
0.4992107271189895
 40
0.7495638817038914
 40
1.0
 40
1.0
 40
1.0
 40
1.0
 10
143.672460855943
 20
100.7433049095343
 30
0.0
 10
143.6460829507292
 20
100.7418536930723
 30
0.0
 10
143.6064765802141
 20
100.7396746945346
 30
0.0
 10
143.5548676246395
 20
100.7281015149611
 30
0.0
 10
143.5293816402879
 20
100.7211003563121
 30
0.0
 10
143.5166365370328
 20
100.717599197061
 30
0.0
  0
LWPOLYLINE
  5
EA
330
1F
100
AcDbEntity
  8
0
  6
Continuous
 62
     7
370
    15
100
AcDbPolyline
 90
        9
 70
   128
 43
0.0
 10
143.5879234575
 20
101.0655538402
 10
143.5790131452
 20
101.0220622402
 10
143.5701027165
 20
100.9785698252
 10
143.5611920549
 20
100.9350765953
 10
143.5522812769
 20
100.8915825505
 10
143.5433702661
 20
100.848087749
 10
143.5344591389
 20
100.804592249
 10
143.5255478953
 20
100.7610960505
 10
143.5166365352
 20
100.7175992117
  0
LINE
  5
EB
330
1F
100
AcDbEntity
  8
0
  6
Continuous
 62
     7
370
    15
100
AcDbLine
 10
144.0379059293
 20
101.0655538402
 30
0.0
 11
143.5879234575
 21
101.0655538402
 31
0.0
  0
LINE
  5
EC
330
1F
100
AcDbEntity
  8
0
  6
Continuous
 62
     7
370
    15
100
AcDbLine
 10
144.0379059293
 20
101.2012376441
 30
0.0
 11
144.0379059293
 21
101.0655538402
 31
0.0
  0
LINE
  5
ED
330
1F
100
AcDbEntity
  8
0
  6
Continuous
 62
     7
370
    15
100
AcDbLine
 10
143.4951709468
 20
101.2012376441
 30
0.0
 11
144.0379059293
 21
101.2012376441
 31
0.0
  0
LWPOLYLINE
  5
EE
330
1F
100
AcDbEntity
  8
0
  6
Continuous
 62
     7
370
    15
100
AcDbPolyline
 90
        9
 70
   128
 43
0.0
 10
143.359487143
 20
100.5397792896
 10
143.3764494375
 20
100.6224700822
 10
143.3934111499
 20
100.7051588376
 10
143.410372513
 20
100.7878453229
 10
143.4273334105
 20
100.8705294216
 10
143.4442936095
 20
100.9532108428
 10
143.4612533428
 20
101.03588947
 10
143.4782124941
 20
101.1185650704
 10
143.4951709468
 20
101.2012376441
  0
SPLINE
  5
EF
330
1F
100
AcDbEntity
  8
0
  6
Continuous
 62
     7
370
    15
100
AcDbSpline
210
0.0
220
0.0
230
1.0
 70
     8
 71
     3
 72
    11
 73
     7
 74
     0
 42
0.000000001
 43
0.00000001
 40
0.0
 40
0.0
 40
0.0
 40
0.0
 40
0.2717208014412244
 40
0.4998401585090705
 40
0.7500207806990999
 40
1.0
 40
1.0
 40
1.0
 40
1.0
 10
143.3594871813971
 20
100.5397792685087
 30
0.0
 10
143.3850037427229
 20
100.5493799134041
 30
0.0
 10
143.4319423723386
 20
100.5670406439806
 30
0.0
 10
143.5041400365308
 20
100.588222104832
 30
0.0
 10
143.5757458251162
 20
100.6038232946026
 30
0.0
 10
143.625918850208
 20
100.6063555373266
 30
0.0
 10
143.6509952609911
 20
100.6076211488505
 30
0.0
  0
SPLINE
  5
F0
330
1F
100
AcDbEntity
  8
0
  6
Continuous
 62
     7
370
    15
100
AcDbSpline
210
0.0
220
0.0
230
1.0
 70
     8
 71
     3
 72
    13
 73
     9
 74
     0
 42
0.000000001
 43
0.00000001
 40
0.0
 40
0.0
 40
0.0
 40
0.0
 40
0.1262527682142204
 40
0.2520694527483825
 40
0.5020598492365158
 40
0.7508628881099281
 40
0.8674601088275258
 40
0.9999999999999999
 40
0.9999999999999999
 40
0.9999999999999999
 40
0.9999999999999999
 10
143.6509952609911
 20
100.6076211488505
 30
0.0
 10
143.6714101306034
 20
100.6068774359384
 30
0.0
 10
143.7121693557982
 20
100.6053925789376
 30
0.0
 10
143.7918596951127
 20
100.5882410249103
 30
0.0
 10
143.8832516619161
 20
100.5388484440668
 30
0.0
 10
143.9442303964717
 20
100.4553391403814
 30
0.0
 10
143.9663715293663
 20
100.3773048764511
 30
0.0
 10
143.9687818330796
 20
100.3370163698825
 30
0.0
 10
143.970064104474
 20
100.3155830545663
 30
0.0
  0
SPLINE
  5
F1
330
1F
100
AcDbEntity
  8
0
  6
Continuous
 62
     7
370
    15
100
AcDbSpline
210
0.0
220
0.0
230
1.0
 70
     8
 71
     3
 72
    15
 73
    11
 74
     0
 42
0.000000001
 43
0.00000001
 40
0.0
 40
0.0
 40
0.0
 40
0.0
 40
0.0631421777196097
 40
0.1261436086420843
 40
0.2512397637823998
 40
0.5000383174988916
 40
0.6249304506106187
 40
0.7499353215963854
 40
0.869266240450256
 40
1.0
 40
1.0
 40
1.0
 40
1.0
 10
143.970064104474
 20
100.3155830545663
 30
0.0
 10
143.9697044700931
 20
100.3044805286196
 30
0.0
 10
143.9689860029727
 20
100.2823002247632
 30
0.0
 10
143.963760044587
 20
100.2383458483022
 30
0.0
 10
143.9421831199609
 20
100.1640168592139
 30
0.0
 10
143.8908496071377
 20
100.0894518088542
 30
0.0
 10
143.8226203066534
 20
100.0338786724746
 30
0.0
 10
143.7652818199586
 20
100.0024289942432
 30
0.0
 10
143.7012651463114
 20
99.98423382857813
 30
0.0
 10
143.6572899968413
 20
99.98150853735014
 30
0.0
 10
143.6342997982507
 20
99.98008375568813
 30
0.0
  0
SPLINE
  5
F2
330
1F
100
AcDbEntity
  8
0
  6
Continuous
 62
     7
370
    15
100
AcDbSpline
210
0.0
220
0.0
230
1.0
 70
     8
 71
     3
 72
    14
 73
    10
 74
     0
 42
0.000000001
 43
0.00000001
 40
0.0
 40
0.0
 40
0.0
 40
0.0
 40
0.1323744626564789
 40
0.2497632580261504
 40
0.3751983013266882
 40
0.5008077244469191
 40
0.626352014620179
 40
0.7511334789367676
 40
1.0
 40
1.0
 40
1.0
 40
1.0
 10
143.6342997982507
 20
99.98008375568813
 30
0.0
 10
143.6162520198861
 20
99.98122089696567
 30
0.0
 10
143.5821995913888
 20
99.9833664475848
 30
0.0
 10
143.5322001316238
 20
99.99560787686902
 30
0.0
 10
143.4859444776976
 20
100.0157417955015
 30
0.0
 10
143.4421704526951
 20
100.0431475310345
 30
0.0
 10
143.4046205540356
 20
100.0784840962927
 30
0.0
 10
143.3644515446854
 20
100.134453537028
 30
0.0
 10
143.3512917391947
 20
100.184318204561
 30
0.0
 10
143.3425267113116
 20
100.2175303368847
 30
0.0
  0
LINE
  5
F3
330
1F
100
AcDbEntity
  8
0
  6
Continuous
 62
     7
370
    15
100
AcDbLine
 10
143.2238034556
 20
100.2175303283
 30
0.0
 11
143.3425267112
 21
100.2175303283
 31
0.0
  0
LWPOLYLINE
  5
F4
330
1F
100
AcDbEntity
  8
0
  6
Continuous
 62
     7
370
    15
100
AcDbPolyline
 90
        9
 70
   128
 43
0.0
 10
144.224471145
 20
100.1836094065
 10
144.3147686894
 20
100.315095885
 10
144.4050592488
 20
100.4465721771
 10
144.4953421249
 20
100.5780372061
 10
144.585616619
 20
100.7094900696
 10
144.6758817999
 20
100.8409296037
 10
144.7661374348
 20
100.9723548768
 10
144.8563823594
 20
101.1037648413
 10
144.9466161082
 20
101.2351585077
  0
LINE
  5
F5
330
1F
100
AcDbEntity
  8
0
  6
Continuous
 62
     7
370
    15
100
AcDbLine
 10
144.8520086358
 20
100.1836094065
 30
0.0
 11
144.224471145
 21
100.1836094065
 31
0.0
  0
LINE
  5
F6
330
1F
100
AcDbEntity
  8
0
  6
Continuous
 62
     7
370
    15
100
AcDbLine
 10
144.8520086358
 20
99.8783209352
 30
0.0
 11
144.8520086358
 21
100.1836094065
 31
0.0
  0
LINE
  5
F7
330
1F
100
AcDbEntity
  8
0
  6
Continuous
 62
     7
370
    15
100
AcDbLine
 10
144.970731775
 20
99.8783209352
 30
0.0
 11
144.8520086358
 21
99.8783209352
 31
0.0
  0
LINE
  5
F8
330
1F
100
AcDbEntity
  8
0
  6
Continuous
 62
     7
370
    15
100
AcDbLine
 10
144.970731775
 20
100.1836094065
 30
0.0
 11
144.970731775
 21
99.8783209352
 31
0.0
  0
LINE
  5
F9
330
1F
100
AcDbEntity
  8
0
  6
Continuous
 62
     7
370
    15
100
AcDbLine
 10
145.1233760106
 20
100.1836094065
 30
0.0
 11
144.970731775
 21
100.1836094065
 31
0.0
  0
LINE
  5
FA
330
1F
100
AcDbEntity
  8
0
  6
Continuous
 62
     7
370
    15
100
AcDbLine
 10
145.1233760106
 20
100.3192931521
 30
0.0
 11
145.1233760106
 21
100.1836094065
 31
0.0
  0
LINE
  5
FB
330
1F
100
AcDbEntity
  8
0
  6
Continuous
 62
     7
370
    15
100
AcDbLine
 10
144.970731775
 20
100.3192931521
 30
0.0
 11
145.1233760106
 21
100.3192931521
 31
0.0
  0
SPLINE
  5
FC
330
1F
100
AcDbEntity
  8
0
  6
Continuous
 62
     7
370
    15
100
AcDbSpline
210
0.0
220
0.0
230
1.0
 70
    24
 71
     3
 72
     9
 73
     5
 74
     0
 42
0.000000001
 43
0.00000001
 40
0.0
 40
0.0
 40
0.0
 40
0.0
 40
0.5000000000000016
 40
1.0
 40
1.0
 40
1.0
 40
1.0
 10
144.9707318395168
 20
100.3192931573975
 30
0.0
 10
144.9707318395168
 20
100.4719517641698
 30
0.0
 10
144.9707318395168
 20
100.7772689777143
 30
0.0
 10
144.9707318395168
 20
101.0825286872467
 30
0.0
 10
144.9707318395168
 20
101.2351585420129
 30
0.0
  0
LINE
  5
FD
330
1F
100
AcDbEntity
  8
0
  6
Continuous
 62
     7
370
    15
100
AcDbLine
 10
144.9466161082
 20
101.2351585077
 30
0.0
 11
144.970731775
 21
101.2351585077
 31
0.0
  0
CIRCLE
  5
FE
330
1F
100
AcDbEntity
  8
0
  6
Continuous
 62
     7
370
    15
100
AcDbCircle
 10
142.1298531002
 20
99.8783209352
 30
0.0
 40
25.53429066960746
  0
LINE
  5
FF
330
1F
100
AcDbEntity
  8
0
  6
Continuous
 62
     7
370
    15
100
AcDbLine
 10
150.1945561847
 20
101.0655538402
 30
0.0
 11
150.1945561847
 21
99.8783209352
 31
0.0
  0
LINE
  5
100
330
1F
100
AcDbEntity
  8
0
  6
Continuous
 62
     7
370
    15
100
AcDbLine
 10
150.4828843406
 20
101.0655538402
 30
0.0
 11
150.1945561847
 21
101.0655538402
 31
0.0
  0
LINE
  5
101
330
1F
100
AcDbEntity
  8
0
  6
Continuous
 62
     7
370
    15
100
AcDbLine
 10
150.4828843406
 20
101.2012376441
 30
0.0
 11
150.4828843406
 21
101.0655538402
 31
0.0
  0
LINE
  5
102
330
1F
100
AcDbEntity
  8
0
  6
Continuous
 62
     7
370
    15
100
AcDbLine
 10
149.7875053553
 20
101.2012376441
 30
0.0
 11
150.4828843406
 21
101.2012376441
 31
0.0
  0
LINE
  5
103
330
1F
100
AcDbEntity
  8
0
  6
Continuous
 62
     7
370
    15
100
AcDbLine
 10
149.7875053553
 20
101.0655538402
 30
0.0
 11
149.7875053553
 21
101.2012376441
 31
0.0
  0
LINE
  5
104
330
1F
100
AcDbEntity
  8
0
  6
Continuous
 62
     7
370
    15
100
AcDbLine
 10
150.0758330456
 20
101.0655538402
 30
0.0
 11
149.7875053553
 21
101.0655538402
 31
0.0
  0
LINE
  5
105
330
1F
100
AcDbEntity
  8
0
  6
Continuous
 62
     7
370
    15
100
AcDbLine
 10
150.0758330456
 20
99.8783209352
 30
0.0
 11
150.0758330456
 21
101.0655538402
 31
0.0
  0
LINE
  5
106
330
1F
100
AcDbEntity
  8
0
  6
Continuous
 62
     7
370
    15
100
AcDbLine
 10
150.1945561847
 20
99.8783209352
 30
0.0
 11
150.0758330456
 21
99.8783209352
 31
0.0
  0
SPLINE
  5
107
330
1F
100
AcDbEntity
  8
0
  6
Continuous
 62
     7
370
    15
100
AcDbSpline
210
0.0
220
0.0
230
1.0
 70
     8
 71
     3
 72
    13
 73
     9
 74
     0
 42
0.000000001
 43
0.00000001
 40
0.0
 40
0.0
 40
0.0
 40
0.0
 40
0.1257525747743464
 40
0.2509772803967492
 40
0.5004846026110277
 40
0.7497016287678188
 40
0.8695394058007474
 40
1.0
 40
1.0
 40
1.0
 40
1.0
 10
148.8886004292604
 20
100.1335230084926
 30
0.0
 10
148.8993142607359
 20
100.1143241690122
 30
0.0
 10
148.9206969504438
 20
100.0760070806488
 30
0.0
 10
148.9697507446868
 20
100.0036241342598
 30
0.0
 10
149.0436360301357
 20
99.92194233287874
 30
0.0
 10
149.1400232504336
 20
99.8688053974176
 30
0.0
 10
149.2247442229968
 20
99.84804766094408
 30
0.0
 10
149.2682207370468
 20
99.84564980580107
 30
0.0
 10
149.2908815791001
 20
99.84439999500438
 30
0.0
  0
SPLINE
  5
108
330
1F
100
AcDbEntity
  8
0
  6
Continuous
 62
     7
370
    15
100
AcDbSpline
210
0.0
220
0.0
230
1.0
 70
     8
 71
     3
 72
    14
 73
    10
 74
     0
 42
0.000000001
 43
0.00000001
 40
0.0
 40
0.0
 40
0.0
 40
0.0
 40
0.0631842053204127
 40
0.1260459061632112
 40
0.2513585523996898
 40
0.5005758140303328
 40
0.7500687088535282
 40
0.8748063113563441
 40
1.0
 40
1.0
 40
1.0
 40
1.0
 10
149.2908815791001
 20
99.84439999500438
 30
0.0
 10
149.3029737237642
 20
99.84469641022706
 30
0.0
 10
149.3270962924333
 20
99.84528772771147
 30
0.0
 10
149.374886129981
 20
99.85126471756261
 30
0.0
 10
149.4562838649602
 20
99.87315138256074
 30
0.0
 10
149.55900657636
 20
99.9400279548651
 30
0.0
 10
149.6334356044391
 20
100.0376760996806
 30
0.0
 10
149.6644702313473
 20
100.1299576959048
 30
0.0
 10
149.6673430317709
 20
100.1782398083034
 30
0.0
 10
149.668782053192
 20
100.2024249182148
 30
0.0
  0
SPLINE
  5
109
330
1F
100
AcDbEntity
  8
0
  6
Continuous
 62
     7
370
    15
100
AcDbSpline
210
0.0
220
0.0
230
1.0
 70
     8
 71
     3
 72
    14
 73
    10
 74
     0
 42
0.000000001
 43
0.00000001
 40
0.0
 40
0.0
 40
0.0
 40
0.0
 40
0.1295645391589353
 40
0.2485889523312024
 40
0.3700687412412995
 40
0.4982221612650941
 40
0.7489620055291529
 40
0.8744594585849542
 40
1.0
 40
1.0
 40
1.0
 40
1.0
 10
149.668782053192
 20
100.2024249182148
 30
0.0
 10
149.6666158429958
 20
100.2261582728821
 30
0.0
 10
149.662459644651
 20
100.2716942645225
 30
0.0
 10
149.6411139945125
 20
100.3367060472282
 30
0.0
 10
149.6085914205606
 20
100.3962093318895
 30
0.0
 10
149.5525102157435
 20
100.4689609148769
 30
0.0
 10
149.4843419614879
 20
100.5316865536569
 30
0.0
 10
149.4126879032677
 20
100.5887969291839
 30
0.0
 10
149.3756536968637
 20
100.61583193039
 30
0.0
 10
149.3571334153715
 20
100.6293517511475
 30
0.0
  0
SPLINE
  5
10A
330
1F
100
AcDbEntity
  8
0
  6
Continuous
 62
     7
370
    15
100
AcDbSpline
210
0.0
220
0.0
230
1.0
 70
     8
 71
     3
 72
    10
 73
     6
 74
     0
 42
0.000000001
 43
0.00000001
 40
0.0
 40
0.0
 40
0.0
 40
0.0
 40
0.4000392653534171
 40
0.700153064117372
 40
1.0
 40
1.0
 40
1.0
 40
1.0
 10
149.3571334153715
 20
100.6293517511475
 30
0.0
 10
149.3331513673458
 20
100.6465395718522
 30
0.0
 10
149.291177726598
 20
100.6766218822005
 30
0.0
 10
149.230703116164
 20
100.7189310933841
 30
0.0
 10
149.1964382829282
 20
100.7470214637691
 30
0.0
 10
149.1793134868191
 20
100.761060401655
 30
0.0
  0
SPLINE
  5
10B
330
1F
100
AcDbEntity
  8
0
  6
Continuous
 62
     7
370
    15
100
AcDbSpline
210
0.0
220
0.0
230
1.0
 70
     8
 71
     3
 72
    11
 73
     7
 74
     0
 42
0.000000001
 43
0.00000001
 40
0.0
 40
0.0
 40
0.0
 40
0.0
 40
0.2513608315378026
 40
0.5014326215410635
 40
0.7466588639858004
 40
1.0
 40
1.0
 40
1.0
 40
1.0
 10
149.1793134868191
 20
100.761060401655
 30
0.0
 10
149.1675705598091
 20
100.7726982362292
 30
0.0
 10
149.1441449264709
 20
100.7959142236362
 30
0.0
 10
149.1153967076954
 20
100.8361014622707
 30
0.0
 10
149.0962662978401
 20
100.8823681621337
 30
0.0
 10
149.0935210404609
 20
100.9152709668782
 30
0.0
 10
149.092126070286
 20
100.9319901392352
 30
0.0
  0
SPLINE
  5
10C
330
1F
100
AcDbEntity
  8
0
  6
Continuous
 62
     7
370
    15
100
AcDbSpline
210
0.0
220
0.0
230
1.0
 70
     8
 71
     3
 72
    13
 73
     9
 74
     0
 42
0.000000001
 43
0.00000001
 40
0.0
 40
0.0
 40
0.0
 40
0.0
 40
0.0633342329806485
 40
0.1261636048634553
 40
0.251502144661255
 40
0.5011361432346736
 40
0.7503768202562591
 40
1.0
 40
1.0
 40
1.0
 40
1.0
 10
149.092126070286
 20
100.9319901392352
 30
0.0
 10
149.0924522732862
 20
100.9380294151584
 30
0.0
 10
149.0931020789993
 20
100.9500598256551
 30
0.0
 10
149.0966961030837
 20
100.9738286833941
 30
0.0
 10
149.1103233045069
 20
101.0137745387898
 30
0.0
 10
149.1501452901067
 20
101.0604373354322
 30
0.0
 10
149.214813183732
 20
101.0942641006938
 30
0.0
 10
149.2623332138782
 20
101.0977370001714
 30
0.0
 10
149.2861114468886
 20
101.0994747813292
 30
0.0
  0
SPLINE
  5
10D
330
1F
100
AcDbEntity
  8
0
  6
Continuous
 62
     7
370
    15
100
AcDbSpline
210
0.0
220
0.0
230
1.0
 70
     8
 71
     3
 72
    12
 73
     8
 74
     0
 42
0.000000001
 43
0.00000001
 40
0.0
 40
0.0
 40
0.0
 40
0.0
 40
0.1334272081614429
 40
0.2493139618030087
 40
0.4979227120139253
 40
0.7487306700806129
 40
1.0
 40
1.0
 40
1.0
 40
1.0
 10
149.2861114468886
 20
101.0994747813292
 30
0.0
 10
149.3003517832197
 20
101.0985457419409
 30
0.0
 10
149.3269604091293
 20
101.0968097954744
 30
0.0
 10
149.3790113754129
 20
101.0844319937583
 30
0.0
 10
149.4375289028888
 20
101.0510906786876
 30
0.0
 10
149.4940654041087
 20
100.9931207247503
 30
0.0
 10
149.5276739123573
 20
100.9509665407577
 30
0.0
 10
149.5444936083469
 20
100.9298700804745
 30
0.0
  0
LWPOLYLINE
  5
10E
330
1F
100
AcDbEntity
  8
0
  6
Continuous
 62
     7
370
    15
100
AcDbPolyline
 90
        9
 70
   128
 43
0.0
 10
149.6518214351
 20
101.0112273497
 10
149.6384071304
 20
101.001058937
 10
149.62499236
 20
100.9908901751
 10
149.611577124
 20
100.9807209475
 10
149.5981614223
 20
100.9705514871
 10
149.584745255
 20
100.9603816774
 10
149.5713281563
 20
100.9502115184
 10
149.5579110576
 20
100.9400410103
 10
149.5444934933
 20
100.9298700364
  0
SPLINE
  5
10F
330
1F
100
AcDbEntity
  8
0
  6
Continuous
 62
     7
370
    15
100
AcDbSpline
210
0.0
220
0.0
230
1.0
 70
     8
 71
     3
 72
    13
 73
     9
 74
     0
 42
0.000000001
 43
0.00000001
 40
0.0
 40
0.0
 40
0.0
 40
0.0
 40
0.251494084029042
 40
0.3769455627939453
 40
0.5022743786631445
 40
0.7506207565886566
 40
0.8714268871406489
 40
1.0
 40
1.0
 40
1.0
 40
1.0
 10
149.6518215831065
 20
101.0112273354157
 30
0.0
 10
149.6297103614202
 20
101.0404074625272
 30
0.0
 10
149.5965695146492
 20
101.0841433598502
 30
0.0
 10
149.5456596629926
 20
101.1366212426285
 30
0.0
 10
149.4898152589985
 20
101.1829959207181
 30
0.0
 10
149.424513762355
 20
101.2158437876808
 30
0.0
 10
149.3539592149317
 20
101.2315891670906
 30
0.0
 10
149.3179349428904
 20
101.2339442999607
 30
0.0
 10
149.2993618141428
 20
101.2351585420129
 30
0.0
  0
SPLINE
  5
110
330
1F
100
AcDbEntity
  8
0
  6
Continuous
 62
     7
370
    15
100
AcDbSpline
210
0.0
220
0.0
230
1.0
 70
     8
 71
     3
 72
    15
 73
    11
 74
     0
 42
0.000000001
 43
0.00000001
 40
0.0
 40
0.0
 40
0.0
 40
0.0
 40
0.1254761892088453
 40
0.250490170742291
 40
0.3754887391963083
 40
0.5005269478868499
 40
0.6251632634523407
 40
0.7502046257481031
 40
0.8747901069264294
 40
1.0
 40
1.0
 40
1.0
 40
1.0
 10
149.2993618141428
 20
101.2351585420129
 30
0.0
 10
149.278479757304
 20
101.2341576749869
 30
0.0
 10
149.2367925653674
 20
101.2321596277572
 30
0.0
 10
149.1760741908752
 20
101.2156428480995
 30
0.0
 10
149.1194797218665
 20
101.188780909095
 30
0.0
 10
149.0685426029078
 20
101.1519571379243
 30
0.0
 10
149.0270404375732
 20
101.1045908707703
 30
0.0
 10
148.9957581627333
 20
101.0499533476155
 30
0.0
 10
148.9775351624616
 20
100.9892417455016
 30
0.0
 10
148.9747825341881
 20
100.9473987700319
 30
0.0
 10
148.9734027796877
 20
100.9264249849884
 30
0.0
  0
SPLINE
  5
111
330
1F
100
AcDbEntity
  8
0
  6
Continuous
 62
     7
370
    15
100
AcDbSpline
210
0.0
220
0.0
230
1.0
 70
     8
 71
     3
 72
    11
 73
     7
 74
     0
 42
0.000000001
 43
0.00000001
 40
0.0
 40
0.0
 40
0.0
 40
0.0
 40
0.2508504064562517
 40
0.4998231291556765
 40
0.7489135964629763
 40
1.0
 40
1.0
 40
1.0
 40
1.0
 10
148.9734027796877
 20
100.9264249849884
 30
0.0
 10
148.9742630491303
 20
100.9080986382749
 30
0.0
 10
148.975977148664
 20
100.8715831225548
 30
0.0
 10
148.9915001170271
 20
100.8187916787872
 30
0.0
 10
149.014884997801
 20
100.7691624018013
 30
0.0
 10
149.0364928102014
 20
100.7397728283969
 30
0.0
 10
149.0473398289665
 20
100.7250194027234
 30
0.0
  0
SPLINE
  5
112
330
1F
100
AcDbEntity
  8
0
  6
Continuous
 62
     7
370
    15
100
AcDbSpline
210
0.0
220
0.0
230
1.0
 70
     8
 71
     3
 72
    11
 73
     7
 74
     0
 42
0.000000001
 43
0.00000001
 40
0.0
 40
0.0
 40
0.0
 40
0.0
 40
0.1212427749210939
 40
0.2497397015619049
 40
0.4998042644577582
 40
1.0
 40
1.0
 40
1.0
 40
1.0
 10
149.0473398289665
 20
100.7250194027234
 30
0.0
 10
149.0548921378036
 20
100.7164372636903
 30
0.0
 10
149.0704486223555
 20
100.6987595023369
 30
0.0
 10
149.1049920086722
 20
100.6667109179453
 30
0.0
 10
149.1690095300445
 20
100.6143025845277
 30
0.0
 10
149.2260723011341
 20
100.5727694205383
 30
0.0
 10
149.2641158372465
 20
100.5450794154104
 30
0.0
  0
SPLINE
  5
113
330
1F
100
AcDbEntity
  8
0
  6
Continuous
 62
     7
370
    15
100
AcDbSpline
210
0.0
220
0.0
230
1.0
 70
     8
 71
     3
 72
    12
 73
     8
 74
     0
 42
0.000000001
 43
0.00000001
 40
0.0
 40
0.0
 40
0.0
 40
0.0
 40
0.2500574320436679
 40
0.5001071020648631
 40
0.7501116468566817
 40
0.8753660143323266
 40
1.0
 40
1.0
 40
1.0
 40
1.0
 10
149.2641158372465
 20
100.5450794154104
 30
0.0
 10
149.2856742919517
 20
100.5294701592367
 30
0.0
 10
149.3287905321671
 20
100.4982521314155
 30
0.0
 10
149.3911092434618
 20
100.4482811762421
 30
0.0
 10
149.440783062583
 20
100.4038361008391
 30
0.0
 10
149.477531602302
 20
100.3652095027667
 30
0.0
 10
149.4942726866555
 20
100.3444750547084
 30
0.0
 10
149.5026224478234
 20
100.3341335687223
 30
0.0
  0
SPLINE
  5
114
330
1F
100
AcDbEntity
  8
0
  6
Continuous
 62
     7
370
    15
100
AcDbSpline
210
0.0
220
0.0
230
1.0
 70
     8
 71
     3
 72
    11
 73
     7
 74
     0
 42
0.000000001
 43
0.00000001
 40
0.0
 40
0.0
 40
0.0
 40
0.0
 40
0.2505308362342583
 40
0.5000285379159479
 40
0.7490317760107867
 40
1.0
 40
1.0
 40
1.0
 40
1.0
 10
149.5026224478234
 20
100.3341335687223
 30
0.0
 10
149.509277383716
 20
100.324465080601
 30
0.0
 10
149.5225598119964
 20
100.3051679750955
 30
0.0
 10
149.5378361301829
 20
100.2734494077819
 30
0.0
 10
149.5481602227251
 20
100.2395600612934
 30
0.0
 10
149.5494242599993
 20
100.2160707726883
 30
0.0
 10
149.5500587625937
 20
100.2042799696304
 30
0.0
  0
SPLINE
  5
115
330
1F
100
AcDbEntity
  8
0
  6
Continuous
 62
     7
370
    15
100
AcDbSpline
210
0.0
220
0.0
230
1.0
 70
     8
 71
     3
 72
    15
 73
    11
 74
     0
 42
0.000000001
 43
0.00000001
 40
0.0
 40
0.0
 40
0.0
 40
0.0
 40
0.063127603517428
 40
0.1259677513745129
 40
0.2513221458942698
 40
0.5001638034841311
 40
0.6433872591224503
 40
0.7859587204907684
 40
0.889151813313607
 40
1.0
 40
1.0
 40
1.0
 40
1.0
 10
149.5500587625937
 20
100.2042799696304
 30
0.0
 10
149.5496920815796
 20
100.1962541306091
 30
0.0
 10
149.5489603892572
 20
100.180238998748
 30
0.0
 10
149.5434195456431
 20
100.1486682500752
 30
0.0
 10
149.5238608117261
 20
100.0962540337921
 30
0.0
 10
149.4806258553654
 20
100.0436856605093
 30
0.0
 10
149.4223158321257
 20
100.0087410484037
 30
0.0
 10
149.3761585800064
 20
99.99116301059433
 30
0.0
 10
149.3318494510079
 20
99.98238287959089
 30
0.0
 10
149.3048593000972
 20
99.98086818775535
 30
0.0
 10
149.2908815791001
 20
99.98008375568813
 30
0.0
  0
SPLINE
  5
116
330
1F
100
AcDbEntity
  8
0
  6
Continuous
 62
     7
370
    15
100
AcDbSpline
210
0.0
220
0.0
230
1.0
 70
     8
 71
     3
 72
    14
 73
    10
 74
     0
 42
0.000000001
 43
0.00000001
 40
0.0
 40
0.0
 40
0.0
 40
0.0
 40
0.0635578710331593
 40
0.1266351011766891
 40
0.2520038826094742
 40
0.5002897348631231
 40
0.7493497529831717
 40
0.8746217015573012
 40
0.9999999999999999
 40
0.9999999999999999
 40
0.9999999999999999
 40
0.9999999999999999
 10
149.2908815791001
 20
99.98008375568813
 30
0.0
 10
149.2828220292618
 20
99.98046612636563
 30
0.0
 10
149.2667638779639
 20
99.98122797613568
 30
0.0
 10
149.2349822211295
 20
99.98539898807579
 30
0.0
 10
149.1817246493286
 20
100.0025042549641
 30
0.0
 10
149.1146516828477
 20
100.047259926368
 30
0.0
 10
149.0613201674495
 20
100.1067904922157
 30
0.0
 10
149.0251617237215
 20
100.1593922190725
 30
0.0
 10
149.0086785917398
 20
100.1868401022157
 30
0.0
 10
149.0004335288864
 20
100.2005698667992
 30
0.0
  0
LWPOLYLINE
  5
117
330
1F
100
AcDbEntity
  8
0
  6
Continuous
 62
     7
370
    15
100
AcDbPolyline
 90
        9
 70
   128
 43
0.0
 10
148.8886002569
 20
100.1335229948
 10
148.9025808057
 20
100.1419047525
 10
148.9165613546
 20
100.1502862482
 10
148.9305409721
 20
100.158667482
 10
148.9445201239
 20
100.1670484538
 10
148.9584992758
 20
100.1754291928
 10
148.9724779619
 20
100.1838096699
 10
148.9864557168
 20
100.1921898851
 10
149.0004334717
 20
100.2005698674
  0
LINE
  5
118
330
1F
100
AcDbEntity
  8
0
  6
Continuous
 62
     7
370
    15
100
AcDbLine
 10
148.2949840954
 20
100.4549768977
 30
0.0
 11
148.8037982142
 21
100.4549768977
 31
0.0
  0
LINE
  5
119
330
1F
100
AcDbEntity
  8
0
  6
Continuous
 62
     7
370
    15
100
AcDbLine
 10
148.2949840954
 20
100.3192931521
 30
0.0
 11
148.2949840954
 21
100.4549768977
 31
0.0
  0
LINE
  5
11A
330
1F
100
AcDbEntity
  8
0
  6
Continuous
 62
     7
370
    15
100
AcDbLine
 10
148.8037982142
 20
100.3192931521
 30
0.0
 11
148.2949840954
 21
100.3192931521
 31
0.0
  0
LINE
  5
11B
330
1F
100
AcDbEntity
  8
0
  6
Continuous
 62
     7
370
    15
100
AcDbLine
 10
148.8037982142
 20
100.4549768977
 30
0.0
 11
148.8037982142
 21
100.3192931521
 31
0.0
  0
SPLINE
  5
11C
330
1F
100
AcDbEntity
  8
0
  6
Continuous
 62
     7
370
    15
100
AcDbSpline
210
0.0
220
0.0
230
1.0
 70
     8
 71
     3
 72
    13
 73
     9
 74
     0
 42
0.000000001
 43
0.00000001
 40
0.0
 40
0.0
 40
0.0
 40
0.0
 40
0.1260870424534095
 40
0.2515627697629386
 40
0.5008853844389911
 40
0.7502266723099527
 40
0.8748513685101893
 40
1.0
 40
1.0
 40
1.0
 40
1.0
 10
147.4469604719954
 20
100.7941863197907
 30
0.0
 10
147.4491877023314
 20
100.8143099071976
 30
0.0
 10
147.4536313645931
 20
100.8544595156517
 30
0.0
 10
147.4764497508978
 20
100.9317390319796
 30
0.0
 10
147.5299423527053
 20
101.0194023447734
 30
0.0
 10
147.6162043490677
 20
101.0757349938231
 30
0.0
 10
147.6937012365945
 20
101.0963524136533
 30
0.0
 10
147.733588502622
 20
101.0984325376513
 30
0.0
 10
147.7535739702593
 20
101.0994747813292
 30
0.0
  0
SPLINE
  5
11D
330
1F
100
AcDbEntity
  8
0
  6
Continuous
 62
     7
370
    15
100
AcDbSpline
210
0.0
220
0.0
230
1.0
 70
     8
 71
     3
 72
    13
 73
     9
 74
     0
 42
0.000000001
 43
0.00000001
 40
0.0
 40
0.0
 40
0.0
 40
0.0
 40
0.1259855172108899
 40
0.2511206764704909
 40
0.5004933744791954
 40
0.7501538045054258
 40
0.8748192070961346
 40
0.9999999999999999
 40
0.9999999999999999
 40
0.9999999999999999
 40
0.9999999999999999
 10
147.7535739702593
 20
101.0994747813292
 30
0.0
 10
147.7718170953323
 20
101.0986253695155
 30
0.0
 10
147.8081802107973
 20
101.0969322791193
 30
0.0
 10
147.8787500880135
 20
101.0782807687511
 30
0.0
 10
147.9575267779366
 20
101.0294810224653
 30
0.0
 10
148.0137230765614
 20
100.9554160185439
 30
0.0
 10
148.0373239092033
 20
100.8858976001081
 30
0.0
 10
148.0394910962127
 20
100.8495157819439
 30
0.0
 10
148.0405769249869
 20
100.8312873481027
 30
0.0
  0
SPLINE
  5
11E
330
1F
100
AcDbEntity
  8
0
  6
Continuous
 62
     7
370
    15
100
AcDbSpline
210
0.0
220
0.0
230
1.0
 70
     8
 71
     3
 72
    12
 73
     8
 74
     0
 42
0.000000001
 43
0.00000001
 40
0.0
 40
0.0
 40
0.0
 40
0.0
 40
0.1256018042403578
 40
0.2499950342556161
 40
0.4988639070544365
 40
0.7493946856107142
 40
1.0
 40
1.0
 40
1.0
 40
1.0
 10
148.0405769249869
 20
100.8312873481027
 30
0.0
 10
148.039343908165
 20
100.8107781956458
 30
0.0
 10
148.0368897389395
 20
100.769957235294
 30
0.0
 10
148.0120254574578
 20
100.6916447776794
 30
0.0
 10
147.9547751713954
 20
100.6063570004807
 30
0.0
 10
147.8745840378937
 20
100.5145766755183
 30
0.0
 10
147.8184707887594
 20
100.4554125651534
 30
0.0
 10
147.7904099912262
 20
100.4258261101219
 30
0.0
  0
LWPOLYLINE
  5
11F
330
1F
100
AcDbEntity
  8
0
  6
Continuous
 62
     7
370
    15
100
AcDbPolyline
 90
        9
 70
   128
 43
0.0
 10
147.2773558578
 20
99.8783209352
 10
147.3415123417
 20
99.9467852953
 10
147.4056618406
 20
100.0152425395
 10
147.4698048203
 20
100.083692464
 10
147.5339403494
 20
100.1521349235
 10
147.5980688936
 20
100.2205696995
 10
147.6621904528
 20
100.2889965884
 10
147.7263040959
 20
100.3574154738
 10
147.7904098226
 20
100.4258260936
  0
LINE
  5
120
330
1F
100
AcDbEntity
  8
0
  6
Continuous
 62
     7
370
    15
100
AcDbLine
 10
148.1762604906
 20
99.8783209352
 30
0.0
 11
147.2773558578
 21
99.8783209352
 31
0.0
  0
LINE
  5
121
330
1F
100
AcDbEntity
  8
0
  6
Continuous
 62
     7
370
    15
100
AcDbLine
 10
148.1762604906
 20
100.0140046953
 30
0.0
 11
148.1762604906
 21
99.8783209352
 31
0.0
  0
LINE
  5
122
330
1F
100
AcDbEntity
  8
0
  6
Continuous
 62
     7
370
    15
100
AcDbLine
 10
147.5606488182
 20
100.0140046953
 30
0.0
 11
148.1762604906
 21
100.0140046953
 31
0.0
  0
LWPOLYLINE
  5
123
330
1F
100
AcDbEntity
  8
0
  6
Continuous
 62
     7
370
    15
100
AcDbPolyline
 90
        9
 70
   128
 43
0.0
 10
147.8916427238
 20
100.3672594661
 10
147.8502794287
 20
100.3231144559
 10
147.8089133395
 20
100.2789659533
 10
147.7675435251
 20
100.2348140164
 10
147.7261704511
 20
100.1906587034
 10
147.684794583
 20
100.1465000727
 10
147.6434154554
 20
100.1023381532
 10
147.6020335338
 20
100.0581730177
 10
147.5606488182
 20
100.0140046953
  0
SPLINE
  5
124
330
1F
100
AcDbEntity
  8
0
  6
Continuous
 62
     7
370
    15
100
AcDbSpline
210
0.0
220
0.0
230
1.0
 70
     8
 71
     3
 72
    14
 73
    10
 74
     0
 42
0.000000001
 43
0.00000001
 40
0.0
 40
0.0
 40
0.0
 40
0.0
 40
0.125173832200912
 40
0.2503507301452731
 40
0.5004750323914838
 40
0.6255499957134392
 40
0.7499137801870307
 40
0.8678092835127456
 40
1.0
 40
1.0
 40
1.0
 40
1.0
 10
147.8916427970488
 20
100.367259486858
 30
0.0
 10
147.9075278950236
 20
100.3843266771374
 30
0.0
 10
147.9392984800293
 20
100.4184614757039
 30
0.0
 10
148.0013017441129
 20
100.4880512082942
 30
0.0
 10
148.0601225295526
 20
100.5606070450844
 30
0.0
 10
148.1102362008863
 20
100.6392872894457
 30
0.0
 10
148.1382242300956
 20
100.7022016690176
 30
0.0
 10
148.1545856405349
 20
100.7705670817257
 30
0.0
 10
148.1576699235255
 20
100.8172251131076
 30
0.0
 10
148.1593002155851
 20
100.8418876419061
 30
0.0
  0
SPLINE
  5
125
330
1F
100
AcDbEntity
  8
0
  6
Continuous
 62
     7
370
    15
100
AcDbSpline
210
0.0
220
0.0
230
1.0
 70
     8
 71
     3
 72
    15
 73
    11
 74
     0
 42
0.000000001
 43
0.00000001
 40
0.0
 40
0.0
 40
0.0
 40
0.0
 40
0.1254991402722076
 40
0.2503070583612309
 40
0.3751826428380667
 40
0.5004491870961472
 40
0.6253983636707522
 40
0.7506186513305394
 40
0.8750548725099159
 40
0.9999999999999999
 40
0.9999999999999999
 40
0.9999999999999999
 40
0.9999999999999999
 10
148.1593002155851
 20
100.8418876419061
 30
0.0
 10
148.1579530604635
 20
100.8681410064381
 30
0.0
 10
148.15526617006
 20
100.9205031376355
 30
0.0
 10
148.131847449356
 20
100.9961360857531
 30
0.0
 10
148.0943299062115
 20
101.0652478789565
 30
0.0
 10
148.0447917381869
 20
101.1264661260802
 30
0.0
 10
147.9836482534315
 20
101.1761945971779
 30
0.0
 10
147.9136395987732
 20
101.2118832853632
 30
0.0
 10
147.837493585992
 20
101.2312800320677
 30
0.0
 10
147.7856458895627
 20
101.2338639477204
 30
0.0
 10
147.7596691391963
 20
101.2351585420129
 30
0.0
  0
SPLINE
  5
126
330
1F
100
AcDbEntity
  8
0
  6
Continuous
 62
     7
370
    15
100
AcDbSpline
210
0.0
220
0.0
230
1.0
 70
     8
 71
     3
 72
    14
 73
    10
 74
     0
 42
0.000000001
 43
0.00000001
 40
0.0
 40
0.0
 40
0.0
 40
0.0
 40
0.0632481589951003
 40
0.1262404152244674
 40
0.2517366013996445
 40
0.5010598639977315
 40
0.7501613648778707
 40
0.8674390995229628
 40
1.0
 40
1.0
 40
1.0
 40
1.0
 10
147.7596691391963
 20
101.2351585420129
 30
0.0
 10
147.7452631580144
 20
101.2347695306503
 30
0.0
 10
147.7165094824134
 20
101.2339930818693
 30
0.0
 10
147.6595661207875
 20
101.226522096819
 30
0.0
 10
147.5632476607756
 20
101.1980168630313
 30
0.0
 10
147.4434411211202
 20
101.1139124027673
 30
0.0
 10
147.3653910313071
 20
100.9922932964167
 30
0.0
 10
147.3351507548644
 20
100.881560424684
 30
0.0
 10
147.3306338096328
 20
100.8244750334129
 30
0.0
 10
147.3282371813971
 20
100.7941863197907
 30
0.0
  0
LINE
  5
127
330
1F
100
AcDbEntity
  8
0
  6
Continuous
 62
     7
370
    15
100
AcDbLine
 10
147.4469604089
 20
100.7941862908
 30
0.0
 11
147.3282372697
 21
100.7941862908
 31
0.0
  0
SPLINE
  5
128
330
1F
100
AcDbEntity
  8
0
  6
Continuous
 62
     7
370
    15
100
AcDbSpline
210
0.0
220
0.0
230
1.0
 70
     8
 71
     3
 72
    14
 73
    10
 74
     0
 42
0.000000001
 43
0.00000001
 40
0.0
 40
0.0
 40
0.0
 40
0.0
 40
0.0631900664382941
 40
0.1260195587756006
 40
0.2516101153188287
 40
0.5013695211021709
 40
0.7500631456674914
 40
0.8747696993064351
 40
1.0
 40
1.0
 40
1.0
 40
1.0
 10
146.2766880360979
 20
100.2175303368847
 30
0.0
 10
146.2786387436601
 20
100.2049799402137
 30
0.0
 10
146.2825290276895
 20
100.1799507617352
 30
0.0
 10
146.2943671695428
 20
100.1307496475788
 30
0.0
 10
146.3248808529941
 20
100.0477607403207
 30
0.0
 10
146.4001633660449
 20
99.94402887408363
 30
0.0
 10
146.5076746334144
 20
99.87380673771463
 30
0.0
 10
146.605099981787
 20
99.84820007049252
 30
0.0
 10
146.655194484402
 20
99.84566845518184
 30
0.0
 10
146.6802942226631
 20
99.84439999500438
 30
0.0
  0
SPLINE
  5
129
330
1F
100
AcDbEntity
  8
0
  6
Continuous
 62
     7
370
    15
100
AcDbSpline
210
0.0
220
0.0
230
1.0
 70
     8
 71
     3
 72
    16
 73
    12
 74
     0
 42
0.000000001
 43
0.00000001
 40
0.0
 40
0.0
 40
0.0
 40
0.0
 40
0.0745194014805918
 40
0.1437229230327119
 40
0.2867191220707234
 40
0.3936006669263807
 40
0.5006548438873334
 40
0.6252826656707942
 40
0.7502158241304749
 40
0.8685064274784927
 40
1.0
 40
1.0
 40
1.0
 40
1.0
 10
146.6802942226631
 20
99.84439999500438
 30
0.0
 10
146.6985048281579
 20
99.84494241478342
 30
0.0
 10
146.7336269762147
 20
99.84598856054687
 30
0.0
 10
146.8030947326558
 20
99.85573762825838
 30
0.0
 10
146.8783861692894
 20
99.87892933029207
 30
0.0
 10
146.9544150111855
 20
99.92271940961119
 30
0.0
 10
147.0177106936504
 20
99.97689891371209
 30
0.0
 10
147.070970709513
 20
100.0468606999241
 30
0.0
 10
147.1114713339436
 20
100.1278726579429
 30
0.0
 10
147.1359722825628
 20
100.2170833501543
 30
0.0
 10
147.1397063106846
 20
100.2783142229339
 30
0.0
 10
147.1416720104569
 20
100.3105479150097
 30
0.0
  0
SPLINE
  5
12A
330
1F
100
AcDbEntity
  8
0
  6
Continuous
 62
     7
370
    15
100
AcDbSpline
210
0.0
220
0.0
230
1.0
 70
     8
 71
     3
 72
    14
 73
    10
 74
     0
 42
0.000000001
 43
0.00000001
 40
0.0
 40
0.0
 40
0.0
 40
0.0
 40
0.1260007051587873
 40
0.2513657111866724
 40
0.5005373786148231
 40
0.6253505704847446
 40
0.7503721992393123
 40
0.874873505932025
 40
0.9999999999999999
 40
0.9999999999999999
 40
0.9999999999999999
 40
0.9999999999999999
 10
147.1416720104569
 20
100.3105479150097
 30
0.0
 10
147.1404794884469
 20
100.3388210222496
 30
0.0
 10
147.1381004609423
 20
100.3952245931649
 30
0.0
 10
147.1107174048846
 20
100.5047361509274
 30
0.0
 10
147.0502962861929
 20
100.6033210861078
 30
0.0
 10
146.9646107414987
 20
100.6759094381861
 30
0.0
 10
146.8905684413612
 20
100.716299421675
 30
0.0
 10
146.8091312763922
 20
100.7390809949788
 30
0.0
 10
146.7533206651681
 20
100.7418945891541
 30
0.0
 10
146.7253454713276
 20
100.7433049095343
 30
0.0
  0
SPLINE
  5
12B
330
1F
100
AcDbEntity
  8
0
  6
Continuous
 62
     7
370
    15
100
AcDbSpline
210
0.0
220
0.0
230
1.0
 70
     8
 71
     3
 72
    10
 73
     6
 74
     0
 42
0.000000001
 43
0.00000001
 40
0.0
 40
0.0
 40
0.0
 40
0.0
 40
0.250159830715999
 40
0.5002507007495717
 40
1.0
 40
1.0
 40
1.0
 40
1.0
 10
146.7253454713276
 20
100.7433049095343
 30
0.0
 10
146.7121347920001
 20
100.742912266442
 30
0.0
 10
146.6857170750866
 20
100.7421270884959
 30
0.0
 10
146.6333163486096
 20
100.734730336004
 30
0.0
 10
146.5950348154206
 20
100.7244504669362
 30
0.0
 10
146.5695211524174
 20
100.717599197061
 30
0.0
  0
LWPOLYLINE
  5
12C
330
1F
100
AcDbEntity
  8
0
  6
Continuous
 62
     7
370
    15
100
AcDbPolyline
 90
        9
 70
   128
 43
0.0
 10
146.6408080539
 20
101.0655538402
 10
146.6318980909
 20
101.0220635207
 10
146.6229876621
 20
100.9785720371
 10
146.6140772334
 20
100.9350792728
 10
146.605166339
 20
100.8915854609
 10
146.5962554446
 20
100.8480904847
 10
146.5873440846
 20
100.8045944609
 10
146.5784327245
 20
100.7610973311
 10
146.5695213644
 20
100.7175992117
  0
LINE
  5
12D
330
1F
100
AcDbEntity
  8
0
  6
Continuous
 62
     7
370
    15
100
AcDbLine
 10
147.0907905257
 20
101.0655538402
 30
0.0
 11
146.6408080539
 21
101.0655538402
 31
0.0
  0
LINE
  5
12E
330
1F
100
AcDbEntity
  8
0
  6
Continuous
 62
     7
370
    15
100
AcDbLine
 10
147.0907905257
 20
101.2012376441
 30
0.0
 11
147.0907905257
 21
101.0655538402
 31
0.0
  0
LINE
  5
12F
330
1F
100
AcDbEntity
  8
0
  6
Continuous
 62
     7
370
    15
100
AcDbLine
 10
146.5480557761
 20
101.2012376441
 30
0.0
 11
147.0907905257
 21
101.2012376441
 31
0.0
  0
LWPOLYLINE
  5
130
330
1F
100
AcDbEntity
  8
0
  6
Continuous
 62
     7
370
    15
100
AcDbPolyline
 90
        9
 70
   128
 43
0.0
 10
146.4123718558
 20
100.5397792896
 10
146.4293349652
 20
100.6224747389
 10
146.4462976089
 20
100.705166812
 10
146.4632593213
 20
100.7878552764
 10
146.4802201024
 20
100.8705400154
 10
146.4971804178
 20
100.9532207381
 10
146.5141398019
 20
101.0358973863
 10
146.5310982546
 20
101.118569727
 10
146.5480557761
 20
101.2012376441
  0
SPLINE
  5
131
330
1F
100
AcDbEntity
  8
0
  6
Continuous
 62
     7
370
    15
100
AcDbSpline
210
0.0
220
0.0
230
1.0
 70
     8
 71
     3
 72
    11
 73
     7
 74
     0
 42
0.000000001
 43
0.00000001
 40
0.0
 40
0.0
 40
0.0
 40
0.0
 40
0.2500974195126029
 40
0.5001799735732372
 40
0.7501902079717966
 40
1.0
 40
1.0
 40
1.0
 40
1.0
 10
146.4123717967817
 20
100.5397792685087
 30
0.0
 10
146.4358270182549
 20
100.548714371277
 30
0.0
 10
146.4827360670548
 20
100.5665840457233
 30
0.0
 10
146.5549827728682
 20
100.5877166061695
 30
0.0
 10
146.6286873956908
 20
100.603844378409
 30
0.0
 10
146.6788224180149
 20
100.6063625619916
 30
0.0
 10
146.7038798763757
 20
100.6076211488505
 30
0.0
  0
SPLINE
  5
132
330
1F
100
AcDbEntity
  8
0
  6
Continuous
 62
     7
370
    15
100
AcDbSpline
210
0.0
220
0.0
230
1.0
 70
     8
 71
     3
 72
    13
 73
     9
 74
     0
 42
0.000000001
 43
0.00000001
 40
0.0
 40
0.0
 40
0.0
 40
0.0
 40
0.126243937989714
 40
0.2520567993885114
 40
0.5020609572005396
 40
0.7508719330161894
 40
0.868357200574795
 40
0.9999999999999999
 40
0.9999999999999999
 40
0.9999999999999999
 40
0.9999999999999999
 10
146.7038798763757
 20
100.6076211488505
 30
0.0
 10
146.7242641552068
 20
100.6068774797297
 30
0.0
 10
146.7649631080581
 20
100.6053926808443
 30
0.0
 10
146.8445568506947
 20
100.5883037022058
 30
0.0
 10
146.9359369674106
 20
100.5390350874806
 30
0.0
 10
146.9971028204875
 20
100.4553931750073
 30
0.0
 10
147.0193138408804
 20
100.3772507251879
 30
0.0
 10
147.0216920437668
 20
100.3369032382012
 30
0.0
 10
147.0229487198586
 20
100.3155830545663
 30
0.0
  0
SPLINE
  5
133
330
1F
100
AcDbEntity
  8
0
  6
Continuous
 62
     7
370
    15
100
AcDbSpline
210
0.0
220
0.0
230
1.0
 70
     8
 71
     3
 72
    15
 73
    11
 74
     0
 42
0.000000001
 43
0.00000001
 40
0.0
 40
0.0
 40
0.0
 40
0.0
 40
0.0631509400443535
 40
0.1261291698146179
 40
0.2512430788307801
 40
0.5000361595511374
 40
0.6249288839007342
 40
0.7499311589294262
 40
0.8678020910995812
 40
1.0
 40
1.0
 40
1.0
 40
1.0
 10
147.0229487198586
 20
100.3155830545663
 30
0.0
 10
147.0225928502666
 20
100.304461707978
 30
0.0
 10
147.0218820843435
 20
100.2822494303552
 30
0.0
 10
147.0166148620998
 20
100.2382339829436
 30
0.0
 10
146.9949964968658
 20
100.1638174652665
 30
0.0
 10
146.9435513612266
 20
100.0892684724588
 30
0.0
 10
146.8753240930223
 20
100.0337541509254
 30
0.0
 10
146.8182392435995
 20
100.0024839353957
 30
0.0
 10
146.7543187903734
 20
99.98430472449796
 30
0.0
 10
146.710401249054
 20
99.9815434778592
 30
0.0
 10
146.6871844136354
 20
99.98008375568813
 30
0.0
  0
SPLINE
  5
134
330
1F
100
AcDbEntity
  8
0
  6
Continuous
 62
     7
370
    15
100
AcDbSpline
210
0.0
220
0.0
230
1.0
 70
     8
 71
     3
 72
    15
 73
    11
 74
     0
 42
0.000000001
 43
0.00000001
 40
0.0
 40
0.0
 40
0.0
 40
0.0
 40
0.1313940700581073
 40
0.2496275754387076
 40
0.3749838624416976
 40
0.5005270376378649
 40
0.6259959615307491
 40
0.7507077041753113
 40
0.8751298248434894
 40
1.0
 40
1.0
 40
1.0
 40
1.0
 10
146.6871844136354
 20
99.98008375568813
 30
0.0
 10
146.6692831397422
 20
99.9812028854461
 30
0.0
 10
146.6352736018898
 20
99.98332905177885
 30
0.0
 10
146.585318982614
 20
99.99552499222177
 30
0.0
 10
146.5389694484292
 20
100.0156697277309
 30
0.0
 10
146.4952124259489
 20
100.0430346265255
 30
0.0
 10
146.4575651802545
 20
100.078366185584
 30
0.0
 10
146.4275961991551
 20
100.1203490373714
 30
0.0
 10
146.4078292114631
 20
100.1678807524539
 30
0.0
 10
146.3995555783681
 20
100.2009606571729
 30
0.0
 10
146.3954113266963
 20
100.2175303368847
 30
0.0
  0
LINE
  5
135
330
1F
100
AcDbEntity
  8
0
  6
Continuous
 62
     7
370
    15
100
AcDbLine
 10
146.2766879356
 20
100.2175303283
 30
0.0
 11
146.3954115404
 21
100.2175303283
 31
0.0
  0
SPLINE
  5
136
330
1F
100
AcDbEntity
  8
0
  6
Continuous
 62
     7
370
    15
100
AcDbSpline
210
0.0
220
0.0
230
1.0
 70
     8
 71
     3
 72
    13
 73
     9
 74
     0
 42
0.000000001
 43
0.00000001
 40
0.0
 40
0.0
 40
0.0
 40
0.0
 40
0.126096442699776
 40
0.2515666280013468
 40
0.5008965998837613
 40
0.7502377811091909
 40
0.8748544548613988
 40
1.0
 40
1.0
 40
1.0
 40
1.0
 10
145.411704061739
 20
100.7941863197907
 30
0.0
 10
145.4139263188214
 20
100.8142810532204
 30
0.0
 10
145.4183597961567
 20
100.8543707196793
 30
0.0
 10
145.4411340256163
 20
100.9315567375823
 30
0.0
 10
145.4944949348598
 20
101.0192256215034
 30
0.0
 10
145.5807898914657
 20
101.0756567931678
 30
0.0
 10
145.6583668995833
 20
101.0963653582789
 30
0.0
 10
145.6983058163169
 20
101.0984368448551
 30
0.0
 10
145.7183175600029
 20
101.0994747813292
 30
0.0
  0
SPLINE
  5
137
330
1F
100
AcDbEntity
  8
0
  6
Continuous
 62
     7
370
    15
100
AcDbSpline
210
0.0
220
0.0
230
1.0
 70
     8
 71
     3
 72
    13
 73
     9
 74
     0
 42
0.000000001
 43
0.00000001
 40
0.0
 40
0.0
 40
0.0
 40
0.0
 40
0.1260034353776286
 40
0.2511441347168097
 40
0.5005221081151773
 40
0.7501703710817179
 40
0.8748269598912373
 40
0.9999999999999999
 40
0.9999999999999999
 40
0.9999999999999999
 40
0.9999999999999999
 10
145.7183175600029
 20
101.0994747813292
 30
0.0
 10
145.7365917658118
 20
101.0986262507047
 30
0.0
 10
145.7730150553179
 20
101.0969349992811
 30
0.0
 10
145.8436649086748
 20
101.0781993304392
 30
0.0
 10
145.9224512539766
 20
101.0293231469911
 30
0.0
 10
145.9785483070195
 20
100.95525618052
 30
0.0
 10
146.0020703946446
 20
100.885817847471
 30
0.0
 10
146.0042356493535
 20
100.8494892142448
 30
0.0
 10
146.0053205147304
 20
100.8312873481027
 30
0.0
  0
SPLINE
  5
138
330
1F
100
AcDbEntity
  8
0
  6
Continuous
 62
     7
370
    15
100
AcDbSpline
210
0.0
220
0.0
230
1.0
 70
     8
 71
     3
 72
    13
 73
     9
 74
     0
 42
0.000000001
 43
0.00000001
 40
0.0
 40
0.0
 40
0.0
 40
0.0
 40
0.1255942255361929
 40
0.2499882416615065
 40
0.4988548936748672
 40
0.7493864936742601
 40
0.8746902620829619
 40
1.0
 40
1.0
 40
1.0
 40
1.0
 10
146.0053205147304
 20
100.8312873481027
 30
0.0
 10
146.0040904975841
 20
100.8108006255272
 30
0.0
 10
146.0016422176387
 20
100.7700229565524
 30
0.0
 10
145.9768194606459
 20
100.691761937393
 30
0.0
 10
145.9196256516844
 20
100.6064083432819
 30
0.0
 10
145.8526814082195
 20
100.5300619366022
 30
0.0
 10
145.7974204204697
 20
100.470053946031
 30
0.0
 10
145.7692427511965
 20
100.4405689561983
 30
0.0
 10
145.7551535809697
 20
100.4258261101219
 30
0.0
  0
LWPOLYLINE
  5
139
330
1F
100
AcDbEntity
  8
0
  6
Continuous
 62
     7
370
    15
100
AcDbPolyline
 90
        9
 70
   128
 43
0.0
 10
145.2420993826
 20
99.8783209352
 10
145.3062465532
 20
99.946775611
 10
145.3703897657
 20
100.0152259212
 10
145.4345287873
 20
100.083671713
 10
145.4986631523
 20
100.1521127755
 10
145.5627930934
 20
100.2205489194
 10
145.626918378
 20
100.2889799701
 10
145.6910385402
 20
100.3574057822
 10
145.7551535803
 20
100.4258260936
  0
LINE
  5
13A
330
1F
100
AcDbEntity
  8
0
  6
Continuous
 62
     7
370
    15
100
AcDbLine
 10
146.141004481
 20
99.8783209352
 30
0.0
 11
145.2420993826
 21
99.8783209352
 31
0.0
  0
LINE
  5
13B
330
1F
100
AcDbEntity
  8
0
  6
Continuous
 62
     7
370
    15
100
AcDbLine
 10
146.141004481
 20
100.0140046953
 30
0.0
 11
146.141004481
 21
99.8783209352
 31
0.0
  0
LINE
  5
13C
330
1F
100
AcDbEntity
  8
0
  6
Continuous
 62
     7
370
    15
100
AcDbLine
 10
145.5253921101
 20
100.0140046953
 30
0.0
 11
146.141004481
 21
100.0140046953
 31
0.0
  0
LINE
  5
13D
330
1F
100
AcDbEntity
  8
0
  6
Continuous
 62
     7
370
    15
100
AcDbLine
 10
145.8563864815
 20
100.3672594661
 30
0.0
 11
145.5253921101
 21
100.0140046953
 31
0.0
  0
SPLINE
  5
13E
330
1F
100
AcDbEntity
  8
0
  6
Continuous
 62
     7
370
    15
100
AcDbSpline
210
0.0
220
0.0
230
1.0
 70
     8
 71
     3
 72
    14
 73
    10
 74
     0
 42
0.000000001
 43
0.00000001
 40
0.0
 40
0.0
 40
0.0
 40
0.0
 40
0.1251752583487065
 40
0.2503528717536297
 40
0.5004834953951386
 40
0.6255499872482436
 40
0.7499121171328739
 40
0.8674503238491666
 40
1.0
 40
1.0
 40
1.0
 40
1.0
 10
145.8563863867924
 20
100.367259486858
 30
0.0
 10
145.8722802095627
 20
100.3843365870095
 30
0.0
 10
145.9040681541309
 20
100.4184911086024
 30
0.0
 10
145.9660986123506
 20
100.4881240475926
 30
0.0
 10
146.0249575470888
 20
100.5607010199692
 30
0.0
 10
146.0750517756003
 20
100.6394069424478
 30
0.0
 10
146.1029746057578
 20
100.7022528197387
 30
0.0
 10
146.1193169670526
 20
100.7705673125181
 30
0.0
 10
146.1224063788191
 20
100.8171815294492
 30
0.0
 10
146.1240438053287
 20
100.8418876419061
 30
0.0
  0
SPLINE
  5
13F
330
1F
100
AcDbEntity
  8
0
  6
Continuous
 62
     7
370
    15
100
AcDbSpline
210
0.0
220
0.0
230
1.0
 70
     8
 71
     3
 72
    15
 73
    11
 74
     0
 42
0.000000001
 43
0.00000001
 40
0.0
 40
0.0
 40
0.0
 40
0.0
 40
0.125488000000702
 40
0.2502951858222255
 40
0.375181816397075
 40
0.5004374751888796
 40
0.6253845891420088
 40
0.7506087078664437
 40
0.875049265184598
 40
1.0
 40
1.0
 40
1.0
 40
1.0
 10
146.1240438053287
 20
100.8418876419061
 30
0.0
 10
146.1226935219977
 20
100.8681029816544
 30
0.0
 10
146.1200002810724
 20
100.920391434205
 30
0.0
 10
146.096675635474
 20
100.9959467007094
 30
0.0
 10
146.0592224513932
 20
101.0650156624987
 30
0.0
 10
146.0097561751964
 20
101.1262447864959
 30
0.0
 10
145.948642521342
 20
101.1760289303586
 30
0.0
 10
145.8786064116454
 20
101.2118039310418
 30
0.0
 10
145.802364563833
 20
101.2312765861259
 30
0.0
 10
145.750432086503
 20
101.2338627931905
 30
0.0
 10
145.7244127289398
 20
101.2351585420129
 30
0.0
  0
SPLINE
  5
140
330
1F
100
AcDbEntity
  8
0
  6
Continuous
 62
     7
370
    15
100
AcDbSpline
210
0.0
220
0.0
230
1.0
 70
     8
 71
     3
 72
    14
 73
    10
 74
     0
 42
0.000000001
 43
0.00000001
 40
0.0
 40
0.0
 40
0.0
 40
0.0
 40
0.0632534185457837
 40
0.1262368227950642
 40
0.2517369713744192
 40
0.5010488936481924
 40
0.7501479801959087
 40
0.8680371270707737
 40
1.0
 40
1.0
 40
1.0
 40
1.0
 10
145.7244127289398
 20
101.2351585420129
 30
0.0
 10
145.7099865611946
 20
101.2347721466287
 30
0.0
 10
145.6811958076965
 20
101.2340010052932
 30
0.0
 10
145.6241810793484
 20
101.2264913900503
 30
0.0
 10
145.5277504045229
 20
101.197932377311
 30
0.0
 10
145.4079332239224
 20
101.1136430001622
 30
0.0
 10
145.3299621539001
 20
100.9919143138258
 30
0.0
 10
145.299844776088
 20
100.8812923595975
 30
0.0
 10
145.295353108705
 20
100.8242919114823
 30
0.0
 10
145.2929807711407
 20
100.7941863197907
 30
0.0
  0
LINE
  5
141
330
1F
100
AcDbEntity
  8
0
  6
Continuous
 62
     7
370
    15
100
AcDbLine
 10
145.4117041665
 20
100.7941862908
 30
0.0
 11
145.2929807945
 21
100.7941862908
 31
0.0
  0
LINE
  5
142
330
1F
100
AcDbEntity
  8
0
  6
Continuous
 62
     7
370
    15
100
AcDbLine
 10
140.272681683
 20
100.8450677027
 30
0.0
 11
140.272681683
 21
99.8783209352
 31
0.0
  0
LINE
  5
143
330
1F
100
AcDbEntity
  8
0
  6
Continuous
 62
     7
370
    15
100
AcDbLine
 10
140.1539584274
 20
100.8450677027
 30
0.0
 11
140.272681683
 21
100.8450677027
 31
0.0
  0
LINE
  5
144
330
1F
100
AcDbEntity
  8
0
  6
Continuous
 62
     7
370
    15
100
AcDbLine
 10
140.1539584274
 20
100.6661877609
 30
0.0
 11
140.1539584274
 21
100.8450677027
 31
0.0
  0
SPLINE
  5
145
330
1F
100
AcDbEntity
  8
0
  6
Continuous
 62
     7
370
    15
100
AcDbSpline
210
0.0
220
0.0
230
1.0
 70
     8
 71
     3
 72
    13
 73
     9
 74
     0
 42
0.000000001
 43
0.00000001
 40
0.0
 40
0.0
 40
0.0
 40
0.0
 40
0.125513781888733
 40
0.2507682303120402
 40
0.4997147204340366
 40
0.7492026976682542
 40
0.8744883017585884
 40
1.0
 40
1.0
 40
1.0
 40
1.0
 10
140.1539583352432
 20
100.6661877721144
 30
0.0
 10
140.142216186111
 20
100.6811959169721
 30
0.0
 10
140.1187561491842
 20
100.7111811972306
 30
0.0
 10
140.0651805288399
 20
100.765062370095
 30
0.0
 10
139.9859205704743
 20
100.8188880290217
 30
0.0
 10
139.8951253072217
 20
100.8492326380758
 30
0.0
 10
139.8198758720814
 20
100.8599874566675
 30
0.0
 10
139.7818417159085
 20
100.8613475436041
 30
0.0
 10
139.7628074938971
 20
100.8620282001326
 30
0.0
  0
SPLINE
  5
146
330
1F
100
AcDbEntity
  8
0
  6
Continuous
 62
     7
370
    15
100
AcDbSpline
210
0.0
220
0.0
230
1.0
 70
     8
 71
     3
 72
    14
 73
    10
 74
     0
 42
0.000000001
 43
0.00000001
 40
0.0
 40
0.0
 40
0.0
 40
0.0
 40
0.0631884973590252
 40
0.1262855039662012
 40
0.251258518702877
 40
0.5006687886462133
 40
0.7499820132289492
 40
0.8746982135114536
 40
1.0
 40
1.0
 40
1.0
 40
1.0
 10
139.7628074938971
 20
100.8620282001326
 30
0.0
 10
139.7462355611559
 20
100.8614453406609
 30
0.0
 10
139.7131156902082
 20
100.8602804656411
 30
0.0
 10
139.6475672944491
 20
100.8523368008916
 30
0.0
 10
139.5365384935825
 20
100.8198121675968
 30
0.0
 10
139.3974641081486
 20
100.7261250538209
 30
0.0
 10
139.2993171556788
 20
100.5897269335303
 30
0.0
 10
139.2609474889784
 20
100.4629695649385
 30
0.0
 10
139.2570211755078
 20
100.3972707517555
 30
0.0
 10
139.2550534207133
 20
100.3643444060621
 30
0.0
  0
SPLINE
  5
147
330
1F
100
AcDbEntity
  8
0
  6
Continuous
 62
     7
370
    15
100
AcDbSpline
210
0.0
220
0.0
230
1.0
 70
     8
 71
     3
 72
    16
 73
    12
 74
     0
 42
0.000000001
 43
0.00000001
 40
0.0
 40
0.0
 40
0.0
 40
0.0
 40
0.0630552371142738
 40
0.1258751897059811
 40
0.2507278600506668
 40
0.3931854328245167
 40
0.5007544779527718
 40
0.6652812621379989
 40
0.829326250346372
 40
0.9114629549087131
 40
1.0
 40
1.0
 40
1.0
 40
1.0
 10
139.2550534207133
 20
100.3643444060621
 30
0.0
 10
139.2556060801171
 20
100.3477137764722
 30
0.0
 10
139.2567093367296
 20
100.3145145728792
 30
0.0
 10
139.2652147655202
 20
100.2488112613654
 30
0.0
 10
139.2902220161361
 20
100.1647073571741
 30
0.0
 10
139.3392471462927
 20
100.0777080633217
 30
0.0
 10
139.4113297745645
 20
99.99507892081283
 30
0.0
 10
139.5023090418177
 20
99.92283408449781
 30
0.0
 10
139.6037589668491
 20
99.88065857893801
 30
0.0
 10
139.690813205489
 20
99.86488365325052
 30
0.0
 10
139.7357739796185
 20
99.86256385891205
 30
0.0
 10
139.7590973910659
 20
99.86136046508985
 30
0.0
  0
SPLINE
  5
148
330
1F
100
AcDbEntity
  8
0
  6
Continuous
 62
     7
370
    15
100
AcDbSpline
210
0.0
220
0.0
230
1.0
 70
     8
 71
     3
 72
    14
 73
    10
 74
     0
 42
0.000000001
 43
0.00000001
 40
0.0
 40
0.0
 40
0.0
 40
0.0
 40
0.1253969438996333
 40
0.2505500087167631
 40
0.3099811151814206
 40
0.5000354541444367
 40
0.7491701671061776
 40
0.8744603935509914
 40
1.0
 40
1.0
 40
1.0
 40
1.0
 10
139.7590973910659
 20
99.86136046508985
 30
0.0
 10
139.7779425950513
 20
99.86186182593785
 30
0.0
 10
139.8155963518014
 20
99.8628635725589
 30
0.0
 10
139.8617746920516
 20
99.86987928584234
 30
0.0
 10
139.9166388514632
 20
99.8824868257903
 30
0.0
 10
139.9877180941905
 20
99.90736419229329
 30
0.0
 10
140.0609238324899
 20
99.95223978336789
 30
0.0
 10
140.1161972477636
 20
100.0033832817784
 30
0.0
 10
140.1413629659977
 20
100.0314788294917
 30
0.0
 10
140.1539583352432
 20
100.0455405699242
 30
0.0
  0
LINE
  5
149
330
1F
100
AcDbEntity
  8
0
  6
Continuous
 62
     7
370
    15
100
AcDbLine
 10
140.1539584274
 20
99.8783209352
 30
0.0
 11
140.1539584274
 21
100.0455405728
 31
0.0
  0
LINE
  5
14A
330
1F
100
AcDbEntity
  8
0
  6
Continuous
 62
     7
370
    15
100
AcDbLine
 10
140.272681683
 20
99.8783209352
 30
0.0
 11
140.1539584274
 21
99.8783209352
 31
0.0
  0
LINE
  5
14B
330
1F
100
AcDbEntity
  8
0
  6
Continuous
 62
     7
370
    15
100
AcDbLine
 10
139.0176068178
 20
100.4019754464
 30
0.0
 11
139.0176068178
 21
99.8783209352
 31
0.0
  0
SPLINE
  5
14C
330
1F
100
AcDbEntity
  8
0
  6
Continuous
 62
     7
370
    15
100
AcDbSpline
210
0.0
220
0.0
230
1.0
 70
     8
 71
     3
 72
    14
 73
    10
 74
     0
 42
0.000000001
 43
0.00000001
 40
0.0
 40
0.0
 40
0.0
 40
0.0
 40
0.2505917972611485
 40
0.3755438465892625
 40
0.5007923736233447
 40
0.6257306001170464
 40
0.7506216414177398
 40
0.8750916014406874
 40
0.9999999999999999
 40
0.9999999999999999
 40
0.9999999999999999
 40
0.9999999999999999
 10
139.0176068395168
 20
100.4019754490642
 30
0.0
 10
139.0163668528822
 20
100.4557288398601
 30
0.0
 10
139.0145085743769
 20
100.5362851683887
 30
0.0
 10
138.9939519230203
 20
100.6420263284957
 30
0.0
 10
138.9622193595093
 20
100.7166419638004
 30
0.0
 10
138.9120824152338
 20
100.7806229211599
 30
0.0
 10
138.8465876470842
 20
100.8282318414091
 30
0.0
 10
138.7704966476845
 20
100.8568176318737
 30
0.0
 10
138.7170786999437
 20
100.8602893094976
 30
0.0
 10
138.6903227683362
 20
100.8620282001326
 30
0.0
  0
SPLINE
  5
14D
330
1F
100
AcDbEntity
  8
0
  6
Continuous
 62
     7
370
    15
100
AcDbSpline
210
0.0
220
0.0
230
1.0
 70
     8
 71
     3
 72
    13
 73
     9
 74
     0
 42
0.000000001
 43
0.00000001
 40
0.0
 40
0.0
 40
0.0
 40
0.0
 40
0.1258146575430341
 40
0.2506692839223534
 40
0.4998237604200152
 40
0.749486218241002
 40
0.8669431837438705
 40
1.0
 40
1.0
 40
1.0
 40
1.0
 10
138.6903227683362
 20
100.8620282001326
 30
0.0
 10
138.6716194452102
 20
100.8611753940059
 30
0.0
 10
138.6343555150249
 20
100.859476289106
 30
0.0
 10
138.5617481419758
 20
100.8421982962687
 30
0.0
 10
138.4773722270838
 20
100.8005128734315
 30
0.0
 10
138.4093792005497
 20
100.737391228352
 30
0.0
 10
138.3645065888072
 20
100.6778908482079
 30
0.0
 10
138.3457207633975
 20
100.6456702431658
 30
0.0
 10
138.3357429406119
 20
100.6285567291123
 30
0.0
  0
SPLINE
  5
14E
330
1F
100
AcDbEntity
  8
0
  6
Continuous
 62
     7
370
    15
100
AcDbSpline
210
0.0
220
0.0
230
1.0
 70
     8
 71
     3
 72
    15
 73
    11
 74
     0
 42
0.000000001
 43
0.00000001
 40
0.0
 40
0.0
 40
0.0
 40
0.0
 40
0.125646662003295
 40
0.2507125038724552
 40
0.3507313103176777
 40
0.5000231053636099
 40
0.6254416239454833
 40
0.7503071487944194
 40
0.8679886942236948
 40
1.0
 40
1.0
 40
1.0
 40
1.0
 10
138.3357429406119
 20
100.6285567291123
 30
0.0
 10
138.3297007055601
 20
100.6449222135266
 30
0.0
 10
138.3176441665748
 20
100.6775775305018
 30
0.0
 10
138.2955215723909
 20
100.7211275946913
 30
0.0
 10
138.2653359810638
 20
100.7635914714763
 30
0.0
 10
138.2268607916156
 20
100.7993242589424
 30
0.0
 10
138.1791312475642
 20
100.8278455326632
 30
0.0
 10
138.1317634215035
 20
100.8472376744795
 30
0.0
 10
138.0808955919597
 20
100.8586790096043
 30
0.0
 10
138.0463391979316
 20
100.8608698920376
 30
0.0
 10
138.0280694129676
 20
100.8620282001326
 30
0.0
  0
SPLINE
  5
14F
330
1F
100
AcDbEntity
  8
0
  6
Continuous
 62
     7
370
    15
100
AcDbSpline
210
0.0
220
0.0
230
1.0
 70
     8
 71
     3
 72
    11
 73
     7
 74
     0
 42
0.000000001
 43
0.00000001
 40
0.0
 40
0.0
 40
0.0
 40
0.0
 40
0.2496702059883668
 40
0.4988572743281685
 40
0.7492805089279672
 40
1.0
 40
1.0
 40
1.0
 40
1.0
 10
138.0280694129676
 20
100.8620282001326
 30
0.0
 10
138.0108525632755
 20
100.8611813707224
 30
0.0
 10
137.9764521802744
 20
100.8594893506044
 30
0.0
 10
137.9253166317876
 20
100.8508657296208
 30
0.0
 10
137.8756826100928
 20
100.8353782016712
 30
0.0
 10
137.8444229561783
 20
100.8204635670727
 30
0.0
 10
137.8287838894634
 20
100.8130018412918
 30
0.0
  0
SPLINE
  5
150
330
1F
100
AcDbEntity
  8
0
  6
Continuous
 62
     7
370
    15
100
AcDbSpline
210
0.0
220
0.0
230
1.0
 70
     8
 71
     3
 72
    11
 73
     7
 74
     0
 42
0.000000001
 43
0.00000001
 40
0.0
 40
0.0
 40
0.0
 40
0.0
 40
0.2664134134259627
 40
0.4988300203478137
 40
0.7493310873444337
 40
1.0
 40
1.0
 40
1.0
 40
1.0
 10
137.8287838894634
 20
100.8130018412918
 30
0.0
 10
137.8149183178754
 20
100.8030537350545
 30
0.0
 10
137.7889565494029
 20
100.7844269926059
 30
0.0
 10
137.7537048594504
 20
100.751692220711
 30
0.0
 10
137.7230974252244
 20
100.7159478965875
 30
0.0
 10
137.704161370918
 20
100.6900209087533
 30
0.0
 10
137.6946901728501
 20
100.6770530732629
 30
0.0
  0
LINE
  5
151
330
1F
100
AcDbEntity
  8
0
  6
Continuous
 62
     7
370
    15
100
AcDbLine
 10
137.6946901089
 20
100.8450677027
 30
0.0
 11
137.6946901089
 21
100.6770530939
 31
0.0
  0
LINE
  5
152
330
1F
100
AcDbEntity
  8
0
  6
Continuous
 62
     7
370
    15
100
AcDbLine
 10
137.5759669697
 20
100.8450677027
 30
0.0
 11
137.6946901089
 21
100.8450677027
 31
0.0
  0
SPLINE
  5
153
330
1F
100
AcDbEntity
  8
0
  6
Continuous
 62
     7
370
    15
100
AcDbSpline
210
0.0
220
0.0
230
1.0
 70
     8
 71
     3
 72
     9
 73
     5
 74
     0
 42
0.000000001
 43
0.00000001
 40
0.0
 40
0.0
 40
0.0
 40
0.0
 40
0.5009850549360089
 40
1.0
 40
1.0
 40
1.0
 40
1.0
 10
137.5759668822518
 20
100.8450677300471
 30
0.0
 10
137.5760227142534
 20
100.6836345169127
 30
0.0
 10
137.5761341586986
 20
100.3614029222896
 30
0.0
 10
137.5760225677853
 20
100.0391366308794
 30
0.0
 10
137.5759668822518
 20
99.87832093517532
 30
0.0
  0
LINE
  5
154
330
1F
100
AcDbEntity
  8
0
  6
Continuous
 62
     7
370
    15
100
AcDbLine
 10
137.6946901089
 20
99.8783209352
 30
0.0
 11
137.5759669697
 21
99.8783209352
 31
0.0
  0
LINE
  5
155
330
1F
100
AcDbEntity
  8
0
  6
Continuous
 62
     7
370
    15
100
AcDbLine
 10
137.6946901089
 20
100.2851072107
 30
0.0
 11
137.6946901089
 21
99.8783209352
 31
0.0
  0
SPLINE
  5
156
330
1F
100
AcDbEntity
  8
0
  6
Continuous
 62
     7
370
    15
100
AcDbSpline
210
0.0
220
0.0
230
1.0
 70
     8
 71
     3
 72
    15
 73
    11
 74
     0
 42
0.000000001
 43
0.00000001
 40
0.0
 40
0.0
 40
0.0
 40
0.0
 40
0.1254885741396365
 40
0.2508976037743166
 40
0.3760534974049412
 40
0.5013033917647081
 40
0.7497554230954331
 40
0.8746772553880608
 40
0.9345426647172028
 40
1.0
 40
1.0
 40
1.0
 40
1.0
 10
137.6946901728501
 20
100.2851072098815
 30
0.0
 10
137.6949776594616
 20
100.3112674695279
 30
0.0
 10
137.695552450453
 20
100.3635714063954
 30
0.0
 10
137.7023307005377
 20
100.441736374925
 30
0.0
 10
137.7169942477201
 20
100.5189721096912
 30
0.0
 10
137.7563494532465
 20
100.616132891903
 30
0.0
 10
137.8333509418323
 20
100.6935158409137
 30
0.0
 10
137.9165858580158
 20
100.7303991784546
 30
0.0
 10
137.9677921129735
 20
100.7406966988101
 30
0.0
 10
137.9938096287706
 20
100.7424100230034
 30
0.0
 10
138.0073988400509
 20
100.7433049095343
 30
0.0
  0
SPLINE
  5
157
330
1F
100
AcDbEntity
  8
0
  6
Continuous
 62
     7
370
    15
100
AcDbSpline
210
0.0
220
0.0
230
1.0
 70
     8
 71
     3
 72
    15
 73
    11
 74
     0
 42
0.000000001
 43
0.00000001
 40
0.0
 40
0.0
 40
0.0
 40
0.0
 40
0.1254224457964779
 40
0.2505241708935713
 40
0.3756407477511243
 40
0.5008149104674485
 40
0.6251211670903449
 40
0.7495577322149362
 40
0.8749130557465961
 40
1.0
 40
1.0
 40
1.0
 40
1.0
 10
138.0073988400509
 20
100.7433049095343
 30
0.0
 10
138.0285045260945
 20
100.7420567212874
 30
0.0
 10
138.070661928333
 20
100.7395635365652
 30
0.0
 10
138.1300223902693
 20
100.7149676513444
 30
0.0
 10
138.1792874659686
 20
100.6743533757559
 30
0.0
 10
138.2136453020274
 20
100.6201614960622
 30
0.0
 10
138.2287489378735
 20
100.5585696779227
 30
0.0
 10
138.2360983470998
 20
100.4960941588294
 30
0.0
 10
138.2376206432348
 20
100.4330298656688
 30
0.0
 10
138.2374903115796
 20
100.3909346253763
 30
0.0
 10
138.2374252155851
 20
100.3699095603089
 30
0.0
  0
LINE
  5
158
330
1F
100
AcDbEntity
  8
0
  6
Continuous
 62
     7
370
    15
100
AcDbLine
 10
138.2374253242
 20
99.8783209352
 30
0.0
 11
138.2374253242
 21
100.3699095445
 31
0.0
  0
LINE
  5
159
330
1F
100
AcDbEntity
  8
0
  6
Continuous
 62
     7
370
    15
100
AcDbLine
 10
138.3561484634
 20
99.8783209352
 30
0.0
 11
138.2374253242
 21
99.8783209352
 31
0.0
  0
LINE
  5
15A
330
1F
100
AcDbEntity
  8
0
  6
Continuous
 62
     7
370
    15
100
AcDbLine
 10
138.3561484634
 20
100.254366348
 30
0.0
 11
138.3561484634
 21
99.8783209352
 31
0.0
  0
SPLINE
  5
15B
330
1F
100
AcDbEntity
  8
0
  6
Continuous
 62
     7
370
    15
100
AcDbSpline
210
0.0
220
0.0
230
1.0
 70
     8
 71
     3
 72
    14
 73
    10
 74
     0
 42
0.000000001
 43
0.00000001
 40
0.0
 40
0.0
 40
0.0
 40
0.0
 40
0.1257495029914085
 40
0.2514700449750448
 40
0.376845129401165
 40
0.5021372094014455
 40
0.7501230498530456
 40
0.8749851934677108
 40
1.0
 40
1.0
 40
1.0
 40
1.0
 10
138.3561485061834
 20
100.2543663578516
 30
0.0
 10
138.3564172742161
 20
100.2818885495381
 30
0.0
 10
138.3569547483823
 20
100.3369265943539
 30
0.0
 10
138.3625335187355
 20
100.4192304028504
 30
0.0
 10
138.3738403910192
 20
100.5010305562596
 30
0.0
 10
138.4093931199648
 20
100.605236766164
 30
0.0
 10
138.4872662756173
 20
100.6896672347936
 30
0.0
 10
138.5874337675262
 20
100.7365544104452
 30
0.0
 10
138.6422348924958
 20
100.7410538268615
 30
0.0
 10
138.6696521954196
 20
100.7433049095343
 30
0.0
  0
SPLINE
  5
15C
330
1F
100
AcDbEntity
  8
0
  6
Continuous
 62
     7
370
    15
100
AcDbSpline
210
0.0
220
0.0
230
1.0
 70
     8
 71
     3
 72
    14
 73
    10
 74
     0
 42
0.000000001
 43
0.00000001
 40
0.0
 40
0.0
 40
0.0
 40
0.0
 40
0.125397126467273
 40
0.2506192033480467
 40
0.3759917078431132
 40
0.5012401925202068
 40
0.7494082201564416
 40
0.8747804928009986
 40
1.0
 40
1.0
 40
1.0
 40
1.0
 10
138.6696521954196
 20
100.7433049095343
 30
0.0
 10
138.68944643473
 20
100.7422802555941
 30
0.0
 10
138.729007281351
 20
100.7402323780913
 30
0.0
 10
138.7854054309959
 20
100.7193638309793
 30
0.0
 10
138.8340498927493
 20
100.6844988026197
 30
0.0
 10
138.8821858015811
 20
100.6204115236922
 30
0.0
 10
138.8957607283193
 20
100.5400198721287
 30
0.0
 10
138.8990048624329
 20
100.4618156974007
 30
0.0
 10
138.8989239703188
 20
100.4222675051967
 30
0.0
 10
138.8988835489185
 20
100.4025054637544
 30
0.0
  0
LINE
  5
15D
330
1F
100
AcDbEntity
  8
0
  6
Continuous
 62
     7
370
    15
100
AcDbLine
 10
138.8988834458
 20
99.8783209352
 30
0.0
 11
138.8988834458
 21
100.4025054853
 31
0.0
  0
LINE
  5
15E
330
1F
100
AcDbEntity
  8
0
  6
Continuous
 62
     7
370
    15
100
AcDbLine
 10
139.0176068178
 20
99.8783209352
 30
0.0
 11
138.8988834458
 21
99.8783209352
 31
0.0
  0
SPLINE
  5
15F
330
1F
100
AcDbEntity
  8
0
  6
Continuous
 62
     7
370
    15
100
AcDbSpline
210
0.0
220
0.0
230
1.0
 70
     8
 71
     3
 72
    14
 73
    10
 74
     0
 42
0.000000001
 43
0.00000001
 40
0.0
 40
0.0
 40
0.0
 40
0.0
 40
0.1256236453279988
 40
0.2511899441670311
 40
0.3762059611041688
 40
0.5012469061519952
 40
0.7860240290813589
 40
0.8914597839764248
 40
1.0
 40
1.0
 40
1.0
 40
1.0
 10
135.5539608392497
 20
100.1836093967138
 30
0.0
 10
135.5438216472198
 20
100.1686738808455
 30
0.0
 10
135.5235478916444
 20
100.1388096670881
 30
0.0
 10
135.4895594397192
 20
100.0967151836015
 30
0.0
 10
135.4502593040397
 20
100.059440863707
 30
0.0
 10
135.3852600285214
 20
100.0182482637704
 30
0.0
 10
135.3145871441774
 20
99.99352600819174
 30
0.0
 10
135.2441309434079
 20
99.98213913852369
 30
0.0
 10
135.2135621330905
 20
99.9807754781691
 30
0.0
 10
135.1980559747999
 20
99.98008375568814
 30
0.0
  0
SPLINE
  5
160
330
1F
100
AcDbEntity
  8
0
  6
Continuous
 62
     7
370
    15
100
AcDbSpline
210
0.0
220
0.0
230
1.0
 70
     8
 71
     3
 72
    13
 73
     9
 74
     0
 42
0.000000001
 43
0.00000001
 40
0.0
 40
0.0
 40
0.0
 40
0.0
 40
0.1260809234490624
 40
0.2514190384905995
 40
0.5007278226704674
 40
0.7500891547520102
 40
0.8747881646633627
 40
1.0
 40
1.0
 40
1.0
 40
1.0
 10
135.1980559747999
 20
99.98008375568814
 30
0.0
 10
135.1747022998599
 20
99.98121844574315
 30
0.0
 10
135.128132538646
 20
99.98348114080285
 30
0.0
 10
135.0383523837525
 20
100.0094702856132
 30
0.0
 10
134.9400540166216
 20
100.0762926956433
 30
0.0
 10
134.8746833837064
 20
100.1760267460321
 30
0.0
 10
134.8503154520139
 20
100.2664323092431
 30
0.0
 10
134.8469948876352
 20
100.3129480374589
 30
0.0
 10
134.8453311984911
 20
100.336253627483
 30
0.0
  0
LINE
  5
161
330
1F
100
AcDbEntity
  8
0
  6
Continuous
 62
     7
370
    15
100
AcDbLine
 10
135.7103150456
 20
100.336253613
 30
0.0
 11
134.8453310436
 21
100.336253613
 31
0.0
  0
SPLINE
  5
162
330
1F
100
AcDbEntity
  8
0
  6
Continuous
 62
     7
370
    15
100
AcDbSpline
210
0.0
220
0.0
230
1.0
 70
     8
 71
     3
 72
    11
 73
     7
 74
     0
 42
0.000000001
 43
0.00000001
 40
0.0
 40
0.0
 40
0.0
 40
0.0
 40
0.2507595851003974
 40
0.5001584203135252
 40
0.7492606824676151
 40
1.0
 40
1.0
 40
1.0
 40
1.0
 10
135.7103151728501
 20
100.336253627483
 30
0.0
 10
135.7091296105088
 20
100.3662098639636
 30
0.0
 10
135.7067649192945
 20
100.4259597790492
 30
0.0
 10
135.6875089612959
 20
100.5136096000649
 30
0.0
 10
135.6557917054739
 20
100.5978396734837
 30
0.0
 10
135.6220389215182
 20
100.6470614392054
 30
0.0
 10
135.6051072568511
 20
100.6717529263612
 30
0.0
  0
SPLINE
  5
163
330
1F
100
AcDbEntity
  8
0
  6
Continuous
 62
     7
370
    15
100
AcDbSpline
210
0.0
220
0.0
230
1.0
 70
     8
 71
     3
 72
    14
 73
    10
 74
     0
 42
0.000000001
 43
0.00000001
 40
0.0
 40
0.0
 40
0.0
 40
0.0
 40
0.1261009050035352
 40
0.251265293272355
 40
0.5008378610474555
 40
0.625232320451464
 40
0.7498336908927582
 40
0.8678747933101042
 40
1.0
 40
1.0
 40
1.0
 40
1.0
 10
135.6051072568511
 20
100.6717529263612
 30
0.0
 10
135.5931010419539
 20
100.6864317811462
 30
0.0
 10
135.5691777790149
 20
100.7156804748995
 30
0.0
 10
135.5145770237515
 20
100.7676435242838
 30
0.0
 10
135.4511040075099
 20
100.808869785238
 30
0.0
 10
135.3819932230475
 20
100.837653347429
 30
0.0
 10
135.3286092018889
 20
100.8513551194887
 30
0.0
 10
135.2730074297664
 20
100.8594899647291
 30
0.0
 10
135.235579178472
 20
100.861150951061
 30
0.0
 10
135.2158114669206
 20
100.8620282001326
 30
0.0
  0
SPLINE
  5
164
330
1F
100
AcDbEntity
  8
0
  6
Continuous
 62
     7
370
    15
100
AcDbSpline
210
0.0
220
0.0
230
1.0
 70
     8
 71
     3
 72
    13
 73
     9
 74
     0
 42
0.000000001
 43
0.00000001
 40
0.0
 40
0.0
 40
0.0
 40
0.0
 40
0.1254927330207289
 40
0.2507193735052231
 40
0.4999633952417977
 40
0.749267497997889
 40
0.8745220361688388
 40
1.0
 40
1.0
 40
1.0
 40
1.0
 10
135.2158114669206
 20
100.8620282001326
 30
0.0
 10
135.1976934574478
 20
100.8614778924869
 30
0.0
 10
135.161495855604
 20
100.8603784440581
 30
0.0
 10
135.0899426821074
 20
100.8498754217585
 30
0.0
 10
135.0032851568804
 20
100.8221277245598
 30
0.0
 10
134.9261419325714
 20
100.7732014733141
 30
0.0
 10
134.8733135454067
 20
100.7233736444451
 30
0.0
 10
134.8497188520334
 20
100.6956815771888
 30
0.0
 10
134.8379109928287
 20
100.6818232054745
 30
0.0
  0
SPLINE
  5
165
330
1F
100
AcDbEntity
  8
0
  6
Continuous
 62
     7
370
    15
100
AcDbSpline
210
0.0
220
0.0
230
1.0
 70
     8
 71
     3
 72
    12
 73
     8
 74
     0
 42
0.000000001
 43
0.00000001
 40
0.0
 40
0.0
 40
0.0
 40
0.0
 40
0.2508445824644489
 40
0.4999202329561932
 40
0.7489474373076351
 40
0.874407518637978
 40
1.0
 40
1.0
 40
1.0
 40
1.0
 10
134.8379109928287
 20
100.6818232054745
 30
0.0
 10
134.8209269148108
 20
100.6581796732262
 30
0.0
 10
134.7870785288666
 20
100.6110593406549
 30
0.0
 10
134.7522848647738
 20
100.5308667139816
 30
0.0
 10
134.7341695469337
 20
100.4604915541506
 30
0.0
 10
134.7280060706616
 20
100.4027208365819
 30
0.0
 10
134.7270741259787
 20
100.3736082360993
 30
0.0
 10
134.7266079078929
 20
100.3590442591604
 30
0.0
  0
SPLINE
  5
166
330
1F
100
AcDbEntity
  8
0
  6
Continuous
 62
     7
370
    15
100
AcDbSpline
210
0.0
220
0.0
230
1.0
 70
     8
 71
     3
 72
    16
 73
    12
 74
     0
 42
0.000000001
 43
0.00000001
 40
0.0
 40
0.0
 40
0.0
 40
0.0
 40
0.0632007735050455
 40
0.1260619808994796
 40
0.2512936315699212
 40
0.3763089083199913
 40
0.5016783412257089
 40
0.6613471508687482
 40
0.8178895690808026
 40
0.9042314478885753
 40
1.0
 40
1.0
 40
1.0
 40
1.0
 10
134.7266079078929
 20
100.3590442591604
 30
0.0
 10
134.7271330965621
 20
100.3426141012044
 30
0.0
 10
134.7281806521588
 20
100.3098420615039
 30
0.0
 10
134.7364890621838
 20
100.2449273944958
 30
0.0
 10
134.7597052403283
 20
100.1663591766351
 30
0.0
 10
134.803914810059
 20
100.0789554238724
 30
0.0
 10
134.8677565820894
 20
99.99330959745791
 30
0.0
 10
134.9567541640139
 20
99.91884724041032
 30
0.0
 10
135.0548842534754
 20
99.879853914321
 30
0.0
 10
135.1411889970453
 20
99.86472911370353
 30
0.0
 10
135.1881830639694
 20
99.86252144026251
 30
0.0
 10
135.2128963861247
 20
99.86136046508985
 30
0.0
  0
SPLINE
  5
167
330
1F
100
AcDbEntity
  8
0
  6
Continuous
 62
     7
370
    15
100
AcDbSpline
210
0.0
220
0.0
230
1.0
 70
     8
 71
     3
 72
    15
 73
    11
 74
     0
 42
0.000000001
 43
0.00000001
 40
0.0
 40
0.0
 40
0.0
 40
0.0
 40
0.0631165666063442
 40
0.1260565262799004
 40
0.2514097217813824
 40
0.262939739224996
 40
0.5011594191839016
 40
0.7501418517599411
 40
0.8678081608053605
 40
1.0
 40
1.0
 40
1.0
 40
1.0
 10
135.2128963861247
 20
99.86136046508985
 30
0.0
 10
135.2244044610182
 20
99.86159881042457
 30
0.0
 10
135.2473884099757
 20
99.86207483417816
 30
0.0
 10
135.2931492241932
 20
99.86525732137883
 30
0.0
 10
135.3291896515778
 20
99.87165548741447
 30
0.0
 10
135.3955317571212
 20
99.88846758973341
 30
0.0
 10
135.4810442353577
 20
99.92353548603062
 30
0.0
 10
135.5679347869496
 20
99.99513341371645
 30
0.0
 10
135.6236875381584
 20
100.0678959052957
 30
0.0
 10
135.6470653309544
 20
100.107349333079
 30
0.0
 10
135.6594337625937
 20
100.1282228615909
 30
0.0
  0
LWPOLYLINE
  5
168
330
1F
100
AcDbEntity
  8
0
  6
Continuous
 62
     7
370
    15
100
AcDbPolyline
 90
        9
 70
   128
 43
0.0
 10
135.5539608865
 20
100.1836094065
 10
135.5671437575
 20
100.1766867402
 10
135.5803270942
 20
100.1697638994
 10
135.5935104309
 20
100.1628408548
 10
135.6066942333
 20
100.1559176356
 10
135.619878967
 20
100.1489942127
 10
135.633063235
 20
100.1420706152
 10
135.6462484344
 20
100.135146843
 10
135.6594336337
 20
100.1282228671
  0
LINE
  5
169
330
1F
100
AcDbEntity
  8
0
  6
Continuous
 62
     7
370
    15
100
AcDbLine
 10
134.0312284535
 20
100.5228187996
 30
0.0
 11
134.0312284535
 21
99.8783209352
 31
0.0
  0
LINE
  5
16A
330
1F
100
AcDbEntity
  8
0
  6
Continuous
 62
     7
370
    15
100
AcDbLine
 10
134.5570033534
 20
100.5228187996
 30
0.0
 11
134.0312284535
 21
100.5228187996
 31
0.0
  0
LINE
  5
16B
330
1F
100
AcDbEntity
  8
0
  6
Continuous
 62
     7
370
    15
100
AcDbLine
 10
134.5570033534
 20
100.6585025452
 30
0.0
 11
134.5570033534
 21
100.5228187996
 31
0.0
  0
LINE
  5
16C
330
1F
100
AcDbEntity
  8
0
  6
Continuous
 62
     7
370
    15
100
AcDbLine
 10
134.0312284535
 20
100.6585025452
 30
0.0
 11
134.5570033534
 21
100.6585025452
 31
0.0
  0
LINE
  5
16D
330
1F
100
AcDbEntity
  8
0
  6
Continuous
 62
     7
370
    15
100
AcDbLine
 10
134.0312284535
 20
101.0655538402
 30
0.0
 11
134.0312284535
 21
100.6585025452
 31
0.0
  0
LINE
  5
16E
330
1F
100
AcDbEntity
  8
0
  6
Continuous
 62
     7
370
    15
100
AcDbLine
 10
134.5570033534
 20
101.0655538402
 30
0.0
 11
134.0312284535
 21
101.0655538402
 31
0.0
  0
LINE
  5
16F
330
1F
100
AcDbEntity
  8
0
  6
Continuous
 62
     7
370
    15
100
AcDbLine
 10
134.5570033534
 20
101.2012376441
 30
0.0
 11
134.5570033534
 21
101.0655538402
 31
0.0
  0
LINE
  5
170
330
1F
100
AcDbEntity
  8
0
  6
Continuous
 62
     7
370
    15
100
AcDbLine
 10
133.9125053144
 20
101.2012376441
 30
0.0
 11
134.5570033534
 21
101.2012376441
 31
0.0
  0
LINE
  5
171
330
1F
100
AcDbEntity
  8
0
  6
Continuous
 62
     7
370
    15
100
AcDbLine
 10
133.9125053144
 20
99.8783209352
 30
0.0
 11
133.9125053144
 21
101.2012376441
 31
0.0
  0
LINE
  5
172
330
1F
100
AcDbEntity
  8
0
  6
Continuous
 62
     7
370
    15
100
AcDbLine
 10
134.0312284535
 20
99.8783209352
 30
0.0
 11
133.9125053144
 21
99.8783209352
 31
0.0
  0
CIRCLE
  5
173
330
1F
100
AcDbEntity
  8
0
  6
Continuous
 62
     7
370
    15
100
AcDbCircle
 10
142.1298531002
 20
99.8783209352
 30
0.0
 40
26.00000000000006
  0
SPLINE
  5
174
330
1F
100
AcDbEntity
  8
0
  6
Continuous
 62
     7
370
    15
100
AcDbSpline
210
0.0
220
0.0
230
1.0
 70
     8
 71
     3
 72
    11
 73
     7
 74
     0
 42
0.000000001
 43
0.00000001
 40
0.0
 40
0.0
 40
0.0
 40
0.0
 40
0.2505682414141831
 40
0.4997897655364976
 40
0.7490588604963044
 40
1.0
 40
1.0
 40
1.0
 40
1.0
 10
134.9727997314772
 20
100.6526723975151
 30
0.0
 10
134.9906338551307
 20
100.6667794429077
 30
0.0
 10
135.0262062502156
 20
100.6949177132225
 30
0.0
 10
135.0883691451993
 20
100.7228886498461
 30
0.0
 10
135.1540504021251
 20
100.740676306037
 30
0.0
 10
135.1992375425091
 20
100.7424267579662
 30
0.0
 10
135.2219066358576
 20
100.7433049095343
 30
0.0
  0
SPLINE
  5
175
330
1F
100
AcDbEntity
  8
0
  6
Continuous
 62
     7
370
    15
100
AcDbSpline
210
0.0
220
0.0
230
1.0
 70
     8
 71
     3
 72
    13
 73
     9
 74
     0
 42
0.000000001
 43
0.00000001
 40
0.0
 40
0.0
 40
0.0
 40
0.0
 40
0.1254693063967863
 40
0.2505529175304195
 40
0.5003369353054502
 40
0.7493872476884114
 40
0.874515402809536
 40
1.0
 40
1.0
 40
1.0
 40
1.0
 10
135.2219066358576
 20
100.7433049095343
 30
0.0
 10
135.2430636466113
 20
100.7421301838498
 30
0.0
 10
135.2853126310266
 20
100.7397843436121
 30
0.0
 10
135.3678382981921
 20
100.720489110352
 30
0.0
 10
135.4639444147451
 20
100.6731527029508
 30
0.0
 10
135.5383648813255
 20
100.593851592611
 30
0.0
 10
135.5735138093482
 20
100.5162164084291
 30
0.0
 10
135.5855601468533
 20
100.4754094278786
 30
0.0
 10
135.5915918822518
 20
100.4549769180813
 30
0.0
  0
LINE
  5
176
330
1F
100
AcDbEntity
  8
0
  6
Continuous
 62
     7
370
    15
100
AcDbLine
 10
134.8577865517
 20
100.4549768977
 30
0.0
 11
135.5915919064
 21
100.4549768977
 31
0.0
  0
SPLINE
  5
177
330
1F
100
AcDbEntity
  8
0
  6
Continuous
 62
     7
370
    15
100
AcDbSpline
210
0.0
220
0.0
230
1.0
 70
     8
 71
     3
 72
    11
 73
     7
 74
     0
 42
0.000000001
 43
0.00000001
 40
0.0
 40
0.0
 40
0.0
 40
0.0
 40
0.2695704686720469
 40
0.4993256592431881
 40
0.749670526077122
 40
1.0
 40
1.0
 40
1.0
 40
1.0
 10
134.8577865437101
 20
100.4549769180813
 30
0.0
 10
134.8643307466244
 20
100.4747779504099
 30
0.0
 10
134.8764525804828
 20
100.5114554231682
 30
0.0
 10
134.9011604816794
 20
100.5639100381544
 30
0.0
 10
134.9312853249647
 20
100.6120779281858
 30
0.0
 10
134.9589618796057
 20
100.6391411850861
 30
0.0
 10
134.9727997314772
 20
100.6526723975151
 30
0.0
  0
SPLINE
  5
178
330
1F
100
AcDbEntity
  8
0
  6
Continuous
 62
     7
370
    15
100
AcDbSpline
210
0.0
220
0.0
230
1.0
 70
     8
 71
     3
 72
    15
 73
    11
 74
     0
 42
0.000000001
 43
0.00000001
 40
0.0
 40
0.0
 40
0.0
 40
0.0
 40
0.1258284755078496
 40
0.2508633186799971
 40
0.4998833058655205
 40
0.6247799526376046
 40
0.7497658919312018
 40
0.8328695190196519
 40
0.912461898627095
 40
1.0
 40
1.0
 40
1.0
 40
1.0
 10
136.7963152730104
 20
100.7433049095343
 30
0.0
 10
136.821847811096
 20
100.742140045955
 30
0.0
 10
136.8727518470278
 20
100.7398176658887
 30
0.0
 10
136.9710273165107
 20
100.7122152533547
 30
0.0
 10
137.0582609823625
 20
100.6551474725751
 30
0.0
 10
137.123839136548
 20
100.577377355511
 30
0.0
 10
137.1567836837778
 20
100.5175937287677
 30
0.0
 10
137.1745387605129
 20
100.4616457379857
 30
0.0
 10
137.1833038368797
 20
100.4113564666885
 30
0.0
 10
137.1849919077144
 20
100.377373543804
 30
0.0
 10
137.185876070286
 20
100.3595742738505
 30
0.0
  0
SPLINE
  5
179
330
1F
100
AcDbEntity
  8
0
  6
Continuous
 62
     7
370
    15
100
AcDbSpline
210
0.0
220
0.0
230
1.0
 70
     8
 71
     3
 72
    16
 73
    12
 74
     0
 42
0.000000001
 43
0.00000001
 40
0.0
 40
0.0
 40
0.0
 40
0.0
 40
0.0632725979131743
 40
0.1260120031948713
 40
0.2513936717107828
 40
0.3761642889650119
 40
0.5009188518398937
 40
0.6257484770369626
 40
0.7507172550840676
 40
0.8673516878395225
 40
0.9999999999999999
 40
0.9999999999999999
 40
0.9999999999999999
 40
0.9999999999999999
 10
137.185876070286
 20
100.3595742738505
 30
0.0
 10
137.1854513825277
 20
100.3467550748708
 30
0.0
 10
137.1846055858175
 20
100.3212247031764
 30
0.0
 10
137.1782788881295
 20
100.2705932365926
 30
0.0
 10
137.160155956995
 20
100.2092787492012
 30
0.0
 10
137.1234929386888
 20
100.1421768020777
 30
0.0
 10
137.0734928800257
 20
100.0844237779335
 30
0.0
 10
137.0121366562437
 20
100.0392150200561
 30
0.0
 10
136.9455512543317
 20
100.0060738694307
 30
0.0
 10
136.8722953178264
 20
99.98547490587832
 30
0.0
 10
136.8220119988651
 20
99.98195615375602
 30
0.0
 10
136.79525524363
 20
99.98008375568813
 30
0.0
  0
SPLINE
  5
17A
330
1F
100
AcDbEntity
  8
0
  6
Continuous
 62
     7
370
    15
100
AcDbSpline
210
0.0
220
0.0
230
1.0
 70
     8
 71
     3
 72
    17
 73
    13
 74
     0
 42
0.000000001
 43
0.00000001
 40
0.0
 40
0.0
 40
0.0
 40
0.0
 40
0.0630566691060002
 40
0.1257723697022274
 40
0.2508701662914762
 40
0.3755530663092575
 40
0.5005313990187561
 40
0.6253160942469558
 40
0.7506960493211826
 40
0.8129083944422396
 40
0.8752141044386378
 40
1.0
 40
1.0
 40
1.0
 40
1.0
 10
136.79525524363
 20
99.98008375568813
 30
0.0
 10
136.7825649506655
 20
99.98052714575292
 30
0.0
 10
136.7572529853968
 20
99.98141152832399
 30
0.0
 10
136.70712174615
 20
99.98818670852533
 30
0.0
 10
136.6464579076555
 20
100.0065462598685
 30
0.0
 10
136.5793567109967
 20
100.0419628054295
 30
0.0
 10
136.5198588175796
 20
100.0892657074042
 30
0.0
 10
136.4717990081261
 20
100.1483744929751
 30
0.0
 10
136.4411286827194
 20
100.203862677007
 30
0.0
 10
136.4228842966182
 20
100.2510103660728
 30
0.0
 10
136.4105030283842
 20
100.300011228627
 30
0.0
 10
136.4076184171853
 20
100.3378090632457
 30
0.0
 10
136.4056944463544
 20
100.3630193693366
 30
0.0
  0
SPLINE
  5
17B
330
1F
100
AcDbEntity
  8
0
  6
Continuous
 62
     7
370
    15
100
AcDbSpline
210
0.0
220
0.0
230
1.0
 70
     8
 71
     3
 72
    16
 73
    12
 74
     0
 42
0.000000001
 43
0.00000001
 40
0.0
 40
0.0
 40
0.0
 40
0.0
 40
0.0632460790436637
 40
0.1257241072396864
 40
0.2507497899291438
 40
0.3756724180667535
 40
0.5008296238337021
 40
0.6255796569937346
 40
0.7504840317576902
 40
0.8673296432906661
 40
1.0
 40
1.0
 40
1.0
 40
1.0
 10
136.4056944463544
 20
100.3630193693366
 30
0.0
 10
136.4061043761726
 20
100.3758014885934
 30
0.0
 10
136.4069192576831
 20
100.401210502978
 30
0.0
 10
136.4144262034624
 20
100.4514441600858
 30
0.0
 10
136.4343746368485
 20
100.5118764800744
 30
0.0
 10
136.4716864078971
 20
100.5782174115449
 30
0.0
 10
136.5201776696416
 20
100.6369568117477
 30
0.0
 10
136.5802520034564
 20
100.6836658862377
 30
0.0
 10
136.6462743583791
 20
100.7176741300827
 30
0.0
 10
136.719438497088
 20
100.7380643496953
 30
0.0
 10
136.7696286319183
 20
100.7414857263302
 30
0.0
 10
136.7963152730104
 20
100.7433049095343
 30
0.0
  0
LINE
  5
17C
330
1F
100
AcDbEntity
  8
0
  6
Continuous
 62
     7
370
    15
100
AcDbLine
 10
144.4576775773
 20
100.3192931521
 30
0.0
 11
144.8520086358
 21
100.3192931521
 31
0.0
  0
LINE
  5
17D
330
1F
100
AcDbEntity
  8
0
  6
Continuous
 62
     7
370
    15
100
AcDbLine
 10
144.8520086358
 20
100.3192931521
 30
0.0
 11
144.8520086358
 21
100.8938291334
 31
0.0
  0
LWPOLYLINE
  5
17E
330
1F
100
AcDbEntity
  8
0
  6
Continuous
 62
     7
370
    15
100
AcDbPolyline
 90
        9
 70
   128
 43
0.0
 10
144.8520086358
 20
100.8938291334
 10
144.8027267704
 20
100.8220262001
 10
144.7534421111
 20
100.7502189595
 10
144.7041546578
 20
100.678407528
 10
144.6548644106
 20
100.6065920801
 10
144.6055713693
 20
100.5347727323
 10
144.556275767
 20
100.4629497174
 10
144.5069778363
 20
100.3911230937
 10
144.4576775773
 20
100.3192931521
  0
SPLINE
  5
17F
330
1F
100
AcDbEntity
  8
0
  6
Continuous
 62
     7
370
    15
100
AcDbSpline
210
0.0
220
0.0
230
1.0
 70
     8
 71
     3
 72
    17
 73
    13
 74
     0
 42
0.000000001
 43
0.00000001
 40
0.0
 40
0.0
 40
0.0
 40
0.0
 40
0.0632076342963441
 40
0.1257002862793465
 40
0.2506969591109012
 40
0.3755824655026898
 40
0.5007238811776971
 40
0.6254517559485319
 40
0.7503509626440559
 40
0.8333082254116257
 40
0.912349572297155
 40
1.0
 40
1.0
 40
1.0
 40
1.0
 10
139.3737767113116
 20
100.3630193693366
 30
0.0
 10
139.3741844921973
 20
100.3757748468258
 30
0.0
 10
139.3749954412961
 20
100.4011415163723
 30
0.0
 10
139.3824943111447
 20
100.4512888582135
 30
0.0
 10
139.4023600958506
 20
100.5116478770251
 30
0.0
 10
139.4395986270759
 20
100.5779369978901
 30
0.0
 10
139.4879996242835
 20
100.6367058531626
 30
0.0
 10
139.5480442736356
 20
100.6834825028697
 30
0.0
 10
139.6080416726596
 20
100.71444892163
 30
0.0
 10
139.663466384333
 20
100.7316231787467
 30
0.0
 10
139.7131726858448
 20
100.7403463879597
 30
0.0
 10
139.7467446272154
 20
100.7422853552525
 30
0.0
 10
139.7643975379676
 20
100.7433049095343
 30
0.0
  0
SPLINE
  5
180
330
1F
100
AcDbEntity
  8
0
  6
Continuous
 62
     7
370
    15
100
AcDbSpline
210
0.0
220
0.0
230
1.0
 70
     8
 71
     3
 72
    14
 73
    10
 74
     0
 42
0.000000001
 43
0.00000001
 40
0.0
 40
0.0
 40
0.0
 40
0.0
 40
0.1258530957805716
 40
0.250922921973704
 40
0.4999915905563181
 40
0.6249067906986107
 40
0.7499116140689313
 40
0.8682673458324935
 40
1.0
 40
1.0
 40
1.0
 40
1.0
 10
139.7643975379676
 20
100.7433049095343
 30
0.0
 10
139.7899714400734
 20
100.7421386269081
 30
0.0
 10
139.8409600804629
 20
100.7398133202275
 30
0.0
 10
139.9393668614202
 20
100.7120944368471
 30
0.0
 10
140.026621829586
 20
100.6549146152859
 30
0.0
 10
140.0921190621114
 20
100.5770848614018
 30
0.0
 10
140.1284081974952
 20
100.5110563016476
 30
0.0
 10
140.1492948310344
 20
100.4371158986354
 30
0.0
 10
140.1523493726073
 20
100.3863270270218
 30
0.0
 10
140.1539583352432
 20
100.3595742738505
 30
0.0
  0
SPLINE
  5
181
330
1F
100
AcDbEntity
  8
0
  6
Continuous
 62
     7
370
    15
100
AcDbSpline
210
0.0
220
0.0
230
1.0
 70
     8
 71
     3
 72
    16
 73
    12
 74
     0
 42
0.000000001
 43
0.00000001
 40
0.0
 40
0.0
 40
0.0
 40
0.0
 40
0.0722888017777498
 40
0.1439242396823402
 40
0.2868943390568548
 40
0.3940048174035284
 40
0.5009466059628396
 40
0.6257620135245314
 40
0.7507408911794828
 40
0.8666845371694788
 40
0.9999999999999999
 40
0.9999999999999999
 40
0.9999999999999999
 40
0.9999999999999999
 10
140.1539583352432
 20
100.3595742738505
 30
0.0
 10
140.153470720296
 20
100.3449480362636
 30
0.0
 10
140.1524998975846
 20
100.3158277566027
 30
0.0
 10
140.143898016789
 20
100.2582949052679
 30
0.0
 10
140.1224705742755
 20
100.1960571127354
 30
0.0
 10
140.0848271741147
 20
100.1339986891362
 30
0.0
 10
140.0389314369112
 20
100.0825176499
 30
0.0
 10
139.9804985018407
 20
100.039381011575
 30
0.0
 10
139.9139964948444
 20
100.0062203566384
 30
0.0
 10
139.8406500128339
 20
99.98553221968618
 30
0.0
 10
139.79027853669
 20
99.98198237769138
 30
0.0
 10
139.7633375085873
 20
99.98008375568813
 30
0.0
  0
SPLINE
  5
182
330
1F
100
AcDbEntity
  8
0
  6
Continuous
 62
     7
370
    15
100
AcDbSpline
210
0.0
220
0.0
230
1.0
 70
     8
 71
     3
 72
    17
 73
    13
 74
     0
 42
0.000000001
 43
0.00000001
 40
0.0
 40
0.0
 40
0.0
 40
0.0
 40
0.0630706903962186
 40
0.1257754492170319
 40
0.2508772178711979
 40
0.3755559512009461
 40
0.500527617993258
 40
0.6253198464927413
 40
0.7506942638179896
 40
0.8129002586626691
 40
0.875211390663
 40
1.0
 40
1.0
 40
1.0
 40
1.0
 10
139.7633375085873
 20
99.98008375568813
 30
0.0
 10
139.7506239211637
 20
99.98052534473604
 30
0.0
 10
139.7252705096296
 20
99.98140596076418
 30
0.0
 10
139.6750600147297
 20
99.98821361623732
 30
0.0
 10
139.6143161069253
 20
100.0066239477323
 30
0.0
 10
139.5471744807464
 20
100.0421313117276
 30
0.0
 10
139.4876855299279
 20
100.0895040061426
 30
0.0
 10
139.4397072904574
 20
100.1486471325032
 30
0.0
 10
139.4090928568084
 20
100.2040986215062
 30
0.0
 10
139.3909182626383
 20
100.2512012760713
 30
0.0
 10
139.3785794209348
 20
100.3001278109271
 30
0.0
 10
139.375698307465
 20
100.337856037343
 30
0.0
 10
139.3737767113116
 20
100.3630193693366
 30
0.0
  0
INSERT
  5
18E
330
1F
100
AcDbEntity
  8
0
  6
Continuous
 62
     7
370
     0
100
AcDbBlockReference
  2
SW_CENTERMARKSYMBOL_1
 10
142.1298531002
 20
99.8783209352
 30
0.0
  0
LINE
  5
18F
330
1F
100
AcDbEntity
  8
0
  6
Continuous
 62
     7
370
    15
100
AcDbLine
 10
268.0595024094
 20
102.1404062488
 30
0.0
 11
268.0595024094
 21
103.8547408502
 31
0.0
  0
LINE
  5
190
330
1F
100
AcDbEntity
  8
0
  6
Continuous
 62
     7
370
    15
100
AcDbLine
 10
216.0595024094
 20
103.8547408502
 30
0.0
 11
216.0595024094
 21
102.1404062488
 31
0.0
  0
LWPOLYLINE
  5
191
330
1F
100
AcDbEntity
  8
0
  6
Continuous
 62
     7
370
    15
100
AcDbPolyline
 90
      143
 70
   128
 43
0.0
 10
265.0543735731
 20
97.6052275885
 10
264.4951358302
 20
97.0874785626
 10
263.8919792813
 20
96.5829767705
 10
263.2460846337
 20
96.092709798
 10
262.5587162565
 20
95.6176373658
 10
261.8312197055
 20
95.1586894505
 10
261.0650190895
 20
94.7167644642
 10
260.261614282
 20
94.2927274958
 10
259.4225779858
 20
93.8874086176
 10
258.5495526537
 20
93.5016012603
 10
257.644247274
 20
93.1360606599
 10
256.7084340243
 20
92.7915023793
 10
255.743944803
 20
92.4686009076
 10
254.7526676432
 20
92.1679883394
 10
253.7365430163
 20
91.8902531382
 10
252.6975600341
 20
91.6359389835
 10
251.6377525545
 20
91.4055437072
 10
250.5591952005
 20
91.199518319
 10
249.4639992987
 20
91.0182661232
 10
248.3543087465
 20
90.8621419294
 10
247.2322958153
 20
90.7314513582
 10
246.100156898
 20
90.6264502424
 10
244.9601082099
 20
90.5473441267
 10
243.8143814497
 20
90.4942878649
 10
242.6652194314
 20
90.4673853174
 10
241.5148716936
 20
90.4666891469
 10
240.365590096
 20
90.4922007163
 10
239.2196244112
 20
90.5438700856
 10
238.079217921
 20
90.6215961095
 10
236.9466030247
 20
90.7252266356
 10
235.8239968689
 20
90.8545588024
 10
234.7135970081
 20
91.009339436
 10
233.617577102
 20
91.1892655461
 10
232.5380826612
 20
91.3939849189
 10
231.4772268467
 20
91.6230968065
 10
230.4370863335
 20
91.8761527118
 10
229.4196972456
 20
92.1526572659
 10
228.4270511699
 20
92.4520691981
 10
227.4610912576
 20
92.7738023956
 10
226.5237084207
 20
93.1172270504
 10
225.6167376301
 20
93.4816708928
 10
224.7419543237
 20
93.8664205067
 10
223.901070931
 20
94.2707227267
 10
223.0957335205
 20
94.6937861123
 10
222.3275185782
 20
95.134782497
 10
221.5979299209
 20
95.5928486096
 10
220.9083957526
 20
96.0670877643
 10
220.2602658688
 20
96.5565716156
 10
219.6548090143
 20
97.0603419759
 10
219.0932103992
 20
97.577412691
 10
218.5765693792
 20
98.1067715709
 10
218.1058973034
 20
98.6473823705
 10
217.6821155344
 20
99.1981868188
 10
217.306053645
 20
99.7581066904
 10
216.978447794
 20
100.3260459157
 10
216.6999392852
 20
100.900892727
 10
216.4710733121
 20
101.4815218348
 10
216.2922978906
 20
102.0667966302
 10
216.163962982
 20
102.6555714104
 10
216.0863198078
 20
103.2466936211
 10
216.0595203583
 20
103.8390061128
 10
216.0836170946
 20
104.431349406
 10
216.1585628463
 20
105.0225639609
 10
216.2842109035
 20
105.6114924472
 10
216.4603153042
 20
106.1969820097
 10
216.6865313157
 20
106.7778865252
 10
216.9624161098
 20
107.3530688457
 10
217.2874296288
 20
107.9214030249
 10
217.6609356436
 20
108.4817765219
 10
218.0822029986
 20
109.0330923794
 10
218.5504070431
 20
109.5742713705
 10
219.0646312458
 20
110.104254112
 10
219.6238689887
 20
110.6220031379
 10
220.2270255376
 20
111.12650493
 10
220.8729201852
 20
111.6167719025
 10
221.5602885624
 20
112.0918443347
 10
222.2877851134
 20
112.5507922499
 10
223.0539857294
 20
112.9927172363
 10
223.8573905369
 20
113.4167542047
 10
224.6964268331
 20
113.8220730829
 10
225.5694521652
 20
114.2078804402
 10
226.4747575449
 20
114.5734210406
 10
227.4105707946
 20
114.9179793212
 10
228.3750600159
 20
115.2408807929
 10
229.3663371757
 20
115.541493361
 10
230.3824618026
 20
115.8192285623
 10
231.4214447848
 20
116.073542717
 10
232.4812522644
 20
116.3039379933
 10
233.5598096184
 20
116.5099633815
 10
234.6550055202
 20
116.6912155773
 10
235.7646960724
 20
116.8473397711
 10
236.8867090036
 20
116.9780303423
 10
238.0188479208
 20
117.0830314581
 10
239.158896609
 20
117.1621375738
 10
240.3046233692
 20
117.2151938355
 10
241.4537853875
 20
117.2420963831
 10
242.6041331253
 20
117.2427925536
 10
243.7534147229
 20
117.2172809842
 10
244.8993804077
 20
117.1656116149
 10
246.0397868979
 20
117.087885591
 10
247.1724017942
 20
116.9842550649
 10
248.29500795
 20
116.8549228981
 10
249.4054078108
 20
116.7001422645
 10
250.5014277168
 20
116.5202161544
 10
251.5809221577
 20
116.3154967816
 10
252.6417779722
 20
116.086384894
 10
253.6819184854
 20
115.8333289887
 10
254.6993075733
 20
115.5568244346
 10
255.691953649
 20
115.2574125024
 10
256.6579135613
 20
114.9356793049
 10
257.5952963982
 20
114.59225465
 10
258.5022671888
 20
114.2278108077
 10
259.3770504951
 20
113.8430611938
 10
260.2179338879
 20
113.4387589738
 10
261.0232712984
 20
113.0156955882
 10
261.7914862406
 20
112.5746992035
 10
262.521074898
 20
112.1166330909
 10
263.2106090663
 20
111.6423939362
 10
263.85873895
 20
111.1529100849
 10
264.4641958046
 20
110.6491397246
 10
265.0257944197
 20
110.1320690094
 10
265.5424354397
 20
109.6027101296
 10
266.0131075155
 20
109.06209933
 10
266.4368892845
 20
108.5112948816
 10
266.8129511739
 20
107.9513750101
 10
267.1405570249
 20
107.3834357848
 10
267.4190655337
 20
106.8085889734
 10
267.6479315068
 20
106.2279598657
 10
267.8267069283
 20
105.6426850702
 10
267.9550418369
 20
105.05391029
 10
268.0326850111
 20
104.4627880794
 10
268.0594844606
 20
103.8704755877
 10
268.0353877243
 20
103.2781322945
 10
267.9604419726
 20
102.6869177396
 10
267.8347939154
 20
102.0979892533
 10
267.6586895147
 20
101.5124996908
 10
267.4324735031
 20
100.9315951753
 10
267.1565887091
 20
100.3564128548
 10
266.8315751901
 20
99.7880786756
 10
266.4580691753
 20
99.2277051785
 10
266.0368018203
 20
98.6763893211
 10
265.5685977758
 20
98.13521033
 10
265.0543735731
 20
97.6052275885
  0
LWPOLYLINE
  5
192
330
1F
100
AcDbEntity
  8
0
  6
Continuous
 62
     7
370
    15
100
AcDbPolyline
 90
       62
 70
   128
 43
0.0
 10
265.0543735731
 20
95.8908929871
 10
264.4951358302
 20
95.3731439612
 10
263.8919792813
 20
94.8686421691
 10
263.2460846337
 20
94.3783751966
 10
262.5587162565
 20
93.9033027644
 10
261.8312197055
 20
93.4443548491
 10
261.0650190895
 20
93.0024298628
 10
260.261614282
 20
92.5783928944
 10
259.4225779858
 20
92.1730740162
 10
258.5495526537
 20
91.7872666589
 10
257.644247274
 20
91.4217260585
 10
256.7084340243
 20
91.0771677779
 10
255.743944803
 20
90.7542663061
 10
254.7526676432
 20
90.453653738
 10
253.7365430163
 20
90.1759185368
 10
252.6975600341
 20
89.9216043821
 10
251.6377525545
 20
89.6912091058
 10
250.5591952005
 20
89.4851837176
 10
249.4639992987
 20
89.3039315218
 10
248.3543087465
 20
89.147807328
 10
247.2322958153
 20
89.0171167568
 10
246.100156898
 20
88.912115641
 10
244.9601082099
 20
88.8330095253
 10
243.8143814497
 20
88.7799532635
 10
242.6652194314
 20
88.7530507159
 10
241.5148716936
 20
88.7523545455
 10
240.365590096
 20
88.7778661149
 10
239.2196244112
 20
88.8295354842
 10
238.079217921
 20
88.9072615081
 10
236.9466030247
 20
89.0108920342
 10
235.8239968689
 20
89.140224201
 10
234.7135970081
 20
89.2950048346
 10
233.617577102
 20
89.4749309447
 10
232.5380826612
 20
89.6796503174
 10
231.4772268467
 20
89.9087622051
 10
230.4370863335
 20
90.1618181104
 10
229.4196972456
 20
90.4383226645
 10
228.4270511699
 20
90.7377345967
 10
227.4610912576
 20
91.0594677942
 10
226.5237084207
 20
91.402892449
 10
225.6167376301
 20
91.7673362914
 10
224.7419543237
 20
92.1520859053
 10
223.901070931
 20
92.5563881253
 10
223.0957335205
 20
92.9794515109
 10
222.3275185782
 20
93.4204478956
 10
221.5979299209
 20
93.8785140082
 10
220.9083957526
 20
94.3527531629
 10
220.2602658688
 20
94.8422370142
 10
219.6548090143
 20
95.3460073745
 10
219.0932103992
 20
95.8630780896
 10
218.5765693792
 20
96.3924369695
 10
218.1058973034
 20
96.9330477691
 10
217.6821155344
 20
97.4838522174
 10
217.306053645
 20
98.043772089
 10
216.978447794
 20
98.6117113143
 10
216.6999392852
 20
99.1865581256
 10
216.4710733121
 20
99.7671872334
 10
216.2922978906
 20
100.3524620288
 10
216.163962982
 20
100.941236809
 10
216.0863198078
 20
101.5323590197
 10
216.0595203583
 20
102.1246715114
 10
216.0595024094
 20
102.1404062488
  0
ARC
  5
193
330
1F
100
AcDbEntity
  8
0
  6
Continuous
 62
     7
370
    15
100
AcDbCircle
 10
259.1163064422
 20
102.5935372857
 30
0.0
 40
8.954668159404324
100
AcDbArc
 50
311.5386647923
 51
357.0994359134
  0
LINE
  5
194
330
1F
100
AcDbEntity
  8
0
  6
Continuous
 62
     7
370
    15
100
AcDbLine
 10
264.8726798802
 20
157.1108395324
 30
0.0
 11
264.4069705498
 21
157.1108395324
 31
0.0
  0
ARC
  5
195
330
1F
100
AcDbEntity
  8
0
  6
Continuous
 62
     7
370
    15
100
AcDbCircle
 10
238.8726798802
 20
105.7775061991
 30
0.0
 40
57.33333333333343
100
AcDbArc
 50
63.5532720448
 51
90.8644342952
  0
LINE
  5
196
330
1F
100
AcDbEntity
  8
0
  6
Continuous
 62
     7
370
    15
100
AcDbLine
 10
238.0077117828
 20
163.6043144243
 30
0.0
 11
238.0077117828
 21
163.1043144243
 31
0.0
  0
ARC
  5
197
330
1F
100
AcDbEntity
  8
0
  6
Continuous
 62
     7
370
    15
100
AcDbCircle
 10
238.8726798802
 20
106.2775061991
 30
0.0
 40
57.33333333333329
100
AcDbArc
 50
90.864434313
 51
90.982397989
  0
LINE
  5
198
330
1F
100
AcDbEntity
  8
0
  6
Continuous
 62
     7
370
    15
100
AcDbLine
 10
237.8896887825
 20
163.1024121265
 30
0.0
 11
237.8896887825
 21
163.6024121265
 31
0.0
  0
ARC
  5
199
330
1F
100
AcDbEntity
  8
0
  6
Continuous
 62
     7
370
    15
100
AcDbCircle
 10
238.8726798802
 20
105.7775061991
 30
0.0
 40
57.3333333333334
100
AcDbArc
 50
90.9824013379
 51
116.4467279552
  0
LINE
  5
19A
330
1F
100
AcDbEntity
  8
0
  6
Continuous
 62
     7
370
    15
100
AcDbLine
 10
213.3383892106
 20
157.1108395324
 30
0.0
 11
212.8726798802
 21
157.1108395324
 31
0.0
  0
LINE
  5
19B
330
1F
100
AcDbEntity
  8
0
  6
Continuous
 62
     7
370
    15
100
AcDbLine
 10
212.8726798802
 20
157.1108395324
 30
0.0
 11
212.8726798802
 21
159.1108395324
 31
0.0
  0
ARC
  5
19C
330
1F
100
AcDbEntity
  8
0
  6
Continuous
 62
     7
370
    15
100
AcDbCircle
 10
238.8726798802
 20
105.7775061991
 30
0.0
 40
59.33333333333341
100
AcDbArc
 50
64.0107664162
 51
115.9892335838
  0
LINE
  5
19D
330
1F
100
AcDbEntity
  8
0
  6
Continuous
 62
     7
370
    15
100
AcDbLine
 10
264.8726798802
 20
159.1108395324
 30
0.0
 11
264.8726798802
 21
157.1108395324
 31
0.0
  0
SPLINE
  5
19E
330
1F
100
AcDbEntity
  8
0
  6
Continuous
 62
     7
370
    15
100
AcDbSpline
210
0.0
220
0.0
230
1.0
 70
     8
 71
     3
 72
    14
 73
    10
 74
     0
 42
0.000000001
 43
0.00000001
 40
0.0
 40
0.0
 40
0.0
 40
0.0
 40
0.0171019461506698
 40
0.0827479848650891
 40
0.2139999654912763
 40
0.4753421661570497
 40
0.7368405986617882
 40
0.8683159439946433
 40
0.9999999999999999
 40
0.9999999999999999
 40
0.9999999999999999
 40
0.9999999999999999
 10
237.8896828174833
 20
163.1024120244334
 30
0.0
 10
237.8897876877992
 20
163.1024137325787
 30
0.0
 10
237.8902951041619
 20
163.1024219974613
 30
0.0
 10
237.8924071263846
 20
163.1024474452058
 30
0.0
 10
237.9031011159989
 20
163.1025645558833
 30
0.0
 10
237.9343190341347
 20
163.1028806042845
 30
0.0
 10
237.9868150963641
 20
163.1034080169661
 30
0.0
 10
238.0383157071838
 20
163.1039204838214
 30
0.0
 10
238.0663031157713
 20
163.1041797187011
 30
0.0
 10
238.0803079184161
 20
163.10430943894
 30
0.0
  0
LINE
  5
19F
330
1F
100
AcDbEntity
  8
0
  6
Continuous
 62
     7
370
    15
100
AcDbLine
 10
237.9059330853
 20
163.101633961
 30
0.0
 11
238.0803079184
 21
163.1043094389
 31
0.0
  0
LINE
  5
1A0
330
1F
100
AcDbEntity
  8
0
  6
Continuous
 62
     7
370
    15
100
AcDbLine
 10
237.9059330853
 20
163.1007909159
 30
0.0
 11
237.9059330853
 21
163.101633961
 31
0.0
  0
ARC
  5
1A1
330
1F
100
AcDbEntity
  8
0
  6
Continuous
 62
     7
370
    15
100
AcDbCircle
 10
238.8726798802
 20
105.7775061991
 30
0.0
 40
57.33143614189606
100
AcDbArc
 50
90.0
 51
90.9661913295
  0
LINE
  5
1A2
330
1F
100
AcDbEntity
  8
0
  6
Continuous
 62
     7
370
    15
100
AcDbLine
 10
238.8726798802
 20
163.1097852662
 30
0.0
 11
238.8726798802
 21
163.108942341
 31
0.0
  0
ARC
  5
1A3
330
1F
100
AcDbEntity
  8
0
  6
Continuous
 62
     7
370
    15
100
AcDbCircle
 10
238.8726798802
 20
105.7775061991
 30
0.0
 40
57.33227906709798
100
AcDbArc
 50
90.0
 51
90.3493243211
  0
SPLINE
  5
1A4
330
1F
100
AcDbEntity
  8
0
  6
Continuous
 62
     7
370
    15
100
AcDbSpline
210
0.0
220
0.0
230
1.0
 70
     8
 71
     3
 72
    10
 73
     6
 74
     0
 42
0.000000001
 43
0.00000001
 40
0.0
 40
0.0
 40
0.0
 40
0.0
 40
0.5001105329474482
 40
0.7501594479316578
 40
1.0
 40
1.0
 40
1.0
 40
1.0
 10
238.523135192054
 20
163.1087197004395
 30
0.0
 10
238.4797186528382
 20
163.1084302875483
 30
0.0
 10
238.4145943954121
 20
163.1079961718873
 30
0.0
 10
238.3277662896891
 20
163.1072485285426
 30
0.0
 10
238.2850448283489
 20
163.1068553277816
 30
0.0
 10
238.2636930012153
 20
163.1066588093477
 30
0.0
  0
SPLINE
  5
1A5
330
1F
100
AcDbEntity
  8
0
  6
Continuous
 62
     7
370
    15
100
AcDbSpline
210
0.0
220
0.0
230
1.0
 70
     8
 71
     3
 72
    13
 73
     9
 74
     0
 42
0.000000001
 43
0.00000001
 40
0.0
 40
0.0
 40
0.0
 40
0.0
 40
0.1368681095030555
 40
0.2509500869197086
 40
0.5009517138088162
 40
0.7501964874028357
 40
0.8669345750699231
 40
1.0
 40
1.0
 40
1.0
 40
1.0
 10
238.2636930012153
 20
163.1066588093477
 30
0.0
 10
238.2443350355246
 20
163.1064839571266
 30
0.0
 10
238.2088418648342
 20
163.1061633625026
 30
0.0
 10
238.1434461562491
 20
163.1055630083723
 30
0.0
 10
238.0763457307507
 20
163.1049602317779
 30
0.0
 10
238.0296459685827
 20
163.1045132398026
 30
0.0
 10
238.0109647237345
 20
163.1043459819769
 30
0.0
 10
238.008831977757
 20
163.104325234274
 30
0.0
 10
238.0076959058627
 20
163.1043141823803
 30
0.0
  0
LINE
  5
1A6
330
1F
100
AcDbEntity
  8
0
  6
Continuous
 62
     7
370
    15
100
AcDbLine
 10
238.0077118176
 20
163.1043144249
 30
0.0
 11
238.0076959059
 21
163.1043141824
 31
0.0
  0
LINE
  5
1A7
330
1F
100
AcDbEntity
  8
0
  6
Continuous
 62
     7
370
    15
100
AcDbLine
 10
213.3383892106
 20
157.1108395324
 30
0.0
 11
264.4069705498
 21
157.1108395324
 31
0.0
  0
ARC
  5
1A8
330
1F
100
AcDbEntity
  8
0
  6
Continuous
 62
     7
370
    15
100
AcDbCircle
 10
238.8726798802
 20
105.7775061991
 30
0.0
 40
56.75846538511111
100
AcDbArc
 50
90.0
 51
90.6506130991
  0
LINE
  5
1A9
330
1F
100
AcDbEntity
  8
0
  6
Continuous
 62
     7
370
    15
100
AcDbLine
 10
238.228182017
 20
162.6048559359
 30
0.0
 11
238.228182017
 21
162.5323122984
 31
0.0
  0
ARC
  5
1AA
330
1F
100
AcDbEntity
  8
0
  6
Continuous
 62
     7
370
    15
100
AcDbCircle
 10
238.8726798802
 20
105.7775061991
 30
0.0
 40
56.8310043515574
100
AcDbArc
 50
90.6497826224
 51
90.7865868112
  0
LINE
  5
1AB
330
1F
100
AcDbEntity
  8
0
  6
Continuous
 62
     7
370
    15
100
AcDbLine
 10
238.0924982563
 20
162.5306092817
 30
0.0
 11
238.0924982563
 21
162.6031550932
 31
0.0
  0
ARC
  5
1AC
330
1F
100
AcDbEntity
  8
0
  6
Continuous
 62
     7
370
    15
100
AcDbCircle
 10
238.8726798802
 20
105.7775061991
 30
0.0
 40
56.75846538511111
100
AcDbArc
 50
90.7875921553
 51
91.1985594702
  0
LINE
  5
1AD
330
1F
100
AcDbEntity
  8
0
  6
Continuous
 62
     7
370
    15
100
AcDbLine
 10
237.6854469742
 20
162.5961082026
 30
0.0
 11
237.6854469742
 21
162.5235533821
 31
0.0
  0
ARC
  5
1AE
330
1F
100
AcDbEntity
  8
0
  6
Continuous
 62
     7
370
    15
100
AcDbCircle
 10
238.8726798802
 20
105.7775061991
 30
0.0
 40
56.83100435155739
100
AcDbArc
 50
91.1970294088
 51
91.3338562211
  0
LINE
  5
1AF
330
1F
100
AcDbEntity
  8
0
  6
Continuous
 62
     7
370
    15
100
AcDbLine
 10
237.5497632136
 20
162.5034808355
 30
0.0
 11
237.5497632136
 21
162.5931109842
 31
0.0
  0
ARC
  5
1B0
330
1F
100
AcDbEntity
  8
0
  6
Continuous
 62
     7
370
    15
100
AcDbCircle
 10
238.8726798802
 20
105.7775061991
 30
0.0
 40
56.74139852842298
100
AcDbArc
 50
90.0
 51
91.3359630238
  0
LINE
  5
1B1
330
1F
100
AcDbEntity
  8
0
  6
Continuous
 62
     7
370
    15
100
AcDbLine
 10
238.8726798802
 20
162.5359715842
 30
0.0
 11
238.8726798802
 21
162.5189047275
 31
0.0
  0
SPLINE
  5
1B2
330
1F
100
AcDbEntity
  8
0
  6
Continuous
 62
     7
370
    15
100
AcDbSpline
210
0.0
220
0.0
230
1.0
 70
     8
 71
     3
 72
    14
 73
    10
 74
     0
 42
0.000000001
 43
0.00000001
 40
0.0
 40
0.0
 40
0.0
 40
0.0
 40
0.1256236453279988
 40
0.2511899441670311
 40
0.3762059611041688
 40
0.5012469061519952
 40
0.7860240290813589
 40
0.8914597839764248
 40
1.0
 40
1.0
 40
1.0
 40
1.0
 10
238.5673914186832
 20
162.7316592613336
 30
0.0
 10
238.5823269345515
 20
162.7305636792316
 30
0.0
 10
238.6121911483089
 20
162.7283730151545
 30
0.0
 10
238.6542856317955
 20
162.7245941733809
 30
0.0
 10
238.6915599516901
 20
162.7201292815937
 30
0.0
 10
238.7327525516266
 20
162.7125989104894
 30
0.0
 10
238.7574748072053
 20
162.7042345111618
 30
0.0
 10
238.7688616768733
 20
162.6957638770472
 30
0.0
 10
238.7702253372279
 20
162.6920504940362
 30
0.0
 10
238.7709170597089
 20
162.6901668648022
 30
0.0
  0
SPLINE
  5
1B3
330
1F
100
AcDbEntity
  8
0
  6
Continuous
 62
     7
370
    15
100
AcDbSpline
210
0.0
220
0.0
230
1.0
 70
     8
 71
     3
 72
    13
 73
     9
 74
     0
 42
0.000000001
 43
0.00000001
 40
0.0
 40
0.0
 40
0.0
 40
0.0
 40
0.1260809234490624
 40
0.2514190384905995
 40
0.5007278226704674
 40
0.7500891547520102
 40
0.8747881646633627
 40
1.0
 40
1.0
 40
1.0
 40
1.0
 10
238.7709170597089
 20
162.6901668648022
 30
0.0
 10
238.7697823696539
 20
162.6873119550829
 30
0.0
 10
238.7675196745942
 20
162.6816189554048
 30
0.0
 10
238.7415305297838
 20
162.6704595836572
 30
0.0
 10
238.6747081197537
 20
162.6579569413159
 30
0.0
 10
238.5749740693649
 20
162.6491915649628
 30
0.0
 10
238.4845685061539
 20
162.645518922003
 30
0.0
 10
238.4380527779381
 20
162.6447356368652
 30
0.0
 10
238.414747187914
 20
162.6443431906327
 30
0.0
  0
LINE
  5
1B4
330
1F
100
AcDbEntity
  8
0
  6
Continuous
 62
     7
370
    15
100
AcDbLine
 10
238.4147471879
 20
162.748471976
 30
0.0
 11
238.4147471879
 21
162.6443431906
 31
0.0
  0
SPLINE
  5
1B5
330
1F
100
AcDbEntity
  8
0
  6
Continuous
 62
     7
370
    15
100
AcDbSpline
210
0.0
220
0.0
230
1.0
 70
     8
 71
     3
 72
    11
 73
     7
 74
     0
 42
0.000000001
 43
0.00000001
 40
0.0
 40
0.0
 40
0.0
 40
0.0
 40
0.2507595851003974
 40
0.5001584203135252
 40
0.7492606824676151
 40
1.0
 40
1.0
 40
1.0
 40
1.0
 10
238.414747187914
 20
162.7484719760406
 30
0.0
 10
238.3847909514334
 20
162.7480840543114
 30
0.0
 10
238.3250410363478
 20
162.7473103159149
 30
0.0
 10
238.2373912153321
 20
162.744216053904
 30
0.0
 10
238.1531611419133
 20
162.7396285305888
 30
0.0
 10
238.1039393761916
 20
162.7351032194413
 30
0.0
 10
238.0792478890358
 20
162.7328331533347
 30
0.0
  0
SPLINE
  5
1B6
330
1F
100
AcDbEntity
  8
0
  6
Continuous
 62
     7
370
    15
100
AcDbSpline
210
0.0
220
0.0
230
1.0
 70
     8
 71
     3
 72
    14
 73
    10
 74
     0
 42
0.000000001
 43
0.00000001
 40
0.0
 40
0.0
 40
0.0
 40
0.0
 40
0.1261009050035352
 40
0.251265293272355
 40
0.5008378610474555
 40
0.625232320451464
 40
0.7498336908927582
 40
0.8678747933101042
 40
1.0
 40
1.0
 40
1.0
 40
1.0
 10
238.0792478890358
 20
162.7328331533347
 30
0.0
 10
238.0645690342508
 20
162.7312477177383
 30
0.0
 10
238.0353203404975
 20
162.7280886211396
 30
0.0
 10
237.9833572911132
 20
162.7209929388396
 30
0.0
 10
237.942131030159
 20
162.7129258465424
 30
0.0
 10
237.913347467968
 20
162.7042859588658
 30
0.0
 10
237.8996456959083
 20
162.6976988496923
 30
0.0
 10
237.8915108506679
 20
162.6908915817034
 30
0.0
 10
237.889849864336
 20
162.6863267591965
 30
0.0
 10
237.8889726152644
 20
162.6839158505519
 30
0.0
  0
SPLINE
  5
1B7
330
1F
100
AcDbEntity
  8
0
  6
Continuous
 62
     7
370
    15
100
AcDbSpline
210
0.0
220
0.0
230
1.0
 70
     8
 71
     3
 72
    13
 73
     9
 74
     0
 42
0.000000001
 43
0.00000001
 40
0.0
 40
0.0
 40
0.0
 40
0.0
 40
0.1254927330207289
 40
0.2507193735052231
 40
0.4999633952417977
 40
0.749267497997889
 40
0.8745220361688388
 40
1.0
 40
1.0
 40
1.0
 40
1.0
 10
237.8889726152644
 20
162.6839158505519
 30
0.0
 10
237.8895229229101
 20
162.6817189620494
 30
0.0
 10
237.8906223713389
 20
162.6773298432874
 30
0.0
 10
237.9011253936385
 20
162.6687095394907
 30
0.0
 10
237.9288730908372
 20
162.6584035738483
 30
0.0
 10
237.9777993420829
 20
162.6494589858156
 30
0.0
 10
238.0276271709519
 20
162.6434968250333
 30
0.0
 10
238.0553192382083
 20
162.6408725448283
 30
0.0
 10
238.0691776099225
 20
162.6395592354887
 30
0.0
  0
SPLINE
  5
1B8
330
1F
100
AcDbEntity
  8
0
  6
Continuous
 62
     7
370
    15
100
AcDbSpline
210
0.0
220
0.0
230
1.0
 70
     8
 71
     3
 72
    12
 73
     8
 74
     0
 42
0.000000001
 43
0.00000001
 40
0.0
 40
0.0
 40
0.0
 40
0.0
 40
0.2508445824644489
 40
0.4999202329561932
 40
0.7489474373076351
 40
0.874407518637978
 40
1.0
 40
1.0
 40
1.0
 40
1.0
 10
238.0691776099225
 20
162.6395592354887
 30
0.0
 10
238.0928211421708
 20
162.6377023314089
 30
0.0
 10
238.1399414747421
 20
162.6340016179592
 30
0.0
 10
238.2201341014154
 20
162.6304671103774
 30
0.0
 10
238.2905092612464
 20
162.6288689916836
 30
0.0
 10
238.3482799788151
 20
162.6286238308629
 30
0.0
 10
238.3773925792977
 20
162.6287551496562
 30
0.0
 10
238.3919565562367
 20
162.6288208436803
 30
0.0
  0
SPLINE
  5
1B9
330
1F
100
AcDbEntity
  8
0
  6
Continuous
 62
     7
370
    15
100
AcDbSpline
210
0.0
220
0.0
230
1.0
 70
     8
 71
     3
 72
    16
 73
    12
 74
     0
 42
0.000000001
 43
0.00000001
 40
0.0
 40
0.0
 40
0.0
 40
0.0
 40
0.0632007735050455
 40
0.1260619808994796
 40
0.2512936315699212
 40
0.3763089083199913
 40
0.5016783412257089
 40
0.6613471508687482
 40
0.8178895690808026
 40
0.9042314478885753
 40
1.0
 40
1.0
 40
1.0
 40
1.0
 10
238.3919565562367
 20
162.6288208436803
 30
0.0
 10
238.4083867141926
 20
162.6290240342475
 30
0.0
 10
238.4411587538931
 20
162.6294293236767
 30
0.0
 10
238.5060734209012
 20
162.6309724789466
 30
0.0
 10
238.584641638762
 20
162.6344522525744
 30
0.0
 10
238.6720453915246
 20
162.6405405111067
 30
0.0
 10
238.7576912179391
 20
162.6489756093813
 30
0.0
 10
238.8321535749867
 20
162.6603805264158
 30
0.0
 10
238.871146901076
 20
162.6726625592347
 30
0.0
 10
238.8862717016935
 20
162.6833197664733
 30
0.0
 10
238.8884793751345
 20
162.6890483247128
 30
0.0
 10
238.8896403503072
 20
162.692060868945
 30
0.0
  0
SPLINE
  5
1BA
330
1F
100
AcDbEntity
  8
0
  6
Continuous
 62
     7
370
    15
100
AcDbSpline
210
0.0
220
0.0
230
1.0
 70
     8
 71
     3
 72
    15
 73
    11
 74
     0
 42
0.000000001
 43
0.00000001
 40
0.0
 40
0.0
 40
0.0
 40
0.0
 40
0.0631165666063442
 40
0.1260565262799004
 40
0.2514097217813824
 40
0.262939739224996
 40
0.5011594191839016
 40
0.7501418517599411
 40
0.8678081608053605
 40
1.0
 40
1.0
 40
1.0
 40
1.0
 10
238.8896403503072
 20
162.692060868945
 30
0.0
 10
238.8894020049725
 20
162.6934574908212
 30
0.0
 10
238.8889259812188
 20
162.6962468266757
 30
0.0
 10
238.8857434940182
 20
162.7017654437731
 30
0.0
 10
238.8793453279825
 20
162.7060809938145
 30
0.0
 10
238.8625332256636
 20
162.7139789858215
 30
0.0
 10
238.8274653293664
 20
162.7240484121186
 30
0.0
 10
238.7558674016805
 20
162.7339987104423
 30
0.0
 10
238.6831049101013
 20
162.7401866984738
 30
0.0
 10
238.643651482318
 20
162.7426858403911
 30
0.0
 10
238.6227779538061
 20
162.744008055291
 30
0.0
  0
ARC
  5
1BB
330
1F
100
AcDbEntity
  8
0
  6
Continuous
 62
     7
370
    15
100
AcDbCircle
 10
241.4459627622
 20
149.9511389229
 30
0.0
 40
13.10068216167583
100
AcDbArc
 50
102.444808221
 51
102.6929888344
  0
ARC
  5
1BC
330
1F
100
AcDbEntity
  8
0
  6
Continuous
 62
     7
370
    15
100
AcDbCircle
 10
238.8726798802
 20
105.7775061991
 30
0.0
 40
57.24879941382147
100
AcDbArc
 50
90.0
 51
90.5240915491
  0
SPLINE
  5
1BD
330
1F
100
AcDbEntity
  8
0
  6
Continuous
 62
     7
370
    15
100
AcDbSpline
210
0.0
220
0.0
230
1.0
 70
     8
 71
     3
 72
    14
 73
    10
 74
     0
 42
0.000000001
 43
0.00000001
 40
0.0
 40
0.0
 40
0.0
 40
0.0
 40
0.2505917972611485
 40
0.3755438465892625
 40
0.5007923736233447
 40
0.6257306001170464
 40
0.7506216414177398
 40
0.8750916014406874
 40
0.9999999999999999
 40
0.9999999999999999
 40
0.9999999999999999
 40
0.9999999999999999
 10
238.3490253663328
 20
163.0239106300479
 30
0.0
 10
238.2952719755368
 20
163.0233098271435
 30
0.0
 10
238.2147156470083
 20
163.0224094471782
 30
0.0
 10
238.1089744869013
 20
163.0199377272354
 30
0.0
 10
238.0343588515967
 20
163.0171485987099
 30
0.0
 10
237.9703778942371
 20
163.0133788950334
 30
0.0
 10
237.9227689739879
 20
163.0088873711704
 30
0.0
 10
237.8941831835233
 20
163.003995859592
 30
0.0
 10
237.8907115058994
 20
163.000747052073
 30
0.0
 10
237.8889726152644
 20
162.9991197924072
 30
0.0
  0
SPLINE
  5
1BE
330
1F
100
AcDbEntity
  8
0
  6
Continuous
 62
     7
370
    15
100
AcDbSpline
210
0.0
220
0.0
230
1.0
 70
     8
 71
     3
 72
    13
 73
     9
 74
     0
 42
0.000000001
 43
0.00000001
 40
0.0
 40
0.0
 40
0.0
 40
0.0
 40
0.1258146575430341
 40
0.2506692839223534
 40
0.4998237604200152
 40
0.749486218241002
 40
0.8669431837438705
 40
1.0
 40
1.0
 40
1.0
 40
1.0
 10
237.8889726152644
 20
162.9991197924072
 30
0.0
 10
237.8898254213912
 20
162.9980048730521
 30
0.0
 10
237.891524526291
 20
162.9957835417555
 30
0.0
 10
237.9088025191282
 20
162.9916037380529
 30
0.0
 10
237.9504879419655
 20
162.986984366617
 30
0.0
 10
238.013609587045
 20
162.9835668228544
 30
0.0
 10
238.0731099671891
 20
162.9814857475215
 30
0.0
 10
238.1053305722312
 20
162.9806734570393
 30
0.0
 10
238.1224440862847
 20
162.9802420205544
 30
0.0
  0
SPLINE
  5
1BF
330
1F
100
AcDbEntity
  8
0
  6
Continuous
 62
     7
370
    15
100
AcDbSpline
210
0.0
220
0.0
230
1.0
 70
     8
 71
     3
 72
    15
 73
    11
 74
     0
 42
0.000000001
 43
0.00000001
 40
0.0
 40
0.0
 40
0.0
 40
0.0
 40
0.125646662003295
 40
0.2507125038724552
 40
0.3507313103176777
 40
0.5000231053636099
 40
0.6254416239454833
 40
0.7503071487944194
 40
0.8679886942236948
 40
1.0
 40
1.0
 40
1.0
 40
1.0
 10
238.1224440862847
 20
162.9802420205544
 30
0.0
 10
238.1060786018704
 20
162.979622014167
 30
0.0
 10
238.0734232848952
 20
162.9783848674626
 30
0.0
 10
238.0298732207058
 20
162.9762769751165
 30
0.0
 10
237.9874093439207
 20
162.9736061937241
 30
0.0
 10
237.9516765564546
 20
162.9704306883894
 30
0.0
 10
237.9231552827338
 20
162.9666855979425
 30
0.0
 10
237.9037631409175
 20
162.9630671699205
 30
0.0
 10
237.8923218057927
 20
162.9592961008102
 30
0.0
 10
237.8901309233594
 20
162.956788997639
 30
0.0
 10
237.8889726152644
 20
162.9554635052921
 30
0.0
  0
SPLINE
  5
1C0
330
1F
100
AcDbEntity
  8
0
  6
Continuous
 62
     7
370
    15
100
AcDbSpline
210
0.0
220
0.0
230
1.0
 70
     8
 71
     3
 72
    11
 73
     7
 74
     0
 42
0.000000001
 43
0.00000001
 40
0.0
 40
0.0
 40
0.0
 40
0.0
 40
0.2496702059883668
 40
0.4988572743281685
 40
0.7492805089279672
 40
1.0
 40
1.0
 40
1.0
 40
1.0
 10
237.8889726152644
 20
162.9554635052921
 30
0.0
 10
237.8898194446746
 20
162.9542385113197
 30
0.0
 10
237.8915114647926
 20
162.9517908938648
 30
0.0
 10
237.9001350857762
 20
162.9481972442031
 30
0.0
 10
237.9156226137258
 20
162.9447900902865
 30
0.0
 10
237.9305372483243
 20
162.9426909869031
 30
0.0
 10
237.9379989741052
 20
162.9416408147565
 30
0.0
  0
SPLINE
  5
1C1
330
1F
100
AcDbEntity
  8
0
  6
Continuous
 62
     7
370
    15
100
AcDbSpline
210
0.0
220
0.0
230
1.0
 70
     8
 71
     3
 72
    11
 73
     7
 74
     0
 42
0.000000001
 43
0.00000001
 40
0.0
 40
0.0
 40
0.0
 40
0.0
 40
0.2664134134259627
 40
0.4988300203478137
 40
0.7493310873444337
 40
1.0
 40
1.0
 40
1.0
 40
1.0
 10
237.9379989741052
 20
162.9416408147565
 30
0.0
 10
237.9479470803425
 20
162.9407558815805
 30
0.0
 10
237.9665738227911
 20
162.9390989408562
 30
0.0
 10
237.999308594686
 20
162.936917293082
 30
0.0
 10
238.0350529188095
 20
162.9351040570095
 30
0.0
 10
238.0609799066437
 20
162.9340047183322
 30
0.0
 10
238.0739477421341
 20
162.9334548649051
 30
0.0
  0
ARC
  5
1C2
330
1F
100
AcDbEntity
  8
0
  6
Continuous
 62
     7
370
    15
100
AcDbCircle
 10
238.8726798802
 20
105.7775061991
 30
0.0
 40
57.16152937876105
100
AcDbArc
 50
90.8006341039
 51
90.9690635073
  0
LINE
  5
1C3
330
1F
100
AcDbEntity
  8
0
  6
Continuous
 62
     7
370
    15
100
AcDbLine
 10
237.9059330853
 20
162.9215227893
 30
0.0
 11
237.9059330853
 21
162.93085992
 31
0.0
  0
SPLINE
  5
1C4
330
1F
100
AcDbEntity
  8
0
  6
Continuous
 62
     7
370
    15
100
AcDbSpline
210
0.0
220
0.0
230
1.0
 70
     8
 71
     3
 72
     9
 73
     5
 74
     0
 42
0.000000001
 43
0.00000001
 40
0.0
 40
0.0
 40
0.0
 40
0.0
 40
0.5009850549360089
 40
1.0
 40
1.0
 40
1.0
 40
1.0
 10
237.9059330853499
 20
162.921522789267
 30
0.0
 10
238.0673662984843
 20
162.9239162020179
 30
0.0
 10
238.3895978931075
 20
162.9286936154903
 30
0.0
 10
238.7118641845177
 20
162.9293648344533
 30
0.0
 10
238.8726798802217
 20
162.9296997827472
 30
0.0
  0
LINE
  5
1C5
330
1F
100
AcDbEntity
  8
0
  6
Continuous
 62
     7
370
    15
100
AcDbLine
 10
238.8726798802
 20
162.9390355778
 30
0.0
 11
238.8726798802
 21
162.9296997827
 31
0.0
  0
ARC
  5
1C6
330
1F
100
AcDbEntity
  8
0
  6
Continuous
 62
     7
370
    15
100
AcDbCircle
 10
238.8726798802
 20
105.7775061991
 30
0.0
 40
57.16152937876105
100
AcDbArc
 50
90.0
 51
90.4077450986
  0
SPLINE
  5
1C7
330
1F
100
AcDbEntity
  8
0
  6
Continuous
 62
     7
370
    15
100
AcDbSpline
210
0.0
220
0.0
230
1.0
 70
     8
 71
     3
 72
    15
 73
    11
 74
     0
 42
0.000000001
 43
0.00000001
 40
0.0
 40
0.0
 40
0.0
 40
0.0
 40
0.1254885741396365
 40
0.2508976037743166
 40
0.3760534974049412
 40
0.5013033917647081
 40
0.7497554230954331
 40
0.8746772553880608
 40
0.9345426647172028
 40
1.0
 40
1.0
 40
1.0
 40
1.0
 10
238.4658936055155
 20
162.937588125592
 30
0.0
 10
238.4397333458691
 20
162.9374138847814
 30
0.0
 10
238.3874294090016
 20
162.9370655136078
 30
0.0
 10
238.309264440472
 20
162.9368678951682
 30
0.0
 10
238.2320287057058
 20
162.9371898774632
 30
0.0
 10
238.134867923494
 20
162.9390672360747
 30
0.0
 10
238.0574849744833
 20
162.9438564788545
 30
0.0
 10
238.0206016369424
 20
162.9494795378347
 30
0.0
 10
238.0103041165869
 20
162.9530719131201
 30
0.0
 10
238.0085907923936
 20
162.9549271862114
 30
0.0
 10
238.0076959058627
 20
162.9558962140854
 30
0.0
  0
SPLINE
  5
1C8
330
1F
100
AcDbEntity
  8
0
  6
Continuous
 62
     7
370
    15
100
AcDbSpline
210
0.0
220
0.0
230
1.0
 70
     8
 71
     3
 72
    15
 73
    11
 74
     0
 42
0.000000001
 43
0.00000001
 40
0.0
 40
0.0
 40
0.0
 40
0.0
 40
0.1254224457964779
 40
0.2505241708935713
 40
0.3756407477511243
 40
0.5008149104674485
 40
0.6251211670903449
 40
0.7495577322149362
 40
0.8749130557465961
 40
1.0
 40
1.0
 40
1.0
 40
1.0
 10
238.0076959058627
 20
162.9558962140854
 30
0.0
 10
238.0089440941096
 20
162.9574299854294
 30
0.0
 10
238.0114372788318
 20
162.9604936060745
 30
0.0
 10
238.0360331640526
 20
162.9650376868838
 30
0.0
 10
238.0766474396411
 20
162.9690428415326
 30
0.0
 10
238.1308393193348
 20
162.9721338820681
 30
0.0
 10
238.1924311374743
 20
162.9739318495563
 30
0.0
 10
238.2549066565676
 20
162.9751404781629
 30
0.0
 10
238.3179709497282
 20
162.9758944949173
 30
0.0
 10
238.3600661900207
 20
162.9762607954892
 30
0.0
 10
238.3810912550881
 20
162.9764437495075
 30
0.0
  0
ARC
  5
1C9
330
1F
100
AcDbEntity
  8
0
  6
Continuous
 62
     7
370
    15
100
AcDbCircle
 10
238.8726798802
 20
105.7775061991
 30
0.0
 40
57.20104995779515
100
AcDbArc
 50
90.0
 51
90.4924087971
  0
LINE
  5
1CA
330
1F
100
AcDbEntity
  8
0
  6
Continuous
 62
     7
370
    15
100
AcDbLine
 10
238.8726798802
 20
162.986511301
 30
0.0
 11
238.8726798802
 21
162.9785561569
 31
0.0
  0
ARC
  5
1CB
330
1F
100
AcDbEntity
  8
0
  6
Continuous
 62
     7
370
    15
100
AcDbCircle
 10
238.8726798802
 20
105.7775061991
 30
0.0
 40
57.20900510189107
100
AcDbArc
 50
90.0
 51
90.3766185191
  0
SPLINE
  5
1CC
330
1F
100
AcDbEntity
  8
0
  6
Continuous
 62
     7
370
    15
100
AcDbSpline
210
0.0
220
0.0
230
1.0
 70
     8
 71
     3
 72
    14
 73
    10
 74
     0
 42
0.000000001
 43
0.00000001
 40
0.0
 40
0.0
 40
0.0
 40
0.0
 40
0.1257495029914085
 40
0.2514700449750448
 40
0.376845129401165
 40
0.5021372094014455
 40
0.7501230498530456
 40
0.8749851934677108
 40
1.0
 40
1.0
 40
1.0
 40
1.0
 10
238.4966344575454
 20
162.9852753793947
 30
0.0
 10
238.469112265859
 20
162.9851007190742
 30
0.0
 10
238.4140742210432
 20
162.9847514386586
 30
0.0
 10
238.3317704125466
 20
162.98439341045
 30
0.0
 10
238.2499702591374
 20
162.9843065237637
 30
0.0
 10
238.145764049233
 20
162.9854276887334
 30
0.0
 10
238.0613335806034
 20
162.9893013905159
 30
0.0
 10
238.0144464049518
 20
162.9948868719977
 30
0.0
 10
238.0099469885355
 20
162.9981558911178
 30
0.0
 10
238.0076959058627
 20
162.9997913992854
 30
0.0
  0
SPLINE
  5
1CD
330
1F
100
AcDbEntity
  8
0
  6
Continuous
 62
     7
370
    15
100
AcDbSpline
210
0.0
220
0.0
230
1.0
 70
     8
 71
     3
 72
    14
 73
    10
 74
     0
 42
0.000000001
 43
0.00000001
 40
0.0
 40
0.0
 40
0.0
 40
0.0
 40
0.125397126467273
 40
0.2506192033480467
 40
0.3759917078431132
 40
0.5012401925202068
 40
0.7494082201564416
 40
0.8747804928009986
 40
1.0
 40
1.0
 40
1.0
 40
1.0
 10
238.0076959058627
 20
162.9997913992854
 30
0.0
 10
238.0087205598029
 20
163.0009978755368
 30
0.0
 10
238.0107684373057
 20
163.0034091438448
 30
0.0
 10
238.0316369844177
 20
163.0070400411378
 30
0.0
 10
238.0665020127773
 20
163.0103646287291
 30
0.0
 10
238.1305892917048
 20
163.0139969940712
 30
0.0
 10
238.2109809432683
 20
163.0157493710703
 30
0.0
 10
238.2891851179963
 20
163.0167735331697
 30
0.0
 10
238.3287333102003
 20
163.0171431226638
 30
0.0
 10
238.3484953516426
 20
163.0173278047565
 30
0.0
  0
ARC
  5
1CE
330
1F
100
AcDbEntity
  8
0
  6
Continuous
 62
     7
370
    15
100
AcDbCircle
 10
238.8726798802
 20
105.7775061991
 30
0.0
 40
57.24222171500502
100
AcDbArc
 50
90.0
 51
90.5246823069
  0
LINE
  5
1CF
330
1F
100
AcDbEntity
  8
0
  6
Continuous
 62
     7
370
    15
100
AcDbLine
 10
238.8726798802
 20
163.0263056129
 30
0.0
 11
238.8726798802
 21
163.0197279141
 31
0.0
  0
ARC
  5
1D0
330
1F
100
AcDbEntity
  8
0
  6
Continuous
 62
     7
370
    15
100
AcDbCircle
 10
238.8726798802
 20
105.7775061991
 30
0.0
 40
57.30324620146691
100
AcDbArc
 50
90.0
 51
90.9666666858
  0
LINE
  5
1D1
330
1F
100
AcDbEntity
  8
0
  6
Continuous
 62
     7
370
    15
100
AcDbLine
 10
237.9059330853
 20
163.0686255076
 30
0.0
 11
237.9059330853
 21
163.0725969649
 31
0.0
  0
ARC
  5
1D2
330
1F
100
AcDbEntity
  8
0
  6
Continuous
 62
     7
370
    15
100
AcDbCircle
 10
238.8726798802
 20
105.7775061991
 30
0.0
 40
57.29927530945675
100
AcDbArc
 50
90.7878435964
 51
90.966733683
  0
SPLINE
  5
1D3
330
1F
100
AcDbEntity
  8
0
  6
Continuous
 62
     7
370
    15
100
AcDbSpline
210
0.0
220
0.0
230
1.0
 70
     8
 71
     3
 72
    13
 73
     9
 74
     0
 42
0.000000001
 43
0.00000001
 40
0.0
 40
0.0
 40
0.0
 40
0.0
 40
0.125513781888733
 40
0.2507682303120402
 40
0.4997147204340366
 40
0.7492026976682542
 40
0.8744883017585884
 40
1.0
 40
1.0
 40
1.0
 40
1.0
 10
238.0848130432826
 20
163.0713646556027
 30
0.0
 10
238.0698048984249
 20
163.0707478078903
 30
0.0
 10
238.0398196181665
 20
163.0695153869808
 30
0.0
 10
237.9859384453021
 20
163.0668096304681
 30
0.0
 10
237.9321127863753
 20
163.0630584292303
 30
0.0
 10
237.9017681773212
 20
163.0590634214589
 30
0.0
 10
237.8910133587295
 20
163.0558862386553
 30
0.0
 10
237.8896532717929
 20
163.0543020598848
 30
0.0
 10
237.8889726152644
 20
163.0535092564298
 30
0.0
  0
SPLINE
  5
1D4
330
1F
100
AcDbEntity
  8
0
  6
Continuous
 62
     7
370
    15
100
AcDbSpline
210
0.0
220
0.0
230
1.0
 70
     8
 71
     3
 72
    14
 73
    10
 74
     0
 42
0.000000001
 43
0.00000001
 40
0.0
 40
0.0
 40
0.0
 40
0.0
 40
0.0631884973590252
 40
0.1262855039662012
 40
0.251258518702877
 40
0.5006687886462133
 40
0.7499820132289492
 40
0.8746982135114536
 40
1.0
 40
1.0
 40
1.0
 40
1.0
 10
237.8889726152644
 20
163.0535092564298
 30
0.0
 10
237.8895554747361
 20
163.0528302188292
 30
0.0
 10
237.890720349756
 20
163.0514731268081
 30
0.0
 10
237.8986640145054
 20
163.0488117960118
 30
0.0
 10
237.9311886478002
 20
163.0444874204213
 30
0.0
 10
238.0248757615761
 20
163.0395353226662
 30
0.0
 10
238.1612738818667
 20
163.0365689577065
 30
0.0
 10
238.2880312504585
 20
163.0360669375687
 30
0.0
 10
238.3537300636415
 20
163.0364604050189
 30
0.0
 10
238.3866564093349
 20
163.0366575995291
 30
0.0
  0
SPLINE
  5
1D5
330
1F
100
AcDbEntity
  8
0
  6
Continuous
 62
     7
370
    15
100
AcDbSpline
210
0.0
220
0.0
230
1.0
 70
     8
 71
     3
 72
    16
 73
    12
 74
     0
 42
0.000000001
 43
0.00000001
 40
0.0
 40
0.0
 40
0.0
 40
0.0
 40
0.0630552371142738
 40
0.1258751897059811
 40
0.2507278600506668
 40
0.3931854328245167
 40
0.5007544779527718
 40
0.6652812621379989
 40
0.829326250346372
 40
0.9114629549087131
 40
1.0
 40
1.0
 40
1.0
 40
1.0
 10
238.3866564093349
 20
163.0366575995291
 30
0.0
 10
238.4032870389248
 20
163.0368223077842
 30
0.0
 10
238.4364862425178
 20
163.0371511097014
 30
0.0
 10
238.5021895540316
 20
163.0380465917376
 30
0.0
 10
238.5862934582229
 20
163.0397924898784
 30
0.0
 10
238.6732927520753
 20
163.0425668992247
 30
0.0
 10
238.7559218945842
 20
163.0462677557976
 30
0.0
 10
238.8281667308992
 20
163.0506322907522
 30
0.0
 10
238.870342236459
 20
163.0551898887694
 30
0.0
 10
238.8861171621465
 20
163.0589511034854
 30
0.0
 10
238.888436956485
 20
163.0608270609459
 30
0.0
 10
238.8896403503072
 20
163.0618002142902
 30
0.0
  0
SPLINE
  5
1D6
330
1F
100
AcDbEntity
  8
0
  6
Continuous
 62
     7
370
    15
100
AcDbSpline
210
0.0
220
0.0
230
1.0
 70
     8
 71
     3
 72
    14
 73
    10
 74
     0
 42
0.000000001
 43
0.00000001
 40
0.0
 40
0.0
 40
0.0
 40
0.0
 40
0.1253969438996333
 40
0.2505500087167631
 40
0.3099811151814206
 40
0.5000354541444367
 40
0.7491701671061776
 40
0.8744603935509914
 40
1.0
 40
1.0
 40
1.0
 40
1.0
 10
238.8896403503072
 20
163.0618002142902
 30
0.0
 10
238.8891389894592
 20
163.0625749247357
 30
0.0
 10
238.8881372428381
 20
163.0641228389259
 30
0.0
 10
238.8811215295547
 20
163.0659643035978
 30
0.0
 10
238.8685139896067
 20
163.0681157891472
 30
0.0
 10
238.8436366231037
 20
163.0708295051066
 30
0.0
 10
238.7987610320291
 20
163.0734703061115
 30
0.0
 10
238.7476175336186
 20
163.0753421679912
 30
0.0
 10
238.7195219859053
 20
163.07613879524
 30
0.0
 10
238.7054602454728
 20
163.0765375048757
 30
0.0
  0
ARC
  5
1D7
330
1F
100
AcDbEntity
  8
0
  6
Continuous
 62
     7
370
    15
100
AcDbCircle
 10
238.8726798802
 20
105.7775061991
 30
0.0
 40
57.29927530945675
100
AcDbArc
 50
90.0
 51
90.1672096701
  0
LINE
  5
1D8
330
1F
100
AcDbEntity
  8
0
  6
Continuous
 62
     7
370
    15
100
AcDbLine
 10
238.8726798802
 20
163.0807524005
 30
0.0
 11
238.8726798802
 21
163.0767815085
 31
0.0
  0
ARC
  5
1D9
330
1F
100
AcDbEntity
  8
0
  6
Continuous
 62
     7
370
    15
100
AcDbCircle
 10
238.8726798802
 20
105.7775061991
 30
0.0
 40
57.32858616013999
100
AcDbArc
 50
90.0
 51
90.4934322553
  0
SPLINE
  5
1DA
330
1F
100
AcDbEntity
  8
0
  6
Continuous
 62
     7
370
    15
100
AcDbSpline
210
0.0
220
0.0
230
1.0
 70
     8
 71
     3
 72
    15
 73
    11
 74
     0
 42
0.000000001
 43
0.00000001
 40
0.0
 40
0.0
 40
0.0
 40
0.0
 40
0.1280928155293928
 40
0.2507334349086583
 40
0.3757441985466563
 40
0.5006227500770372
 40
0.6256222432744546
 40
0.750559532531455
 40
0.8750580080431265
 40
1.0
 40
1.0
 40
1.0
 40
1.0
 10
238.3789711963275
 20
163.1039664321689
 30
0.0
 10
238.3493470396955
 20
163.1036934409078
 30
0.0
 10
238.2913596614191
 20
163.1031590780997
 30
0.0
 10
238.2048121626299
 20
163.1021018129017
 30
0.0
 10
238.1199244696231
 20
163.1008316352619
 30
0.0
 10
238.0402888498402
 20
163.0992275060325
 30
0.0
 10
237.9738089758474
 20
163.0973962236282
 30
0.0
 10
237.9243348039406
 20
163.0954730801613
 30
0.0
 10
237.8947282606946
 20
163.0935822717541
 30
0.0
 10
237.8908934365715
 20
163.0924343517316
 30
0.0
 10
237.8889726152644
 20
163.0918593711934
 30
0.0
  0
SPLINE
  5
1DB
330
1F
100
AcDbEntity
  8
0
  6
Continuous
 62
     7
370
    15
100
AcDbSpline
210
0.0
220
0.0
230
1.0
 70
     8
 71
     3
 72
    14
 73
    10
 74
     0
 42
0.000000001
 43
0.00000001
 40
0.0
 40
0.0
 40
0.0
 40
0.0
 40
0.0631091603262527
 40
0.1256836893580557
 40
0.2507917302381711
 40
0.4999017461472749
 40
0.7491594026873273
 40
0.874480101172487
 40
1.0
 40
1.0
 40
1.0
 40
1.0
 10
237.8889726152644
 20
163.0918593711934
 30
0.0
 10
237.8892581266191
 20
163.0916894193429
 30
0.0
 10
237.8898267306096
 20
163.0913509553946
 30
0.0
 10
237.8923965497877
 20
163.0906797744787
 30
0.0
 10
237.9031046970369
 20
163.0895883789158
 30
0.0
 10
237.9343101652981
 20
163.088244734412
 30
0.0
 10
237.9868086900115
 20
163.0873307324552
 30
0.0
 10
238.0383121903091
 20
163.086863779653
 30
0.0
 10
238.0663019332045
 20
163.0866804127789
 30
0.0
 10
238.0803079184161
 20
163.0865886565332
 30
0.0
  0
ARC
  5
1DC
330
1F
100
AcDbEntity
  8
0
  6
Continuous
 62
     7
370
    15
100
AcDbCircle
 10
238.8726798802
 20
105.7775061991
 30
0.0
 40
57.31455997773286
100
AcDbArc
 50
90.7921375574
 51
90.9664758497
  0
LINE
  5
1DD
330
1F
100
AcDbEntity
  8
0
  6
Continuous
 62
     7
370
    15
100
AcDbLine
 10
237.9059330853
 20
163.0807498906
 30
0.0
 11
237.9059330853
 21
163.0839123512
 31
0.0
  0
SPLINE
  5
1DE
330
1F
100
AcDbEntity
  8
0
  6
Continuous
 62
     7
370
    15
100
AcDbSpline
210
0.0
220
0.0
230
1.0
 70
     8
 71
     3
 72
    10
 73
     6
 74
     0
 42
0.000000001
 43
0.00000001
 40
0.0
 40
0.0
 40
0.0
 40
0.0
 40
0.4999994442044844
 40
0.7499997221022392
 40
1.0
 40
1.0
 40
1.0
 40
1.0
 10
237.9059330853499
 20
163.0807498905873
 30
0.0
 10
238.067048704712
 20
163.0830838820911
 30
0.0
 10
238.3087223128499
 20
163.0865848719412
 30
0.0
 10
238.6309819442753
 20
163.0885939428
 30
0.0
 10
238.7921139015729
 20
163.0888007583306
 30
0.0
 10
238.8726798802217
 20
163.0889041660958
 30
0.0
  0
LINE
  5
1DF
330
1F
100
AcDbEntity
  8
0
  6
Continuous
 62
     7
370
    15
100
AcDbLine
 10
238.8726798802
 20
163.0920661768
 30
0.0
 11
238.8726798802
 21
163.0889041661
 31
0.0
  0
ARC
  5
1E0
330
1F
100
AcDbEntity
  8
0
  6
Continuous
 62
     7
370
    15
100
AcDbCircle
 10
238.8726798802
 20
105.7775061991
 30
0.0
 40
57.31455997773286
100
AcDbArc
 50
90.0
 51
90.3494323178
  0
SPLINE
  5
1E1
330
1F
100
AcDbEntity
  8
0
  6
Continuous
 62
     7
370
    15
100
AcDbSpline
210
0.0
220
0.0
230
1.0
 70
     8
 71
     3
 72
    10
 73
     6
 74
     0
 42
0.000000001
 43
0.00000001
 40
0.0
 40
0.0
 40
0.0
 40
0.0
 40
0.5001106462962357
 40
0.7501595521943009
 40
0.9999999999999999
 40
0.9999999999999999
 40
0.9999999999999999
 40
0.9999999999999999
 10
238.523135192054
 20
163.0910002816431
 30
0.0
 10
238.4797190328373
 20
163.0907209072835
 30
0.0
 10
238.4145953511138
 20
163.0903018493289
 30
0.0
 10
238.3277673125395
 20
163.0896534427325
 30
0.0
 10
238.2850451664912
 20
163.0894150475805
 30
0.0
 10
238.2636930012153
 20
163.089295899711
 30
0.0
  0
SPLINE
  5
1E2
330
1F
100
AcDbEntity
  8
0
  6
Continuous
 62
     7
370
    15
100
AcDbSpline
210
0.0
220
0.0
230
1.0
 70
     8
 71
     3
 72
    13
 73
     9
 74
     0
 42
0.000000001
 43
0.00000001
 40
0.0
 40
0.0
 40
0.0
 40
0.0
 40
0.1324881180071014
 40
0.2509616895022795
 40
0.500956072604093
 40
0.750193349631591
 40
0.8691566704309842
 40
1.0
 40
1.0
 40
1.0
 40
1.0
 10
238.2636930012153
 20
163.089295899711
 30
0.0
 10
238.2449397303402
 20
163.0892472587918
 30
0.0
 10
238.2094169029857
 20
163.0891551221727
 30
0.0
 10
238.1439366003134
 20
163.0892670071888
 30
0.0
 10
238.0763209029087
 20
163.089916785878
 30
0.0
 10
238.029495827522
 20
163.0910521774175
 30
0.0
 10
238.0108715431648
 20
163.0922984010212
 30
0.0
 10
238.0087874886291
 20
163.0930042138665
 30
0.0
 10
238.0076959058627
 20
163.0933739033948
 30
0.0
  0
SPLINE
  5
1E3
330
1F
100
AcDbEntity
  8
0
  6
Continuous
 62
     7
370
    15
100
AcDbSpline
210
0.0
220
0.0
230
1.0
 70
     8
 71
     3
 72
    12
 73
     8
 74
     0
 42
0.000000001
 43
0.00000001
 40
0.0
 40
0.0
 40
0.0
 40
0.0
 40
0.1256203327781367
 40
0.2509674450115197
 40
0.500980214296633
 40
0.7502890150481105
 40
0.9999999999999999
 40
0.9999999999999999
 40
0.9999999999999999
 40
0.9999999999999999
 10
238.0076959058627
 20
163.0933739033948
 30
0.0
 10
238.0083266776929
 20
163.0936600761487
 30
0.0
 10
238.0095868494429
 20
163.0942317992391
 30
0.0
 10
238.0189842673407
 20
163.0954113019606
 30
0.0
 10
238.0488896839045
 20
163.0970074427933
 30
0.0
 10
238.1156790437558
 20
163.0988726949981
 30
0.0
 10
238.1705257331407
 20
163.0997968525354
 30
0.0
 10
238.1979711796341
 20
163.1002593037157
 30
0.0
  0
SPLINE
  5
1E4
330
1F
100
AcDbEntity
  8
0
  6
Continuous
 62
     7
370
    15
100
AcDbSpline
210
0.0
220
0.0
230
1.0
 70
     8
 71
     3
 72
    10
 73
     6
 74
     0
 42
0.000000001
 43
0.00000001
 40
0.0
 40
0.0
 40
0.0
 40
0.0
 40
0.2350472222846476
 40
0.4997134283148548
 40
0.9999999999999999
 40
0.9999999999999999
 40
0.9999999999999999
 40
0.9999999999999999
 10
238.1979711796341
 20
163.1002593037157
 30
0.0
 10
238.2150219349572
 20
163.1005002417385
 30
0.0
 10
238.2512720608468
 20
163.1010124790846
 30
0.0
 10
238.3248500532326
 20
163.1018388691782
 30
0.0
 10
238.3811237378708
 20
163.102321893011
 30
0.0
 10
238.417927276055
 20
163.1026377953052
 30
0.0
  0
ARC
  5
1E5
330
1F
100
AcDbEntity
  8
0
  6
Continuous
 62
     7
370
    15
100
AcDbCircle
 10
238.8726798802
 20
105.7775061991
 30
0.0
 40
57.32693531365202
100
AcDbArc
 50
90.0
 51
90.454510224
  0
LINE
  5
1E6
330
1F
100
AcDbEntity
  8
0
  6
Continuous
 62
     7
370
    15
100
AcDbLine
 10
238.8726798802
 20
163.1060923592
 30
0.0
 11
238.8726798802
 21
163.1044415127
 31
0.0
  0
ARC
  5
1E7
330
1F
100
AcDbEntity
  8
0
  6
Continuous
 62
     7
370
    15
100
AcDbCircle
 10
238.8726798802
 20
105.7775061991
 30
0.0
 40
57.12992243529058
100
AcDbArc
 50
90.0
 51
91.3609046781
  0
LINE
  5
1E8
330
1F
100
AcDbEntity
  8
0
  6
Continuous
 62
     7
370
    15
100
AcDbLine
 10
237.5158422734
 20
162.8811592692
 30
0.0
 11
237.5158422734
 21
162.8913138919
 31
0.0
  0
ARC
  5
1E9
330
1F
100
AcDbEntity
  8
0
  6
Continuous
 62
     7
370
    15
100
AcDbCircle
 10
238.8726798802
 20
105.7775061991
 30
0.0
 40
57.11977067740013
100
AcDbArc
 50
90.782078313
 51
91.3611465939
  0
SPLINE
  5
1EA
330
1F
100
AcDbEntity
  8
0
  6
Continuous
 62
     7
370
    15
100
AcDbSpline
210
0.0
220
0.0
230
1.0
 70
     8
 71
     3
 72
    13
 73
     9
 74
     0
 42
0.000000001
 43
0.00000001
 40
0.0
 40
0.0
 40
0.0
 40
0.0
 40
0.1258379911236292
 40
0.2514455326078393
 40
0.5008796772316434
 40
0.7495616797227709
 40
0.8675522881730763
 40
1.0
 40
1.0
 40
1.0
 40
1.0
 10
238.0930282709802
 20
162.8919557333868
 30
0.0
 10
238.0778894600094
 20
162.8907109560449
 30
0.0
 10
238.0476395620763
 20
162.888223680947
 30
0.0
 10
237.9921888212584
 20
162.8827469216926
 30
0.0
 10
237.9364496509896
 20
162.8748784051802
 30
0.0
 10
237.9038218058078
 20
162.8662261815543
 30
0.0
 10
237.8919187092744
 20
162.8590898943913
 30
0.0
 10
237.8899917263777
 20
162.8554953833355
 30
0.0
 10
237.8889726152644
 20
162.8535943772756
 30
0.0
  0
SPLINE
  5
1EB
330
1F
100
AcDbEntity
  8
0
  6
Continuous
 62
     7
370
    15
100
AcDbSpline
210
0.0
220
0.0
230
1.0
 70
     8
 71
     3
 72
    14
 73
    10
 74
     0
 42
0.000000001
 43
0.00000001
 40
0.0
 40
0.0
 40
0.0
 40
0.0
 40
0.0631740476050283
 40
0.1262697185963918
 40
0.2512399003948347
 40
0.500644744182952
 40
0.7499748105220513
 40
0.8746931454660581
 40
1.0
 40
1.0
 40
1.0
 40
1.0
 10
237.8889726152644
 20
162.8535943772756
 30
0.0
 10
237.8895606223562
 20
162.85205449362
 30
0.0
 10
237.8907359070315
 20
162.8489766367589
 30
0.0
 10
237.8986145107263
 20
162.8429067892472
 30
0.0
 10
237.9310331871806
 20
162.8328051768446
 30
0.0
 10
238.0245028012991
 20
162.8205955747692
 30
0.0
 10
238.1609278354908
 20
162.8124930200711
 30
0.0
 10
238.2878598155742
 20
162.8099780329506
 30
0.0
 10
238.3536725738209
 20
162.8101694655164
 30
0.0
 10
238.3866564093349
 20
162.8102654071003
 30
0.0
  0
SPLINE
  5
1EC
330
1F
100
AcDbEntity
  8
0
  6
Continuous
 62
     7
370
    15
100
AcDbSpline
210
0.0
220
0.0
230
1.0
 70
     8
 71
     3
 72
    15
 73
    11
 74
     0
 42
0.000000001
 43
0.00000001
 40
0.0
 40
0.0
 40
0.0
 40
0.0
 40
0.0631422650363527
 40
0.126011627198782
 40
0.2510427220141888
 40
0.5001527499656209
 40
0.6647521219005542
 40
0.8288727640530786
 40
0.9107790107874032
 40
1.0
 40
1.0
 40
1.0
 40
1.0
 10
238.3866564093349
 20
162.8102654071003
 30
0.0
 10
238.4033219286712
 20
162.8104588984703
 30
0.0
 10
238.43658093844
 20
162.8108450449344
 30
0.0
 10
238.502389876199
 20
162.8121981456484
 30
0.0
 10
238.6138142291875
 20
162.8162206950339
 30
0.0
 10
238.7333665344613
 20
162.8251279040599
 30
0.0
 10
238.8281949068523
 20
162.8371850656564
 30
0.0
 10
238.8703312981011
 20
162.8470107751093
 30
0.0
 10
238.8860910335888
 20
162.8553018170129
 30
0.0
 10
238.8884240042059
 20
162.859521460285
 30
0.0
 10
238.8896403503072
 20
162.8617214651221
 30
0.0
  0
SPLINE
  5
1ED
330
1F
100
AcDbEntity
  8
0
  6
Continuous
 62
     7
370
    15
100
AcDbSpline
210
0.0
220
0.0
230
1.0
 70
     8
 71
     3
 72
    14
 73
    10
 74
     0
 42
0.000000001
 43
0.00000001
 40
0.0
 40
0.0
 40
0.0
 40
0.0
 40
0.125393872167339
 40
0.2505472503517623
 40
0.3102224735190986
 40
0.5000350494923083
 40
0.7491715664440805
 40
0.874458100981126
 40
1.0
 40
1.0
 40
1.0
 40
1.0
 10
238.8896403503072
 20
162.8617214651221
 30
0.0
 10
238.8891393842485
 20
162.8634770669667
 30
0.0
 10
238.8881384129382
 20
162.8669849035719
 30
0.0
 10
238.8811308569412
 20
162.871233483242
 30
0.0
 10
238.8685366771283
 20
162.8762413514511
 30
0.0
 10
238.8436849008557
 20
162.8826565872355
 30
0.0
 10
238.7988464552039
 20
162.8891109757577
 30
0.0
 10
238.7476707155413
 20
162.8938668826208
 30
0.0
 10
238.7195399486593
 20
162.8959763156866
 30
0.0
 10
238.7054602454728
 20
162.8970321060098
 30
0.0
  0
ARC
  5
1EE
330
1F
100
AcDbEntity
  8
0
  6
Continuous
 62
     7
370
    15
100
AcDbCircle
 10
238.8726798802
 20
105.7775061991
 30
0.0
 40
57.11977067740014
100
AcDbArc
 50
90.0
 51
90.1677351449
  0
LINE
  5
1EF
330
1F
100
AcDbEntity
  8
0
  6
Continuous
 62
     7
370
    15
100
AcDbLine
 10
238.8726798802
 20
162.9074286344
 30
0.0
 11
238.8726798802
 21
162.8972768765
 31
0.0
  0
ARC
  5
1F0
330
1F
100
AcDbEntity
  8
0
  6
Continuous
 62
     7
370
    15
100
AcDbCircle
 10
238.8726798802
 20
105.7775061991
 30
0.0
 40
57.01000540371294
100
AcDbArc
 50
90.0
 51
91.3637677974
  0
LINE
  5
1F1
330
1F
100
AcDbEntity
  8
0
  6
Continuous
 62
     7
370
    15
100
AcDbLine
 10
237.5158422734
 20
162.7585719964
 30
0.0
 11
237.5158422734
 21
162.7713629543
 31
0.0
  0
ARC
  5
1F2
330
1F
100
AcDbEntity
  8
0
  6
Continuous
 62
     7
370
    15
100
AcDbCircle
 10
238.8726798802
 20
105.7775061991
 30
0.0
 40
56.99721806975042
100
AcDbArc
 50
90.0
 51
91.3640738167
  0
LINE
  5
1F3
330
1F
100
AcDbEntity
  8
0
  6
Continuous
 62
     7
370
    15
100
AcDbLine
 10
238.8726798802
 20
162.7875116028
 30
0.0
 11
238.8726798802
 21
162.7747242688
 31
0.0
  0
SPLINE
  5
1F4
330
1F
100
AcDbEntity
  8
0
  6
Continuous
 62
     7
370
    15
100
AcDbSpline
210
0.0
220
0.0
230
1.0
 70
     8
 71
     3
 72
    11
 73
     7
 74
     0
 42
0.000000001
 43
0.00000001
 40
0.0
 40
0.0
 40
0.0
 40
0.0
 40
0.0316904831144602
 40
0.3754554702722649
 40
0.7190150755637194
 40
1.0
 40
1.0
 40
1.0
 40
1.0
 10
238.0076959058627
 20
163.6036128385043
 30
0.0
 10
238.0052338569568
 20
163.6035892605534
 30
0.0
 10
237.9760645405259
 20
163.6033099189412
 30
0.0
 10
237.9355628664427
 20
163.602888751529
 30
0.0
 10
237.8979494862027
 20
163.6025134600139
 30
0.0
 10
237.8922502633052
 20
163.6024435393471
 30
0.0
 10
237.8896861615656
 20
163.602412081777
 30
0.0
  0
LINE
  5
1F5
330
1F
100
AcDbEntity
  8
0
  6
Continuous
 62
     7
370
    15
100
AcDbLine
 10
238.0076959059
 20
163.1043141824
 30
0.0
 11
238.0076959059
 21
163.6043141824
 31
0.0
  0
SPLINE
  5
1F6
330
1F
100
AcDbEntity
  8
0
  6
Continuous
 62
     7
370
    15
100
AcDbSpline
210
0.0
220
0.0
230
1.0
 70
     8
 71
     3
 72
    17
 73
    13
 74
     0
 42
0.000000001
 43
0.00000001
 40
0.0
 40
0.0
 40
0.0
 40
0.0
 40
0.0632076342963441
 40
0.1257002862793465
 40
0.2506969591109012
 40
0.3755824655026898
 40
0.5007238811776971
 40
0.6254517559485319
 40
0.7503509626440559
 40
0.8333082254116257
 40
0.912349572297155
 40
1.0
 40
1.0
 40
1.0
 40
1.0
 10
238.3879814460604
 20
163.0425061683241
 30
0.0
 10
238.3752259685712
 20
163.042415359353
 30
0.0
 10
238.3498592990247
 20
163.0422347686096
 30
0.0
 10
238.2997119571835
 20
163.0421190691711
 30
0.0
 10
238.2393529383719
 20
163.0424408457052
 30
0.0
 10
238.1730638175069
 20
163.0434306075101
 30
0.0
 10
238.1142949622344
 20
163.0449358821567
 30
0.0
 10
238.0675183125273
 20
163.0470356703932
 30
0.0
 10
238.036551893767
 20
163.0492604837993
 30
0.0
 10
238.0193776366503
 20
163.0514153419442
 30
0.0
 10
238.0106544274373
 20
163.0534064849991
 30
0.0
 10
238.0087154601445
 20
163.054772590792
 30
0.0
 10
238.0076959058627
 20
163.0554909211195
 30
0.0
  0
SPLINE
  5
1F7
330
1F
100
AcDbEntity
  8
0
  6
Continuous
 62
     7
370
    15
100
AcDbSpline
210
0.0
220
0.0
230
1.0
 70
     8
 71
     3
 72
    14
 73
    10
 74
     0
 42
0.000000001
 43
0.00000001
 40
0.0
 40
0.0
 40
0.0
 40
0.0
 40
0.1258530957805716
 40
0.250922921973704
 40
0.4999915905563181
 40
0.6249067906986107
 40
0.7499116140689313
 40
0.8682673458324935
 40
1.0
 40
1.0
 40
1.0
 40
1.0
 10
238.0076959058627
 20
163.0554909211195
 30
0.0
 10
238.0088621884889
 20
163.0565546943309
 30
0.0
 10
238.0111874951695
 20
163.0586756201679
 30
0.0
 10
238.0389063785499
 20
163.062949533791
 30
0.0
 10
238.0960862001111
 20
163.0670255753297
 30
0.0
 10
238.1739159539952
 20
163.0703717702197
 30
0.0
 10
238.2399445137494
 20
163.0724161098515
 30
0.0
 10
238.3138849167617
 20
163.0739171405868
 30
0.0
 10
238.3646737883752
 20
163.0744695072226
 30
0.0
 10
238.3914265415465
 20
163.0747604632489
 30
0.0
  0
SPLINE
  5
1F8
330
1F
100
AcDbEntity
  8
0
  6
Continuous
 62
     7
370
    15
100
AcDbSpline
210
0.0
220
0.0
230
1.0
 70
     8
 71
     3
 72
    16
 73
    12
 74
     0
 42
0.000000001
 43
0.00000001
 40
0.0
 40
0.0
 40
0.0
 40
0.0
 40
0.0722888017777498
 40
0.1439242396823402
 40
0.2868943390568548
 40
0.3940048174035284
 40
0.5009466059628396
 40
0.6257620135245314
 40
0.7507408911794828
 40
0.8666845371694788
 40
0.9999999999999999
 40
0.9999999999999999
 40
0.9999999999999999
 40
0.9999999999999999
 10
238.3914265415465
 20
163.0747604632489
 30
0.0
 10
238.4060527791334
 20
163.0748632480984
 30
0.0
 10
238.4351730587943
 20
163.0750678888028
 30
0.0
 10
238.4927059101291
 20
163.0751858728494
 30
0.0
 10
238.5549437026616
 20
163.074823324745
 30
0.0
 10
238.6170021262608
 20
163.0737977202508
 30
0.0
 10
238.668483165497
 20
163.0723499775568
 30
0.0
 10
238.7116198038221
 20
163.0703278654972
 30
0.0
 10
238.7447804587586
 20
163.0678753428705
 30
0.0
 10
238.7654685957108
 20
163.0650405224863
 30
0.0
 10
238.7690184377057
 20
163.0629863357258
 30
0.0
 10
238.7709170597089
 20
163.0618876602951
 30
0.0
  0
SPLINE
  5
1F9
330
1F
100
AcDbEntity
  8
0
  6
Continuous
 62
     7
370
    15
100
AcDbSpline
210
0.0
220
0.0
230
1.0
 70
     8
 71
     3
 72
    17
 73
    13
 74
     0
 42
0.000000001
 43
0.00000001
 40
0.0
 40
0.0
 40
0.0
 40
0.0
 40
0.0630706903962186
 40
0.1257754492170319
 40
0.2508772178711979
 40
0.3755559512009461
 40
0.500527617993258
 40
0.6253198464927413
 40
0.7506942638179896
 40
0.8129002586626691
 40
0.875211390663
 40
1.0
 40
1.0
 40
1.0
 40
1.0
 10
238.7709170597089
 20
163.0618876602951
 30
0.0
 10
238.770475470661
 20
163.0613591967022
 30
0.0
 10
238.7695948546328
 20
163.0603053356239
 30
0.0
 10
238.7627871991597
 20
163.0581667780319
 30
0.0
 10
238.7443768676647
 20
163.0555008533741
 30
0.0
 10
238.7088695036694
 20
163.0524218464252
 30
0.0
 10
238.6614968092544
 20
163.0495534073168
 30
0.0
 10
238.6023536828938
 20
163.0470711684461
 30
0.0
 10
238.5469021938908
 20
163.0453295165985
 30
0.0
 10
238.4997995393257
 20
163.0441696201454
 30
0.0
 10
238.4508730044699
 20
163.0432466713919
 30
0.0
 10
238.413144778054
 20
163.0428024485405
 30
0.0
 10
238.3879814460604
 20
163.0425061683241
 30
0.0
  0
LINE
  5
1FA
330
1F
100
AcDbEntity
  8
0
  6
Continuous
 62
     7
370
    15
100
AcDbLine
 10
238.3914265415
 20
163.0747604632
 30
0.0
 11
238.3914265415
 21
163.0787314953
 31
0.0
  0
LINE
  5
1FB
330
1F
100
AcDbEntity
  8
0
  6
Continuous
 62
     7
370
    15
100
AcDbLine
 10
238.0076959059
 20
163.0554909211
 30
0.0
 11
238.0076959059
 21
163.0742236264
 31
0.0
  0
LINE
  5
1FC
330
1F
100
AcDbEntity
  8
0
  6
Continuous
 62
     7
370
    15
100
AcDbLine
 10
238.7709170597
 20
163.0618876603
 30
0.0
 11
238.7709170597
 21
163.080662042
 31
0.0
  0
LINE
  5
1FD
330
1F
100
AcDbEntity
  8
0
  6
Continuous
 62
     7
370
    15
100
AcDbLine
 10
238.7054602455
 20
163.0765375049
 30
0.0
 11
238.7054602455
 21
163.0805084138
 31
0.0
  0
LINE
  5
1FE
330
1F
100
AcDbEntity
  8
0
  6
Continuous
 62
     7
370
    15
100
AcDbLine
 10
237.9379989741
 20
162.9416408148
 30
0.0
 11
237.9379989741
 21
162.9680980131
 31
0.0
  0
SPLINE
  5
1FF
330
1F
100
AcDbEntity
  8
0
  6
Continuous
 62
     7
370
    15
100
AcDbSpline
210
0.0
220
0.0
230
1.0
 70
     8
 71
     3
 72
    15
 73
    11
 74
     0
 42
0.000000001
 43
0.00000001
 40
0.0
 40
0.0
 40
0.0
 40
0.0
 40
0.1258284755078496
 40
0.2508633186799971
 40
0.4998833058655205
 40
0.6247799526376046
 40
0.7497658919312018
 40
0.8328695190196519
 40
0.912461898627095
 40
1.0
 40
1.0
 40
1.0
 40
1.0
 10
238.0076959058627
 20
162.8556656655609
 30
0.0
 10
238.008860769442
 20
162.8580590911929
 30
0.0
 10
238.0111831495084
 20
162.86283084651
 30
0.0
 10
238.0387855620423
 20
162.8722220252735
 30
0.0
 10
238.095853342822
 20
162.8808444883784
 30
0.0
 10
238.173623459886
 20
162.8876120240573
 30
0.0
 10
238.2334070866293
 20
162.8911860459638
 30
0.0
 10
238.2893550774113
 20
162.8933224603743
 30
0.0
 10
238.3396443487085
 20
162.8945766218771
 30
0.0
 10
238.3736272715931
 20
162.8950181959364
 30
0.0
 10
238.3914265415465
 20
162.8952494796289
 30
0.0
  0
SPLINE
  5
200
330
1F
100
AcDbEntity
  8
0
  6
Continuous
 62
     7
370
    15
100
AcDbSpline
210
0.0
220
0.0
230
1.0
 70
     8
 71
     3
 72
    16
 73
    12
 74
     0
 42
0.000000001
 43
0.00000001
 40
0.0
 40
0.0
 40
0.0
 40
0.0
 40
0.0632725979131743
 40
0.1260120031948713
 40
0.2513936717107828
 40
0.3761642889650119
 40
0.5009188518398937
 40
0.6257484770369626
 40
0.7507172550840676
 40
0.8673516878395225
 40
0.9999999999999999
 40
0.9999999999999999
 40
0.9999999999999999
 40
0.9999999999999999
 10
238.3914265415465
 20
162.8952494796289
 30
0.0
 10
238.4042457405262
 20
162.8953182268732
 30
0.0
 10
238.4297761122206
 20
162.895455142035
 30
0.0
 10
238.4804075788044
 20
162.8952811022284
 30
0.0
 10
238.5417220661958
 20
162.894103292901
 30
0.0
 10
238.6088240133193
 20
162.8912504770834
 30
0.0
 10
238.6665770374636
 20
162.8870832086211
 30
0.0
 10
238.7117857953409
 20
162.8817632808873
 30
0.0
 10
238.7449269459664
 20
162.875837913553
 30
0.0
 10
238.7655259095187
 20
162.8691881398754
 30
0.0
 10
238.769044661641
 20
162.8645158822355
 30
0.0
 10
238.7709170597089
 20
162.8620296809137
 30
0.0
  0
SPLINE
  5
201
330
1F
100
AcDbEntity
  8
0
  6
Continuous
 62
     7
370
    15
100
AcDbSpline
210
0.0
220
0.0
230
1.0
 70
     8
 71
     3
 72
    17
 73
    13
 74
     0
 42
0.000000001
 43
0.00000001
 40
0.0
 40
0.0
 40
0.0
 40
0.0
 40
0.0630566691060002
 40
0.1257723697022274
 40
0.2508701662914762
 40
0.3755530663092575
 40
0.5005313990187561
 40
0.6253160942469558
 40
0.7506960493211826
 40
0.8129083944422396
 40
0.8752141044386378
 40
1.0
 40
1.0
 40
1.0
 40
1.0
 10
238.7709170597089
 20
162.8620296809137
 30
0.0
 10
238.7704736696441
 20
162.8608404956256
 30
0.0
 10
238.769589287073
 20
162.858468555372
 30
0.0
 10
238.7628141068717
 20
162.8537191081291
 30
0.0
 10
238.7444545555285
 20
162.847892586669
 30
0.0
 10
238.7090380099675
 20
162.8413147262137
 30
0.0
 10
238.6617351079928
 20
162.8353410075892
 30
0.0
 10
238.6026263224219
 20
162.8303460479511
 30
0.0
 10
238.54713813839
 20
162.8269995934499
 30
0.0
 10
238.4999904493242
 20
162.8248826024795
 30
0.0
 10
238.45098958677
 20
162.8233095233772
 30
0.0
 10
238.4131917521513
 20
162.8227127897579
 30
0.0
 10
238.3879814460604
 20
162.8223147818469
 30
0.0
  0
SPLINE
  5
202
330
1F
100
AcDbEntity
  8
0
  6
Continuous
 62
     7
370
    15
100
AcDbSpline
210
0.0
220
0.0
230
1.0
 70
     8
 71
     3
 72
    16
 73
    12
 74
     0
 42
0.000000001
 43
0.00000001
 40
0.0
 40
0.0
 40
0.0
 40
0.0
 40
0.0632460790436637
 40
0.1257241072396864
 40
0.2507497899291438
 40
0.3756724180667535
 40
0.5008296238337021
 40
0.6255796569937346
 40
0.7504840317576902
 40
0.8673296432906661
 40
1.0
 40
1.0
 40
1.0
 40
1.0
 10
238.3879814460604
 20
162.8223147818469
 30
0.0
 10
238.3751993268036
 20
162.8222448185694
 30
0.0
 10
238.349790312419
 20
162.822105741638
 30
0.0
 10
238.2995566553112
 20
162.8223796612058
 30
0.0
 10
238.2391243353227
 20
162.8237435853615
 30
0.0
 10
238.1727834038522
 20
162.8266808994222
 30
0.0
 10
238.1140440036493
 20
162.8307186300241
 30
0.0
 10
238.0673349291593
 20
162.8359536266875
 30
0.0
 10
238.0333266853144
 20
162.8418438891669
 30
0.0
 10
238.0129364657017
 20
162.8485302790617
 30
0.0
 10
238.0095150890668
 20
162.8531887211746
 30
0.0
 10
238.0076959058627
 20
162.8556656655609
 30
0.0
  0
LINE
  5
203
330
1F
100
AcDbEntity
  8
0
  6
Continuous
 62
     7
370
    15
100
AcDbLine
 10
238.3914265415
 20
162.8952494796
 30
0.0
 11
238.3914265415
 21
162.9054015978
 31
0.0
  0
LINE
  5
204
330
1F
100
AcDbEntity
  8
0
  6
Continuous
 62
     7
370
    15
100
AcDbLine
 10
238.0076959059
 20
162.8556656656
 30
0.0
 11
238.0076959059
 21
162.8841129519
 31
0.0
  0
LINE
  5
205
330
1F
100
AcDbEntity
  8
0
  6
Continuous
 62
     7
370
    15
100
AcDbLine
 10
238.7709170597
 20
162.8620296809
 30
0.0
 11
238.7709170597
 21
162.8914312772
 31
0.0
  0
LINE
  5
206
330
1F
100
AcDbEntity
  8
0
  6
Continuous
 62
     7
370
    15
100
AcDbLine
 10
238.7054602455
 20
162.897032106
 30
0.0
 11
238.7054602455
 21
162.9071839074
 31
0.0
  0
LINE
  5
207
330
1F
100
AcDbEntity
  8
0
  6
Continuous
 62
     7
370
    15
100
AcDbLine
 10
238.093028271
 20
162.8919557334
 30
0.0
 11
238.093028271
 21
162.9021084369
 31
0.0
  0
SPLINE
  5
208
330
1F
100
AcDbEntity
  8
0
  6
Continuous
 62
     7
370
    15
100
AcDbSpline
210
0.0
220
0.0
230
1.0
 70
     8
 71
     3
 72
    13
 73
     9
 74
     0
 42
0.000000001
 43
0.00000001
 40
0.0
 40
0.0
 40
0.0
 40
0.0
 40
0.1254693063967863
 40
0.2505529175304195
 40
0.5003369353054502
 40
0.7493872476884114
 40
0.874515402809536
 40
1.0
 40
1.0
 40
1.0
 40
1.0
 10
238.0076959058627
 20
162.6865844685518
 30
0.0
 10
238.0088706315472
 20
162.6891635241753
 30
0.0
 10
238.0112164717849
 20
162.6943137073515
 30
0.0
 10
238.030511705045
 20
162.7044768960137
 30
0.0
 10
238.0778481124462
 20
162.7165154014709
 30
0.0
 10
238.157149222786
 20
162.7262059287668
 30
0.0
 10
238.2347844069679
 20
162.7311745054032
 30
0.0
 10
238.2755913875184
 20
162.7329843490585
 30
0.0
 10
238.2960238973157
 20
162.7338905579404
 30
0.0
  0
LINE
  5
209
330
1F
100
AcDbEntity
  8
0
  6
Continuous
 62
     7
370
    15
100
AcDbLine
 10
238.0076959059
 20
162.6865844686
 30
0.0
 11
238.0076959059
 21
162.7239774263
 31
0.0
  0
SPLINE
  5
20A
330
1F
100
AcDbEntity
  8
0
  6
Continuous
 62
     7
370
    15
100
AcDbSpline
210
0.0
220
0.0
230
1.0
 70
     8
 71
     3
 72
    11
 73
     7
 74
     0
 42
0.000000001
 43
0.00000001
 40
0.0
 40
0.0
 40
0.0
 40
0.0
 40
0.2505682414141831
 40
0.4997897655364976
 40
0.7490588604963044
 40
1.0
 40
1.0
 40
1.0
 40
1.0
 10
238.098328417882
 20
162.6570990070547
 30
0.0
 10
238.0842213724893
 20
162.6591431228951
 30
0.0
 10
238.0560831021745
 20
162.6632203681631
 30
0.0
 10
238.0281121655509
 20
162.6705344358109
 30
0.0
 10
238.01032450936
 20
162.6783640660388
 30
0.0
 10
238.0085740574308
 20
162.6838382349093
 30
0.0
 10
238.0076959058627
 20
162.6865844685518
 30
0.0
  0
LINE
  5
20B
330
1F
100
AcDbEntity
  8
0
  6
Continuous
 62
     7
370
    15
100
AcDbLine
 10
238.2960238973
 20
162.6448573506
 30
0.0
 11
238.2960238973
 21
162.7338905579
 31
0.0
  0
SPLINE
  5
20C
330
1F
100
AcDbEntity
  8
0
  6
Continuous
 62
     7
370
    15
100
AcDbSpline
210
0.0
220
0.0
230
1.0
 70
     8
 71
     3
 72
    11
 73
     7
 74
     0
 42
0.000000001
 43
0.00000001
 40
0.0
 40
0.0
 40
0.0
 40
0.0
 40
0.2695704686720469
 40
0.4993256592431881
 40
0.749670526077122
 40
1.0
 40
1.0
 40
1.0
 40
1.0
 10
238.2960238973157
 20
162.6448573505654
 30
0.0
 10
238.2762228649871
 20
162.6454869145389
 30
0.0
 10
238.2395453922288
 20
162.6466530565412
 30
0.0
 10
238.1870907772426
 20
162.6491860890404
 30
0.0
 10
238.1389228872112
 20
162.6524109237113
 30
0.0
 10
238.1118596303109
 20
162.6555363446366
 30
0.0
 10
238.098328417882
 20
162.6570990070547
 30
0.0
  0
LINE
  5
20D
330
1F
100
AcDbEntity
  8
0
  6
Continuous
 62
     7
370
    15
100
AcDbLine
 10
238.7709170597
 20
162.6901668648
 30
0.0
 11
238.7709170597
 21
162.7305789272
 31
0.0
  0
LINE
  5
20E
330
1F
100
AcDbEntity
  8
0
  6
Continuous
 62
     7
370
    15
100
AcDbLine
 10
238.3919565562
 20
162.6288208437
 30
0.0
 11
238.3919565562
 21
162.7478912159
 31
0.0
  0
LINE
  5
20F
330
1F
100
AcDbEntity
  8
0
  6
Continuous
 62
     7
370
    15
100
AcDbLine
 10
238.0691776099
 20
162.6395592355
 30
0.0
 11
238.0691776099
 21
162.6628509952
 31
0.0
  0
LINE
  5
210
330
1F
100
AcDbEntity
  8
0
  6
Continuous
 62
     8
370
    15
100
AcDbLine
 10
238.4179272761
 20
163.1026377953
 30
0.0
 11
238.4179272761
 21
163.1042886937
 31
0.0
  0
HATCH
  5
211
330
1F
100
AcDbEntity
  8
0
  6
Continuous
 62
     7
370
     0
100
AcDbHatch
 10
0.0
 20
0.0
 30
0.0
210
0.0
220
0.0
230
1.0
  2
DIN 201 Stahl und Stahlguss
 70
     0
 71
     0
 91
        1
 92
        0
 93
       10
 72
     1
 10
264.8726798802217
 20
157.1108395324125
 11
264.8726798802214
 21
159.1108395324125
 72
     2
 10
238.8726798802217
 20
105.777506199079
 40
59.33333333333328
 50
64.01076641616727
 51
115.9892335838328
 73
     1
 72
     1
 10
212.8726798802219
 20
159.1108395324125
 11
212.8726798802216
 21
157.1108395324125
 72
     1
 10
212.8726798802216
 20
157.1108395324125
 11
213.3383892106142
 21
157.1108395324125
 72
     2
 10
238.8726798802217
 20
105.777506199079
 40
57.33333333333328
 50
243.5532720447736
 51
269.017598662086
 73
     0
 72
     1
 10
237.8896887824588
 20
163.1024121265429
 11
237.8896887824588
 21
163.6024121265429
 72
     2
 10
238.8726798802217
 20
106.277506199079
 40
57.33333333333328
 50
269.0176020110052
 51
269.1355656869985
 73
     0
 72
     1
 10
238.0077117827684
 20
163.6043144243196
 11
238.0077117827684
 21
163.1043144243196
 72
     2
 10
238.8726798802217
 20
105.777506199079
 40
57.33333333333328
 50
269.1355657048127
 51
296.4467279552279
 73
     0
 72
     1
 10
264.4069705498292
 20
157.1108395324125
 11
264.8726798802217
 21
157.1108395324125
 97
        0
 75
     0
 76
     2
 52
0.0
 41
1.0
 77
     0
 78
     4
 53
45.00000209717174
 43
0.0
 44
0.0
 45
-13.47038467465416
 46
13.47038368855329
 79
     0
 53
45.00000209717174
 43
4.490128
 44
0.0
 45
-13.47038467465416
 46
13.47038368855329
 79
     0
 53
45.00000209717174
 43
8.980256
 44
0.0
 45
-13.47038467465416
 46
13.47038368855329
 79
     0
 53
45.00000209717174
 43
13.47038
 44
0.0
 45
-13.47038467465416
 46
13.47038368855329
 79
     0
 98
        1
 10
0.0
 20
0.0
  0
MTEXT
  5
212
330
1F
100
AcDbEntity
  8
0
  6
Continuous
 62
     7
370
     0
100
AcDbMText
 10
238.5834440872
 20
154.5468545912
 30
0.0
 40
3.5
 41
0.0
 71
     2
 72
     1
  1
A-A
  7
SLDTEXTSTYLE0
 73
     1
 44
1.0
  0
ENDSEC
  0
SECTION
  2
OBJECTS
  0
DICTIONARY
  5
C
330
0
100
AcDbDictionary
281
     1
  3
ACAD_GROUP
350
D
  3
ACAD_LAYOUT
350
1A
  3
ACAD_MLINESTYLE
350
17
  3
ACAD_PLOTSETTINGS
350
19
  3
ACAD_PLOTSTYLENAME
350
E
  3
ACAD_SCALELIST
350
47
  0
DICTIONARY
  5
D
102
{ACAD_REACTORS
330
C
102
}
330
C
100
AcDbDictionary
281
     1
  0
DICTIONARY
  5
1A
102
{ACAD_REACTORS
330
C
102
}
330
C
100
AcDbDictionary
281
     1
  3
Layout1
350
1E
  3
Layout2
350
26
  3
Model
350
22
  0
DICTIONARY
  5
17
102
{ACAD_REACTORS
330
C
102
}
330
C
100
AcDbDictionary
281
     1
  3
Standard
350
18
  0
DICTIONARY
  5
19
102
{ACAD_REACTORS
330
C
102
}
330
C
100
AcDbDictionary
281
     1
  0
ACDBDICTIONARYWDFLT
  5
E
102
{ACAD_REACTORS
330
C
102
}
330
C
100
AcDbDictionary
281
     1
  3
Normal
350
F
100
AcDbDictionaryWithDefault
340
F
  0
DICTIONARY
  5
47
102
{ACAD_REACTORS
330
C
102
}
330
C
100
AcDbDictionary
281
     1
  3
A0
350
48
  3
A1
350
49
  3
A2
350
4A
  3
A3
350
4B
  3
A4
350
4C
  3
A5
350
4D
  3
A6
350
4E
  3
A7
350
4F
  3
A8
350
50
  3
A9
350
51
  3
B0
350
52
  3
B1
350
53
  3
B2
350
54
  3
B3
350
55
  3
B4
350
56
  3
B5
350
57
  3
B6
350
58
  3
B7
350
59
  3
B8
350
5A
  3
B9
350
5B
  3
C0
350
5C
  3
C1
350
5D
  3
C2
350
5E
  3
C3
350
5F
  3
C4
350
60
  3
C5
350
61
  3
C6
350
62
  3
C7
350
63
  3
C8
350
64
  3
C9
350
65
  3
D0
350
66
  3
D1
350
67
  3
D2
350
68
  0
LAYOUT
  5
1E
102
{ACAD_REACTORS
330
1A
102
}
330
1A
100
AcDbPlotSettings
  1

  2
none_device
  4

  6

 40
0.0
 41
0.0
 42
0.0
 43
0.0
 44
0.0
 45
0.0
 46
0.0
 47
0.0
 48
0.0
 49
0.0
140
0.0
141
0.0
142
1.0
143
1.0
 70
   688
 72
     1
 73
     0
 74
     5
  7

 75
    16
147
1.0
148
0.0
149
0.0
100
AcDbLayout
  1
Layout1
 70
     1
 71
     1
 10
0.0
 20
0.0
 11
420.0
 21
297.0
 12
0.0
 22
0.0
 32
0.0
 14
1.0000000000E+20
 24
1.0000000000E+20
 34
1.0000000000E+20
 15
-1.0000000000E+20
 25
-1.0000000000E+20
 35
-1.0000000000E+20
146
0.0
 13
0.0
 23
0.0
 33
0.0
 16
1.0
 26
0.0
 36
0.0
 17
0.0
 27
1.0
 37
0.0
 76
     0
330
1B
  0
LAYOUT
  5
26
102
{ACAD_REACTORS
330
1A
102
}
330
1A
100
AcDbPlotSettings
  1

  2
none_device
  4

  6

 40
0.0
 41
0.0
 42
0.0
 43
0.0
 44
0.0
 45
0.0
 46
0.0
 47
0.0
 48
0.0
 49
0.0
140
0.0
141
0.0
142
1.0
143
1.0
 70
   688
 72
     1
 73
     0
 74
     5
  7

 75
    16
147
1.0
148
0.0
149
0.0
100
AcDbLayout
  1
Layout2
 70
     1
 71
     2
 10
0.0
 20
0.0
 11
0.0
 21
0.0
 12
0.0
 22
0.0
 32
0.0
 14
0.0
 24
0.0
 34
0.0
 15
0.0
 25
0.0
 35
0.0
146
0.0
 13
0.0
 23
0.0
 33
0.0
 16
1.0
 26
0.0
 36
0.0
 17
0.0
 27
1.0
 37
0.0
 76
     0
330
23
  0
LAYOUT
  5
22
102
{ACAD_REACTORS
330
1A
102
}
330
1A
100
AcDbPlotSettings
  1

  2
none_device
  4
Letter_(8.50_x_11.00_Inches)
  6

 40
6.35
 41
6.35
 42
6.35000508
 43
6.35000508
 44
215.9
 45
279.4
 46
0.0
 47
0.0
 48
0.0
 49
0.0
140
0.0
141
0.0
142
1.0
143
1.0
 70
  1712
 72
     1
 73
     0
 74
     0
  7

 75
     0
147
1.0
148
0.0
149
0.0
100
AcDbLayout
  1
Model
 70
     1
 71
     0
 10
0.0
 20
0.0
 11
297.0
 21
210.0
 12
0.0
 22
0.0
 32
0.0
 14
0.0
 24
0.0
 34
0.0
 15
297.0
 25
210.0
 35
0.0
146
0.0
 13
0.0
 23
0.0
 33
0.0
 16
1.0
 26
0.0
 36
0.0
 17
0.0
 27
1.0
 37
0.0
 76
     0
330
1F
331
29
  0
MLINESTYLE
  5
18
102
{ACAD_REACTORS
330
17
102
}
330
17
100
AcDbMlineStyle
  2
Standard
 70
     0
  3

 62
   256
 51
90.0
 52
90.0
 71
     2
 49
0.5
 62
   256
  6
BYLAYER
 49
-0.5
 62
   256
  6
BYLAYER
  0
ACDBPLACEHOLDER
  5
F
102
{ACAD_REACTORS
330
E
102
}
330
E
  0
SCALE
  5
48
102
{ACAD_REACTORS
330
47
102
}
330
47
100
AcDbScale
 70
     0
300
1:1
140
1.0
141
1.0
290
     1
  0
SCALE
  5
49
102
{ACAD_REACTORS
330
47
102
}
330
47
100
AcDbScale
 70
     0
300
1:2
140
1.0
141
2.0
290
     0
  0
SCALE
  5
4A
102
{ACAD_REACTORS
330
47
102
}
330
47
100
AcDbScale
 70
     0
300
1:4
140
1.0
141
4.0
290
     0
  0
SCALE
  5
4B
102
{ACAD_REACTORS
330
47
102
}
330
47
100
AcDbScale
 70
     0
300
1:5
140
1.0
141
5.0
290
     0
  0
SCALE
  5
4C
102
{ACAD_REACTORS
330
47
102
}
330
47
100
AcDbScale
 70
     0
300
1:8
140
1.0
141
8.0
290
     0
  0
SCALE
  5
4D
102
{ACAD_REACTORS
330
47
102
}
330
47
100
AcDbScale
 70
     0
300
1:10
140
1.0
141
10.0
290
     0
  0
SCALE
  5
4E
102
{ACAD_REACTORS
330
47
102
}
330
47
100
AcDbScale
 70
     0
300
1:16
140
1.0
141
16.0
290
     0
  0
SCALE
  5
4F
102
{ACAD_REACTORS
330
47
102
}
330
47
100
AcDbScale
 70
     0
300
1:20
140
1.0
141
20.0
290
     0
  0
SCALE
  5
50
102
{ACAD_REACTORS
330
47
102
}
330
47
100
AcDbScale
 70
     0
300
1:30
140
1.0
141
30.0
290
     0
  0
SCALE
  5
51
102
{ACAD_REACTORS
330
47
102
}
330
47
100
AcDbScale
 70
     0
300
1:40
140
1.0
141
40.0
290
     0
  0
SCALE
  5
52
102
{ACAD_REACTORS
330
47
102
}
330
47
100
AcDbScale
 70
     0
300
1:50
140
1.0
141
50.0
290
     0
  0
SCALE
  5
53
102
{ACAD_REACTORS
330
47
102
}
330
47
100
AcDbScale
 70
     0
300
1:100
140
1.0
141
100.0
290
     0
  0
SCALE
  5
54
102
{ACAD_REACTORS
330
47
102
}
330
47
100
AcDbScale
 70
     0
300
2:1
140
2.0
141
1.0
290
     0
  0
SCALE
  5
55
102
{ACAD_REACTORS
330
47
102
}
330
47
100
AcDbScale
 70
     0
300
4:1
140
4.0
141
1.0
290
     0
  0
SCALE
  5
56
102
{ACAD_REACTORS
330
47
102
}
330
47
100
AcDbScale
 70
     0
300
8:1
140
8.0
141
1.0
290
     0
  0
SCALE
  5
57
102
{ACAD_REACTORS
330
47
102
}
330
47
100
AcDbScale
 70
     0
300
10:1
140
10.0
141
1.0
290
     0
  0
SCALE
  5
58
102
{ACAD_REACTORS
330
47
102
}
330
47
100
AcDbScale
 70
     0
300
100:1
140
100.0
141
1.0
290
     0
  0
SCALE
  5
59
102
{ACAD_REACTORS
330
47
102
}
330
47
100
AcDbScale
 70
     0
300
1/128" = 1'-0"
140
0.0078125
141
12.0
290
     0
  0
SCALE
  5
5A
102
{ACAD_REACTORS
330
47
102
}
330
47
100
AcDbScale
 70
     0
300
1/64" = 1'-0"
140
0.015625
141
12.0
290
     0
  0
SCALE
  5
5B
102
{ACAD_REACTORS
330
47
102
}
330
47
100
AcDbScale
 70
     0
300
1/32" = 1'-0"
140
0.03125
141
12.0
290
     0
  0
SCALE
  5
5C
102
{ACAD_REACTORS
330
47
102
}
330
47
100
AcDbScale
 70
     0
300
1/16" = 1'-0"
140
0.0625
141
12.0
290
     0
  0
SCALE
  5
5D
102
{ACAD_REACTORS
330
47
102
}
330
47
100
AcDbScale
 70
     0
300
3/32" = 1'-0"
140
0.09375
141
12.0
290
     0
  0
SCALE
  5
5E
102
{ACAD_REACTORS
330
47
102
}
330
47
100
AcDbScale
 70
     0
300
1/8" = 1'-0"
140
0.125
141
12.0
290
     0
  0
SCALE
  5
5F
102
{ACAD_REACTORS
330
47
102
}
330
47
100
AcDbScale
 70
     0
300
3/16" = 1'-0"
140
0.1875
141
12.0
290
     0
  0
SCALE
  5
60
102
{ACAD_REACTORS
330
47
102
}
330
47
100
AcDbScale
 70
     0
300
1/4" = 1'-0"
140
0.25
141
12.0
290
     0
  0
SCALE
  5
61
102
{ACAD_REACTORS
330
47
102
}
330
47
100
AcDbScale
 70
     0
300
3/8" = 1'-0"
140
0.375
141
12.0
290
     0
  0
SCALE
  5
62
102
{ACAD_REACTORS
330
47
102
}
330
47
100
AcDbScale
 70
     0
300
1/2" = 1'-0"
140
0.5
141
12.0
290
     0
  0
SCALE
  5
63
102
{ACAD_REACTORS
330
47
102
}
330
47
100
AcDbScale
 70
     0
300
3/4" = 1'-0"
140
0.75
141
12.0
290
     0
  0
SCALE
  5
64
102
{ACAD_REACTORS
330
47
102
}
330
47
100
AcDbScale
 70
     0
300
1" = 1'-0"
140
1.0
141
12.0
290
     0
  0
SCALE
  5
65
102
{ACAD_REACTORS
330
47
102
}
330
47
100
AcDbScale
 70
     0
300
1-1/2" = 1'-0"
140
1.5
141
12.0
290
     0
  0
SCALE
  5
66
102
{ACAD_REACTORS
330
47
102
}
330
47
100
AcDbScale
 70
     0
300
3" = 1'-0"
140
3.0
141
12.0
290
     0
  0
SCALE
  5
67
102
{ACAD_REACTORS
330
47
102
}
330
47
100
AcDbScale
 70
     0
300
6" = 1'-0"
140
6.0
141
12.0
290
     0
  0
SCALE
  5
68
102
{ACAD_REACTORS
330
47
102
}
330
47
100
AcDbScale
 70
     0
300
1'-0" = 1'-0"
140
12.0
141
12.0
290
     0
  0
ENDSEC
  0
EOF
