  0
SECTION
  2
HEADER
  9
$ACADVER
  1
AC1015
  9
$ACADMAINTVER
 70
     6
  9
$DWGCODEPAGE
  3
ANSI_1252
  9
$INSBASE
 10
0.0
 20
0.0
 30
0.0
  9
$EXTMIN
 10
0.0
 20
0.0
 30
0.0
  9
$EXTMAX
 10
2970.0
 20
2100.0
 30
0.0
  9
$LIMMIN
 10
0.0
 20
0.0
  9
$LIMMAX
 10
2970.0
 20
2100.0
  9
$ORTHOMODE
 70
     0
  9
$REGENMODE
 70
     1
  9
$FILLMODE
 70
     1
  9
$QTEXTMODE
 70
     0
  9
$MIRRTEXT
 70
     1
  9
$LTSCALE
 40
10.0
  9
$ATTMODE
 70
     1
  9
$TEXTSIZE
 40
35.0
  9
$TRACEWID
 40
1.0
  9
$TEXTSTYLE
  7
Standard
  9
$CLAYER
  8
0
  9
$CELTYPE
  6
ByLayer
  9
$CECOLOR
 62
   256
  9
$CELTSCALE
 40
1.0
  9
$DISPSILH
 70
     0
  9
$DIMSCALE
 40
1.0
  9
$DIMASZ
 40
33.02
  9
$DIMEXO
 40
10.0
  9
$DIMDLI
 40
3.75
  9
$DIMRND
 40
0.0
  9
$DIMDLE
 40
0.0
  9
$DIMEXE
 40
10.0
  9
$DIMTP
 40
0.0
  9
$DIMTM
 40
0.0
  9
$DIMTXT
 40
35.0
  9
$DIMCEN
 40
2.5
  9
$DIMTSZ
 40
0.0
  9
$DIMTOL
 70
     0
  9
$DIMLIM
 70
     0
  9
$DIMTIH
 70
     1
  9
$DIMTOH
 70
     1
  9
$DIMSE1
 70
     0
  9
$DIMSE2
 70
     0
  9
$DIMTAD
 70
     1
  9
$DIMZIN
 70
     0
  9
$DIMBLK
  1

  9
$DIMASO
 70
     1
  9
$DIMSHO
 70
     1
  9
$DIMPOST
  1

  9
$DIMAPOST
  1

  9
$DIMALT
 70
     0
  9
$DIMALTD
 70
     3
  9
$DIMALTF
 40
0.0393700787
  9
$DIMLFAC
 40
1.0
  9
$DIMTOFL
 70
     1
  9
$DIMTVP
 40
0.0
  9
$DIMTIX
 70
     0
  9
$DIMSOXD
 70
     0
  9
$DIMSAH
 70
     0
  9
$DIMBLK1
  1

  9
$DIMBLK2
  1

  9
$DIMSTYLE
  2
ISO-25
  9
$DIMCLRD
 70
     0
  9
$DIMCLRE
 70
     0
  9
$DIMCLRT
 70
     0
  9
$DIMTFAC
 40
1.0
  9
$DIMGAP
 40
15.24
  9
$DIMJUST
 70
     0
  9
$DIMSD1
 70
     0
  9
$DIMSD2
 70
     0
  9
$DIMTOLJ
 70
     0
  9
$DIMTZIN
 70
     0
  9
$DIMALTZ
 70
     0
  9
$DIMALTTZ
 70
     0
  9
$DIMUPT
 70
     0
  9
$DIMDEC
 70
     2
  9
$DIMTDEC
 70
     2
  9
$DIMALTU
 70
     2
  9
$DIMALTTD
 70
     3
  9
$DIMTXSTY
  7
Standard
  9
$DIMAUNIT
 70
     0
  9
$DIMADEC
 70
     2
  9
$DIMALTRND
 40
0.0
  9
$DIMAZIN
 70
     0
  9
$DIMDSEP
 70
    44
  9
$DIMATFIT
 70
     3
  9
$DIMFRAC
 70
     0
  9
$DIMLDRBLK
  1

  9
$DIMLUNIT
 70
     2
  9
$DIMLWD
 70
    -2
  9
$DIMLWE
 70
    -2
  9
$DIMTMOVE
 70
     0
  9
$LUNITS
 70
     2
  9
$LUPREC
 70
     2
  9
$SKETCHINC
 40
1.0
  9
$FILLETRAD
 40
10.0
  9
$AUNITS
 70
     0
  9
$AUPREC
 70
     2
  9
$MENU
  1
.
  9
$ELEVATION
 40
0.0
  9
$PELEVATION
 40
0.0
  9
$THICKNESS
 40
0.0
  9
$LIMCHECK
 70
     0
  9
$CHAMFERA
 40
0.0
  9
$CHAMFERB
 40
0.0
  9
$CHAMFERC
 40
0.0
  9
$CHAMFERD
 40
0.0
  9
$SKPOLY
 70
     0
  9
$TDCREATE
 40
2457302.465690949
  9
$TDUCREATE
 40
2457302.382357616
  9
$TDUPDATE
 40
2457302.465697628
  9
$TDUUPDATE
 40
2457302.382364294
  9
$TDINDWG
 40
0.0000000116
  9
$TDUSRTIMER
 40
0.0000000116
  9
$USRTIMER
 70
     1
  9
$ANGBASE
 50
0.0
  9
$ANGDIR
 70
     0
  9
$PDMODE
 70
     0
  9
$PDSIZE
 40
-1.0
  9
$PLINEWID
 40
0.0
  9
$SPLFRAME
 70
     0
  9
$SPLINETYPE
 70
     6
  9
$SPLINESEGS
 70
     8
  9
$HANDSEED
  5
506
  9
$SURFTAB1
 70
     6
  9
$SURFTAB2
 70
     6
  9
$SURFTYPE
 70
     6
  9
$SURFU
 70
     6
  9
$SURFV
 70
     6
  9
$UCSBASE
  2

  9
$UCSNAME
  2

  9
$UCSORG
 10
0.0
 20
0.0
 30
0.0
  9
$UCSXDIR
 10
1.0
 20
0.0
 30
0.0
  9
$UCSYDIR
 10
0.0
 20
1.0
 30
0.0
  9
$UCSORTHOREF
  2

  9
$UCSORTHOVIEW
 70
     0
  9
$UCSORGTOP
 10
0.0
 20
0.0
 30
0.0
  9
$UCSORGBOTTOM
 10
0.0
 20
0.0
 30
0.0
  9
$UCSORGLEFT
 10
0.0
 20
0.0
 30
0.0
  9
$UCSORGRIGHT
 10
0.0
 20
0.0
 30
0.0
  9
$UCSORGFRONT
 10
0.0
 20
0.0
 30
0.0
  9
$UCSORGBACK
 10
0.0
 20
0.0
 30
0.0
  9
$PUCSBASE
  2

  9
$PUCSNAME
  2

  9
$PUCSORG
 10
0.0
 20
0.0
 30
0.0
  9
$PUCSXDIR
 10
1.0
 20
0.0
 30
0.0
  9
$PUCSYDIR
 10
0.0
 20
1.0
 30
0.0
  9
$PUCSORTHOREF
  2

  9
$PUCSORTHOVIEW
 70
     0
  9
$PUCSORGTOP
 10
0.0
 20
0.0
 30
0.0
  9
$PUCSORGBOTTOM
 10
0.0
 20
0.0
 30
0.0
  9
$PUCSORGLEFT
 10
0.0
 20
0.0
 30
0.0
  9
$PUCSORGRIGHT
 10
0.0
 20
0.0
 30
0.0
  9
$PUCSORGFRONT
 10
0.0
 20
0.0
 30
0.0
  9
$PUCSORGBACK
 10
0.0
 20
0.0
 30
0.0
  9
$USERI1
 70
     0
  9
$USERI2
 70
     0
  9
$USERI3
 70
     0
  9
$USERI4
 70
     0
  9
$USERI5
 70
     0
  9
$USERR1
 40
0.0
  9
$USERR2
 40
0.0
  9
$USERR3
 40
0.0
  9
$USERR4
 40
0.0
  9
$USERR5
 40
0.0
  9
$WORLDVIEW
 70
     1
  9
$SHADEDGE
 70
     3
  9
$SHADEDIF
 70
    70
  9
$TILEMODE
 70
     1
  9
$MAXACTVP
 70
    64
  9
$PINSBASE
 10
0.0
 20
0.0
 30
0.0
  9
$PLIMCHECK
 70
     0
  9
$PEXTMIN
 10
1.0000000000E+20
 20
1.0000000000E+20
 30
1.0000000000E+20
  9
$PEXTMAX
 10
-1.0000000000E+20
 20
-1.0000000000E+20
 30
-1.0000000000E+20
  9
$PLIMMIN
 10
0.0
 20
0.0
  9
$PLIMMAX
 10
420.0
 20
297.0
  9
$UNITMODE
 70
     0
  9
$VISRETAIN
 70
     1
  9
$PLINEGEN
 70
     0
  9
$PSLTSCALE
 70
     1
  9
$TREEDEPTH
 70
  3020
  9
$CMLSTYLE
  2
Standard
  9
$CMLJUST
 70
     0
  9
$CMLSCALE
 40
20.0
  9
$PROXYGRAPHICS
 70
     1
  9
$MEASUREMENT
 70
     1
  9
$CELWEIGHT
370
    -1
  9
$ENDCAPS
280
     0
  9
$JOINSTYLE
280
     0
  9
$LWDISPLAY
290
     1
  9
$INSUNITS
 70
     4
  9
$HYPERLINKBASE
  1

  9
$STYLESHEET
  1

  9
$XEDIT
290
     1
  9
$CEPSNTYPE
380
     0
  9
$PSTYLEMODE
290
     1
  9
$FINGERPRINTGUID
  2
{162E564D-B88B-45E6-9E5A-BD38A04B08C9}
  9
$VERSIONGUID
  2
{FAEB1C32-E019-11D5-929B-00C0DF256EC4}
  9
$EXTNAMES
290
     1
  9
$PSVPSCALE
 40
0.0
  9
$OLESTARTUP
290
     0
  0
ENDSEC
  0
SECTION
  2
CLASSES
  0
CLASS
  1
ACDBDICTIONARYWDFLT
  2
AcDbDictionaryWithDefault
  3
ObjectDBX Classes
 90
        0
280
     0
281
     0
  0
CLASS
  1
VISUALSTYLE
  2
AcDbVisualStyle
  3
ObjectDBX Classes
 90
     4095
280
     0
281
     0
  0
CLASS
  1
MATERIAL
  2
AcDbMaterial
  3
ObjectDBX Classes
 90
     1153
280
     0
281
     0
  0
CLASS
  1
SCALE
  2
AcDbScale
  3
ObjectDBX Classes
 90
     1153
280
     0
281
     0
  0
CLASS
  1
TABLESTYLE
  2
AcDbTableStyle
  3
ObjectDBX Classes
 90
     4095
280
     0
281
     0
  0
CLASS
  1
MLEADERSTYLE
  2
AcDbMLeaderStyle
  3
ACDB_MLEADERSTYLE_CLASS
 90
     4095
280
     0
281
     0
  0
CLASS
  1
SUN
  2
AcDbSun
  3
SCENEOE
 90
     1153
280
     0
281
     0
  0
CLASS
  1
ACDBPLACEHOLDER
  2
AcDbPlaceHolder
  3
ObjectDBX Classes
 90
        0
280
     0
281
     0
  0
CLASS
  1
LAYOUT
  2
AcDbLayout
  3
ObjectDBX Classes
 90
        0
280
     0
281
     0
  0
ENDSEC
  0
SECTION
  2
TABLES
  0
TABLE
  2
VPORT
  5
8
330
0
100
AcDbSymbolTable
 70
     1
  0
VPORT
  5
29
330
8
100
AcDbSymbolTableRecord
100
AcDbViewportTableRecord
  2
*Active
 70
     0
 10
0.0
 20
0.0
 11
1.0
 21
1.0
 12
1485.0
 22
1050.0
 13
0.0
 23
0.0
 14
10.0
 24
10.0
 15
10.0
 25
10.0
 16
0.0
 26
0.0
 36
1.0
 17
0.0
 27
0.0
 37
0.0
 40
2100.0
 41
1.4142857143
 42
50.0
 43
0.0
 44
0.0
 50
0.0
 51
0.0
 71
     0
 72
  2000
 73
     1
 74
     3
 75
     0
 76
     0
 77
     0
 78
     0
281
     0
 65
     1
110
0.0
120
0.0
130
0.0
111
1.0
121
0.0
131
0.0
112
0.0
122
1.0
132
0.0
 79
     0
146
0.0
  0
ENDTAB
  0
TABLE
  2
LTYPE
  5
5
330
0
100
AcDbSymbolTable
 70
     6
  0
LTYPE
  5
14
330
5
100
AcDbSymbolTableRecord
100
AcDbLinetypeTableRecord
  2
ByBlock
 70
     0
  3

 72
    65
 73
     0
 40
0.0
  0
LTYPE
  5
15
330
5
100
AcDbSymbolTableRecord
100
AcDbLinetypeTableRecord
  2
ByLayer
 70
     0
  3

 72
    65
 73
     0
 40
0.0
  0
LTYPE
  5
16
330
5
100
AcDbSymbolTableRecord
100
AcDbLinetypeTableRecord
  2
Continuous
 70
     0
  3
Solid line
 72
    65
 73
     0
 40
0.0
  0
LTYPE
  5
6E
330
5
100
AcDbSymbolTableRecord
100
AcDbLinetypeTableRecord
  2
HIDDEN
 70
     0
  3
Hidden __ __ __ __ __ __ __ __ __ __ __ __ __ __
 72
    65
 73
     2
 40
1.905
 49
1.27
 74
     0
 49
-0.635
 74
     0
  0
LTYPE
  5
6F
330
5
100
AcDbSymbolTableRecord
100
AcDbLinetypeTableRecord
  2
PHANTOM
 70
     0
  3
Phantom ______  __  __  ______  __  __  ______
 72
    65
 73
     6
 40
12.7
 49
6.35
 74
     0
 49
-1.27
 74
     0
 49
1.27
 74
     0
 49
-1.27
 74
     0
 49
1.27
 74
     0
 49
-1.27
 74
     0
  0
LTYPE
  5
70
330
5
100
AcDbSymbolTableRecord
100
AcDbLinetypeTableRecord
  2
CENTER
 70
     0
  3
Center ____ _ ____ _ ____ _ ____ _ ____ _ ____
 72
    65
 73
     4
 40
10.16
 49
6.35
 74
     0
 49
-1.27
 74
     0
 49
1.27
 74
     0
 49
-1.27
 74
     0
  0
LTYPE
  5
71
330
5
100
AcDbSymbolTableRecord
100
AcDbLinetypeTableRecord
  2
CENTERX2
 70
     0
  3
Center (2x) ________  __  ________  __  _____
 72
    65
 73
     4
 40
20.32
 49
12.7
 74
     0
 49
-2.54
 74
     0
 49
2.54
 74
     0
 49
-2.54
 74
     0
  0
LTYPE
  5
72
330
5
100
AcDbSymbolTableRecord
100
AcDbLinetypeTableRecord
  2
DOT2
 70
     0
  3
Dot (.5x) ........................................
 72
    65
 73
     2
 40
0.635
 49
0.0
 74
     0
 49
-0.635
 74
     0
  0
ENDTAB
  0
TABLE
  2
LAYER
  5
2
330
0
100
AcDbSymbolTable
 70
     2
  0
LAYER
  5
10
330
2
100
AcDbSymbolTableRecord
100
AcDbLayerTableRecord
  2
0
 70
     0
 62
     7
  6
Continuous
370
    -3
390
F
  0
LAYER
  5
73
330
2
100
AcDbSymbolTableRecord
100
AcDbLayerTableRecord
  2
FORMAT
 70
     0
 62
     7
  6
Continuous
370
    -3
390
F
  0
ENDTAB
  0
TABLE
  2
STYLE
  5
3
330
0
100
AcDbSymbolTable
 70
     3
  0
STYLE
  5
11
330
3
100
AcDbSymbolTableRecord
100
AcDbTextStyleTableRecord
  2
Standard
 70
     0
 40
0.0
 41
1.0
 50
0.0
 71
     0
 42
35.0
  3
txt
  4

  0
STYLE
  5
89
330
3
100
AcDbSymbolTableRecord
100
AcDbTextStyleTableRecord
  2
SLDTEXTSTYLE0
 70
     0
 40
0.0
 41
0.75
 50
0.0
 71
     0
 42
35.0
  3
TXT
  4

  0
STYLE
  5
8F
330
3
100
AcDbSymbolTableRecord
100
AcDbTextStyleTableRecord
  2
SLDTEXTSTYLE1
 70
     0
 40
0.0
 41
0.6923076923
 50
0.0
 71
     0
 42
35.0
  3
TXT
  4

  0
ENDTAB
  0
TABLE
  2
VIEW
  5
6
330
0
100
AcDbSymbolTable
 70
     0
  0
ENDTAB
  0
TABLE
  2
UCS
  5
7
330
0
100
AcDbSymbolTable
 70
     0
  0
ENDTAB
  0
TABLE
  2
APPID
  5
9
330
0
100
AcDbSymbolTable
 70
     1
  0
APPID
  5
12
330
9
100
AcDbSymbolTableRecord
100
AcDbRegAppTableRecord
  2
ACAD
 70
     0
  0
ENDTAB
  0
TABLE
  2
DIMSTYLE
  5
A
330
0
100
AcDbSymbolTable
 70
     1
100
AcDbDimStyleTable
  0
DIMSTYLE
105
27
330
A
100
AcDbSymbolTableRecord
100
AcDbDimStyleTableRecord
  2
ISO-25
 70
     0
 41
2.5
 42
0.625
 43
3.75
 44
1.25
 73
     0
 74
     0
 77
     1
 78
     8
140
2.5
141
2.5
143
0.0393700787
147
0.625
171
     3
172
     1
178
     0
271
     2
272
     2
274
     3
278
    44
283
     0
284
     8
340
11
  0
ENDTAB
  0
TABLE
  2
BLOCK_RECORD
  5
1
330
0
100
AcDbSymbolTable
 70
     1
  0
BLOCK_RECORD
  5
1F
330
1
100
AcDbSymbolTableRecord
100
AcDbBlockTableRecord
  2
*Model_Space
340
22
  0
BLOCK_RECORD
  5
1B
330
1
100
AcDbSymbolTableRecord
100
AcDbBlockTableRecord
  2
*Paper_Space
340
1E
  0
BLOCK_RECORD
  5
23
330
1
100
AcDbSymbolTableRecord
100
AcDbBlockTableRecord
  2
*Paper_Space0
340
26
  0
ENDTAB
  0
ENDSEC
  0
SECTION
  2
BLOCKS
  0
BLOCK
  5
20
330
1F
100
AcDbEntity
  8
0
100
AcDbBlockBegin
  2
*Model_Space
 70
     0
 10
0.0
 20
0.0
 30
0.0
  3
*Model_Space
  1

  0
ENDBLK
  5
21
330
1F
100
AcDbEntity
  8
0
100
AcDbBlockEnd
  0
BLOCK
  5
1C
330
1B
100
AcDbEntity
 67
     1
  8
0
100
AcDbBlockBegin
  2
*Paper_Space
 70
     0
 10
0.0
 20
0.0
 30
0.0
  3
*Paper_Space
  1

  0
ENDBLK
  5
1D
330
1B
100
AcDbEntity
 67
     1
  8
0
100
AcDbBlockEnd
  0
BLOCK
  5
24
330
23
100
AcDbEntity
  8
0
100
AcDbBlockBegin
  2
*Paper_Space0
 70
     0
 10
0.0
 20
0.0
 30
0.0
  3
*Paper_Space0
  1

  0
ENDBLK
  5
25
330
23
100
AcDbEntity
  8
0
100
AcDbBlockEnd
  0
ENDSEC
  0
SECTION
  2
ENTITIES
  0
LINE
  5
74
330
1F
100
AcDbEntity
  8
0
  6
Continuous
 62
     7
370
     0
100
AcDbLine
 10
2920.0
 20
2050.0
 30
0.0
 11
2920.0
 21
50.0
 31
0.0
  0
LINE
  5
75
330
1F
100
AcDbEntity
  8
0
  6
Continuous
 62
     7
370
     0
100
AcDbLine
 10
2000.4777254774
 20
347.5
 30
0.0
 11
2920.0
 21
347.5
 31
0.0
  0
LINE
  5
76
330
1F
100
AcDbEntity
  8
0
  6
Continuous
 62
     7
370
     0
100
AcDbLine
 10
1594.0
 20
92.5
 30
0.0
 11
2920.0
 21
92.5
 31
0.0
  0
LINE
  5
77
330
1F
100
AcDbEntity
  8
0
  6
Continuous
 62
     7
370
     0
100
AcDbLine
 10
2920.0
 20
220.0
 30
0.0
 11
2790.0
 21
220.0
 31
0.0
  0
LINE
  5
78
330
1F
100
AcDbEntity
  8
0
  6
Continuous
 62
     7
370
     0
100
AcDbLine
 10
1594.0
 20
220.0
 30
0.0
 11
2000.4777254774
 21
220.0
 31
0.0
  0
LINE
  5
79
330
1F
100
AcDbEntity
  8
0
  6
Continuous
 62
     7
370
     0
100
AcDbLine
 10
2000.4777254774
 20
347.5
 30
0.0
 11
2000.4777254774
 21
50.0
 31
0.0
  0
LINE
  5
7A
330
1F
100
AcDbEntity
  8
0
  6
Continuous
 62
     7
370
     0
100
AcDbLine
 10
2478.0
 20
50.0
 30
0.0
 11
2478.0
 21
92.5
 31
0.0
  0
LINE
  5
7B
330
1F
100
AcDbEntity
  8
0
  6
Continuous
 62
     7
370
     0
100
AcDbLine
 10
2790.0
 20
92.5
 30
0.0
 11
2790.0
 21
154.9496936018
 31
0.0
  0
LINE
  5
7C
330
1F
100
AcDbEntity
  8
0
  6
Continuous
 62
     7
370
     0
100
AcDbLine
 10
1594.0
 20
347.5
 30
0.0
 11
2000.4777254774
 21
347.5
 31
0.0
  0
LINE
  5
7D
330
1F
100
AcDbEntity
  8
0
  6
Continuous
 62
     7
370
     0
100
AcDbLine
 10
2920.0
 20
154.9496936018
 30
0.0
 11
2790.0
 21
154.9496936018
 31
0.0
  0
LINE
  5
7E
330
1F
100
AcDbEntity
  8
0
  6
Continuous
 62
     7
370
     0
100
AcDbLine
 10
2000.4777254774
 20
220.0
 30
0.0
 11
2790.0
 21
220.0
 31
0.0
  0
LINE
  5
7F
330
1F
100
AcDbEntity
  8
0
  6
Continuous
 62
     7
370
     0
100
AcDbLine
 10
1594.0
 20
347.5
 30
0.0
 11
1594.0
 21
220.0
 31
0.0
  0
LINE
  5
80
330
1F
100
AcDbEntity
  8
0
  6
Continuous
 62
     7
370
     0
100
AcDbLine
 10
1594.0
 20
220.0
 30
0.0
 11
1705.7777254774
 21
220.0
 31
0.0
  0
LINE
  5
81
330
1F
100
AcDbEntity
  8
0
  6
Continuous
 62
     7
370
     0
100
AcDbLine
 10
2920.0
 20
2050.0
 30
0.0
 11
50.0
 21
2050.0
 31
0.0
  0
LINE
  5
82
330
1F
100
AcDbEntity
  8
0
  6
Continuous
 62
     7
370
     0
100
AcDbLine
 10
50.0
 20
2050.0
 30
0.0
 11
50.0
 21
50.0
 31
0.0
  0
LINE
  5
83
330
1F
100
AcDbEntity
  8
0
  6
Continuous
 62
     7
370
     0
100
AcDbLine
 10
50.0
 20
50.0
 30
0.0
 11
2920.0
 21
50.0
 31
0.0
  0
LINE
  5
84
330
1F
100
AcDbEntity
  8
0
  6
Continuous
 62
     7
370
     0
100
AcDbLine
 10
1705.7777254774
 20
220.0
 30
0.0
 11
1594.0
 21
220.0
 31
0.0
  0
LINE
  5
85
330
1F
100
AcDbEntity
  8
0
  6
Continuous
 62
     7
370
     0
100
AcDbLine
 10
2790.0
 20
154.9496936018
 30
0.0
 11
2790.0
 21
220.0
 31
0.0
  0
LINE
  5
86
330
1F
100
AcDbEntity
  8
0
  6
Continuous
 62
     7
370
     0
100
AcDbLine
 10
1594.0
 20
283.75
 30
0.0
 11
2000.4777254774
 21
283.75
 31
0.0
  0
LINE
  5
87
330
1F
100
AcDbEntity
  8
0
  6
Continuous
 62
     7
370
     0
100
AcDbLine
 10
1594.0
 20
220.0
 30
0.0
 11
1594.0
 21
92.5
 31
0.0
  0
LINE
  5
88
330
1F
100
AcDbEntity
  8
0
  6
Continuous
 62
     7
370
     0
100
AcDbLine
 10
1594.0
 20
50.0
 30
0.0
 11
1594.0
 21
92.5
 31
0.0
  0
MTEXT
  5
8A
330
1F
100
AcDbEntity
  8
0
  6
Continuous
 62
     7
370
     0
100
AcDbMText
 10
2802.7693727994
 20
194.3244494768
 30
0.0
 40
15.0
 41
0.0
 71
     1
 72
     1
  1
Blattformat
  7
SLDTEXTSTYLE0
 73
     1
 44
1.0
  0
MTEXT
  5
8B
330
1F
100
AcDbEntity
  8
0
  6
Continuous
 62
     7
370
     0
100
AcDbMText
 10
1623.4150305537
 20
201.3202491599
 30
0.0
 40
15.0
 41
0.0
 71
     1
 72
     1
  1
Werkstoff:
  7
SLDTEXTSTYLE0
 73
     1
 44
1.0
  0
MTEXT
  5
8C
330
1F
100
AcDbEntity
  8
0
  6
Continuous
 62
     7
370
     0
100
AcDbMText
 10
2057.5192308068
 20
322.4610146297
 30
0.0
 40
15.0
 41
0.0
 71
     1
 72
     1
  1
Artikelnummer
  7
SLDTEXTSTYLE0
 73
     1
 44
1.0
  0
MTEXT
  5
8D
330
1F
100
AcDbEntity
  8
0
  6
Continuous
 62
     7
370
     0
100
AcDbMText
 10
2057.5192308068
 20
201.3202491599
 30
0.0
 40
15.0
 41
0.0
 71
     1
 72
     1
  1
Hersteller
  7
SLDTEXTSTYLE0
 73
     1
 44
1.0
  0
MTEXT
  5
8E
330
1F
100
AcDbEntity
  8
0
  6
Continuous
 62
     7
370
     0
100
AcDbMText
 10
2057.5192308068
 20
79.0008727453
 30
0.0
 40
15.0
 41
0.0
 71
     1
 72
     1
  1
Massstab: 1:10
  7
SLDTEXTSTYLE0
 73
     1
 44
1.0
  0
MTEXT
  5
90
330
1F
100
AcDbEntity
  8
0
  6
Continuous
 62
     7
370
     0
100
AcDbMText
 10
2492.7829442782
 20
79.0008727453
 30
0.0
 40
15.0
 41
0.0
 71
     1
 72
     1
  1
Blatt 1 von 1
  7
SLDTEXTSTYLE1
 73
     1
 44
1.0
  0
MTEXT
  5
91
330
1F
100
AcDbEntity
  8
0
  6
Continuous
 62
     7
370
     0
100
AcDbMText
 10
2830.1820125196
 20
142.1449358799
 30
0.0
 40
29.1041666667
 41
0.0
 71
     1
 72
     1
  1
A4
  7
SLDTEXTSTYLE0
 73
     1
 44
1.0
  0
MTEXT
  5
92
330
1F
100
AcDbEntity
  8
0
  6
Continuous
 62
     7
370
     0
100
AcDbMText
 10
1785.0786381088
 20
326.2555134701
 30
0.0
 40
15.0
 41
0.0
 71
     2
 72
     1
  1
Datum
  7
SLDTEXTSTYLE0
 73
     1
 44
1.0
  0
MTEXT
  5
93
330
1F
100
AcDbEntity
  8
0
  6
Continuous
 62
     7
370
     0
100
AcDbMText
 10
1787.1481364669
 20
261.7832478583
 30
0.0
 40
15.0
 41
0.0
 71
     2
 72
     1
  1
06.10.2015
  7
SLDTEXTSTYLE0
 73
     1
 44
1.0
  0
MTEXT
  5
94
330
1F
100
AcDbEntity
  8
0
  6
Continuous
 62
     7
370
     0
100
AcDbMText
 10
1705.4931540188
 20
78.7529150317
 30
0.0
 40
15.0
 41
0.0
 71
     2
 72
     1
  1
Gewicht 3.929 kg
  7
SLDTEXTSTYLE0
 73
     1
 44
1.0
  0
MTEXT
  5
95
330
1F
100
AcDbEntity
  8
0
  6
Continuous
 62
     7
370
     0
100
AcDbMText
 10
1623.4150305537
 20
152.7249308571
 30
0.0
 40
15.875
 41
0.0
 71
     1
 72
     1
  1
1.0037 (S235JR)
  7
SLDTEXTSTYLE0
 73
     1
 44
1.0
  0
MTEXT
  5
96
330
1F
100
AcDbEntity
  8
0
  6
Continuous
 62
     7
370
     0
100
AcDbMText
 10
2057.5192308068
 20
285.4681232195
 30
0.0
 40
42.3333333333
 41
0.0
 71
     1
 72
     1
  1
40.602430.7
  7
SLDTEXTSTYLE0
 73
     1
 44
1.0
  0
MTEXT
  5
97
330
1F
100
AcDbEntity
  8
0
  6
Continuous
 62
     7
370
     0
100
AcDbMText
 10
2621.2837727184
 20
323.0813099959
 30
0.0
 40
15.875
 41
0.0
 71
     1
 72
     1
  1
Feuerverzinkt
  7
SLDTEXTSTYLE0
 73
     1
 44
1.0
  0
MTEXT
  5
98
330
1F
100
AcDbEntity
  8
0
  6
Continuous
 62
     7
370
     0
100
AcDbMText
 10
2492.0381656152
 20
322.4610146297
 30
0.0
 40
15.0
 41
0.0
 71
     1
 72
     1
  1
Oberfläche:
  7
SLDTEXTSTYLE0
 73
     1
 44
1.0
  0
MTEXT
  5
99
330
1F
100
AcDbEntity
  8
0
  6
Continuous
 62
     7
370
     0
100
AcDbMText
 10
2169.9625193882
 20
178.3216040306
 30
0.0
 40
42.3333333333
 41
0.0
 71
     1
 72
     1
  1
FeNau GmbH
  7
SLDTEXTSTYLE0
 73
     1
 44
1.0
  0
LINE
  5
9A
330
1F
100
AcDbEntity
  8
0
  6
Continuous
 62
     7
370
    15
100
AcDbLine
 10
1832.5905888094
 20
1743.3819811321
 30
0.0
 11
1830.5905888094
 21
1746.0519811321
 31
0.0
  0
LINE
  5
9B
330
1F
100
AcDbEntity
  8
0
  6
Continuous
 62
     7
370
    15
100
AcDbLine
 10
1823.2805888094
 20
1746.0519811321
 30
0.0
 11
1821.2805888094
 21
1743.3819811321
 31
0.0
  0
LINE
  5
9C
330
1F
100
AcDbEntity
  8
0
  6
Continuous
 62
     7
370
    15
100
AcDbLine
 10
1562.5905888094
 20
1743.3819811321
 30
0.0
 11
1560.5905888094
 21
1746.0519811321
 31
0.0
  0
LINE
  5
9D
330
1F
100
AcDbEntity
  8
0
  6
Continuous
 62
     7
370
    15
100
AcDbLine
 10
1553.2805888094
 20
1746.0519811321
 30
0.0
 11
1551.2805888094
 21
1743.3819811321
 31
0.0
  0
LINE
  5
9E
330
1F
100
AcDbEntity
  8
0
  6
Continuous
 62
     7
370
    15
100
AcDbLine
 10
1712.5905888094
 20
1743.3819811321
 30
0.0
 11
1710.5905888094
 21
1746.0519811321
 31
0.0
  0
LINE
  5
9F
330
1F
100
AcDbEntity
  8
0
  6
Continuous
 62
     7
370
    15
100
AcDbLine
 10
1703.2805888094
 20
1746.0519811321
 30
0.0
 11
1701.2805888094
 21
1743.3819811321
 31
0.0
  0
LINE
  5
A0
330
1F
100
AcDbEntity
  8
0
  6
Continuous
 62
     7
370
    15
100
AcDbLine
 10
1772.5905888094
 20
1743.3819811321
 30
0.0
 11
1770.5905888094
 21
1746.0519811321
 31
0.0
  0
LINE
  5
A1
330
1F
100
AcDbEntity
  8
0
  6
Continuous
 62
     7
370
    15
100
AcDbLine
 10
1763.2805888094
 20
1746.0519811321
 30
0.0
 11
1761.2805888094
 21
1743.3819811321
 31
0.0
  0
LINE
  5
A2
330
1F
100
AcDbEntity
  8
0
  6
Continuous
 62
     7
370
    15
100
AcDbLine
 10
1742.5905888094
 20
1743.3819811321
 30
0.0
 11
1740.5905888094
 21
1746.0519811321
 31
0.0
  0
LINE
  5
A3
330
1F
100
AcDbEntity
  8
0
  6
Continuous
 62
     7
370
    15
100
AcDbLine
 10
1733.2805888094
 20
1746.0519811321
 30
0.0
 11
1731.2805888094
 21
1743.3819811321
 31
0.0
  0
LINE
  5
A4
330
1F
100
AcDbEntity
  8
0
  6
Continuous
 62
     7
370
    15
100
AcDbLine
 10
1532.5905888094
 20
1743.3819811321
 30
0.0
 11
1530.5905888094
 21
1746.0519811321
 31
0.0
  0
LINE
  5
A5
330
1F
100
AcDbEntity
  8
0
  6
Continuous
 62
     7
370
    15
100
AcDbLine
 10
1523.2805888094
 20
1746.0519811321
 30
0.0
 11
1521.2805888094
 21
1743.3819811321
 31
0.0
  0
LINE
  5
A6
330
1F
100
AcDbEntity
  8
0
  6
Continuous
 62
     7
370
    15
100
AcDbLine
 10
1622.5905888094
 20
1743.3819811321
 30
0.0
 11
1620.5905888094
 21
1746.0519811321
 31
0.0
  0
LINE
  5
A7
330
1F
100
AcDbEntity
  8
0
  6
Continuous
 62
     7
370
    15
100
AcDbLine
 10
1613.2805888094
 20
1746.0519811321
 30
0.0
 11
1611.2805888094
 21
1743.3819811321
 31
0.0
  0
LINE
  5
A8
330
1F
100
AcDbEntity
  8
0
  6
Continuous
 62
     7
370
    15
100
AcDbLine
 10
1682.5905888094
 20
1743.3819811321
 30
0.0
 11
1680.5905888094
 21
1746.0519811321
 31
0.0
  0
LINE
  5
A9
330
1F
100
AcDbEntity
  8
0
  6
Continuous
 62
     7
370
    15
100
AcDbLine
 10
1673.2805888094
 20
1746.0519811321
 30
0.0
 11
1671.2805888094
 21
1743.3819811321
 31
0.0
  0
LINE
  5
AA
330
1F
100
AcDbEntity
  8
0
  6
Continuous
 62
     7
370
    15
100
AcDbLine
 10
1802.5905888094
 20
1743.3819811321
 30
0.0
 11
1800.5905888094
 21
1746.0519811321
 31
0.0
  0
LINE
  5
AB
330
1F
100
AcDbEntity
  8
0
  6
Continuous
 62
     7
370
    15
100
AcDbLine
 10
1793.2805888094
 20
1746.0519811321
 30
0.0
 11
1791.2805888094
 21
1743.3819811321
 31
0.0
  0
LINE
  5
AC
330
1F
100
AcDbEntity
  8
0
  6
Continuous
 62
     7
370
    15
100
AcDbLine
 10
1652.5905888094
 20
1743.3819811321
 30
0.0
 11
1650.5905888094
 21
1746.0519811321
 31
0.0
  0
LINE
  5
AD
330
1F
100
AcDbEntity
  8
0
  6
Continuous
 62
     7
370
    15
100
AcDbLine
 10
1643.2805888094
 20
1746.0519811321
 30
0.0
 11
1641.2805888094
 21
1743.3819811321
 31
0.0
  0
LINE
  5
AE
330
1F
100
AcDbEntity
  8
0
  6
Continuous
 62
     7
370
    15
100
AcDbLine
 10
1592.5905888094
 20
1743.3819811321
 30
0.0
 11
1590.5905888094
 21
1746.0519811321
 31
0.0
  0
LINE
  5
AF
330
1F
100
AcDbEntity
  8
0
  6
Continuous
 62
     7
370
    15
100
AcDbLine
 10
1583.2805888094
 20
1746.0519811321
 30
0.0
 11
1581.2805888094
 21
1743.3819811321
 31
0.0
  0
LINE
  5
B0
330
1F
100
AcDbEntity
  8
0
  6
Continuous
 62
     7
370
    15
100
AcDbLine
 10
1502.5905888094
 20
1743.3819811321
 30
0.0
 11
1500.5905888094
 21
1746.0519811321
 31
0.0
  0
LINE
  5
B1
330
1F
100
AcDbEntity
  8
0
  6
Continuous
 62
     7
370
    15
100
AcDbLine
 10
1493.2805888094
 20
1746.0519811321
 30
0.0
 11
1491.2805888094
 21
1743.3819811321
 31
0.0
  0
LINE
  5
B2
330
1F
100
AcDbEntity
  8
0
  6
Continuous
 62
     7
370
    15
100
AcDbLine
 10
1472.5905888094
 20
1743.3819811321
 30
0.0
 11
1470.5905888094
 21
1746.0519811321
 31
0.0
  0
LINE
  5
B3
330
1F
100
AcDbEntity
  8
0
  6
Continuous
 62
     7
370
    15
100
AcDbLine
 10
1463.2805888094
 20
1746.0519811321
 30
0.0
 11
1461.2805888094
 21
1743.3819811321
 31
0.0
  0
LINE
  5
B4
330
1F
100
AcDbEntity
  8
0
  6
Continuous
 62
     7
370
    15
100
AcDbLine
 10
1412.5905888094
 20
1743.3819811321
 30
0.0
 11
1410.5905888094
 21
1746.0519811321
 31
0.0
  0
LINE
  5
B5
330
1F
100
AcDbEntity
  8
0
  6
Continuous
 62
     7
370
    15
100
AcDbLine
 10
1403.2805888094
 20
1746.0519811321
 30
0.0
 11
1401.2805888094
 21
1743.3819811321
 31
0.0
  0
LINE
  5
B6
330
1F
100
AcDbEntity
  8
0
  6
Continuous
 62
     7
370
    15
100
AcDbLine
 10
1382.5905888094
 20
1743.3819811321
 30
0.0
 11
1380.5905888094
 21
1746.0519811321
 31
0.0
  0
LINE
  5
B7
330
1F
100
AcDbEntity
  8
0
  6
Continuous
 62
     7
370
    15
100
AcDbLine
 10
1373.2805888094
 20
1746.0519811321
 30
0.0
 11
1371.2805888094
 21
1743.3819811321
 31
0.0
  0
LINE
  5
B8
330
1F
100
AcDbEntity
  8
0
  6
Continuous
 62
     7
370
    15
100
AcDbLine
 10
1442.5905888094
 20
1743.3819811321
 30
0.0
 11
1440.5905888094
 21
1746.0519811321
 31
0.0
  0
LINE
  5
B9
330
1F
100
AcDbEntity
  8
0
  6
Continuous
 62
     7
370
    15
100
AcDbLine
 10
1433.2805888094
 20
1746.0519811321
 30
0.0
 11
1431.2805888094
 21
1743.3819811321
 31
0.0
  0
LINE
  5
BA
330
1F
100
AcDbEntity
  8
0
  6
Continuous
 62
     7
370
    15
100
AcDbLine
 10
1352.5905888094
 20
1743.3819811321
 30
0.0
 11
1350.5905888094
 21
1746.0519811321
 31
0.0
  0
LINE
  5
BB
330
1F
100
AcDbEntity
  8
0
  6
Continuous
 62
     7
370
    15
100
AcDbLine
 10
1343.2805888094
 20
1746.0519811321
 30
0.0
 11
1341.2805888094
 21
1743.3819811321
 31
0.0
  0
LINE
  5
BC
330
1F
100
AcDbEntity
  8
0
  6
Continuous
 62
     7
370
    15
100
AcDbLine
 10
1322.5905888094
 20
1743.3819811321
 30
0.0
 11
1320.5905888094
 21
1746.0519811321
 31
0.0
  0
LINE
  5
BD
330
1F
100
AcDbEntity
  8
0
  6
Continuous
 62
     7
370
    15
100
AcDbLine
 10
1313.2805888094
 20
1746.0519811321
 30
0.0
 11
1311.2805888094
 21
1743.3819811321
 31
0.0
  0
LINE
  5
BE
330
1F
100
AcDbEntity
  8
0
  6
Continuous
 62
     7
370
    15
100
AcDbLine
 10
1292.5905888094
 20
1743.3819811321
 30
0.0
 11
1290.5905888094
 21
1746.0519811321
 31
0.0
  0
LINE
  5
BF
330
1F
100
AcDbEntity
  8
0
  6
Continuous
 62
     7
370
    15
100
AcDbLine
 10
1283.2805888094
 20
1746.0519811321
 30
0.0
 11
1281.2805888094
 21
1743.3819811321
 31
0.0
  0
LINE
  5
C0
330
1F
100
AcDbEntity
  8
0
  6
Continuous
 62
     7
370
    15
100
AcDbLine
 10
1636.0905888094
 20
1743.3819811321
 30
0.0
 11
1634.0905888094
 21
1746.0519811321
 31
0.0
  0
LINE
  5
C1
330
1F
100
AcDbEntity
  8
0
  6
Continuous
 62
     7
370
    15
100
AcDbLine
 10
1626.7805888094
 20
1746.0519811321
 30
0.0
 11
1624.7805888094
 21
1743.3819811321
 31
0.0
  0
LINE
  5
C2
330
1F
100
AcDbEntity
  8
0
  6
Continuous
 62
     7
370
    15
100
AcDbLine
 10
1846.0905888094
 20
1743.3819811321
 30
0.0
 11
1844.0905888094
 21
1746.0519811321
 31
0.0
  0
LINE
  5
C3
330
1F
100
AcDbEntity
  8
0
  6
Continuous
 62
     7
370
    15
100
AcDbLine
 10
1836.7805888094
 20
1746.0519811321
 30
0.0
 11
1834.7805888094
 21
1743.3819811321
 31
0.0
  0
LINE
  5
C4
330
1F
100
AcDbEntity
  8
0
  6
Continuous
 62
     7
370
    15
100
AcDbLine
 10
1666.0905888094
 20
1743.3819811321
 30
0.0
 11
1664.0905888094
 21
1746.0519811321
 31
0.0
  0
LINE
  5
C5
330
1F
100
AcDbEntity
  8
0
  6
Continuous
 62
     7
370
    15
100
AcDbLine
 10
1656.7805888094
 20
1746.0519811321
 30
0.0
 11
1654.7805888094
 21
1743.3819811321
 31
0.0
  0
LINE
  5
C6
330
1F
100
AcDbEntity
  8
0
  6
Continuous
 62
     7
370
    15
100
AcDbLine
 10
1816.0905888094
 20
1743.3819811321
 30
0.0
 11
1814.0905888094
 21
1746.0519811321
 31
0.0
  0
LINE
  5
C7
330
1F
100
AcDbEntity
  8
0
  6
Continuous
 62
     7
370
    15
100
AcDbLine
 10
1806.7805888094
 20
1746.0519811321
 30
0.0
 11
1804.7805888094
 21
1743.3819811321
 31
0.0
  0
LINE
  5
C8
330
1F
100
AcDbEntity
  8
0
  6
Continuous
 62
     7
370
    15
100
AcDbLine
 10
1396.0905888094
 20
1743.3819811321
 30
0.0
 11
1394.0905888094
 21
1746.0519811321
 31
0.0
  0
LINE
  5
C9
330
1F
100
AcDbEntity
  8
0
  6
Continuous
 62
     7
370
    15
100
AcDbLine
 10
1386.7805888094
 20
1746.0519811321
 30
0.0
 11
1384.7805888094
 21
1743.3819811321
 31
0.0
  0
LINE
  5
CA
330
1F
100
AcDbEntity
  8
0
  6
Continuous
 62
     7
370
    15
100
AcDbLine
 10
1486.0905888094
 20
1743.3819811321
 30
0.0
 11
1484.0905888094
 21
1746.0519811321
 31
0.0
  0
LINE
  5
CB
330
1F
100
AcDbEntity
  8
0
  6
Continuous
 62
     7
370
    15
100
AcDbLine
 10
1476.7805888094
 20
1746.0519811321
 30
0.0
 11
1474.7805888094
 21
1743.3819811321
 31
0.0
  0
LINE
  5
CC
330
1F
100
AcDbEntity
  8
0
  6
Continuous
 62
     7
370
    15
100
AcDbLine
 10
1576.0905888094
 20
1743.3819811321
 30
0.0
 11
1574.0905888094
 21
1746.0519811321
 31
0.0
  0
LINE
  5
CD
330
1F
100
AcDbEntity
  8
0
  6
Continuous
 62
     7
370
    15
100
AcDbLine
 10
1566.7805888094
 20
1746.0519811321
 30
0.0
 11
1564.7805888094
 21
1743.3819811321
 31
0.0
  0
LINE
  5
CE
330
1F
100
AcDbEntity
  8
0
  6
Continuous
 62
     7
370
    15
100
AcDbLine
 10
1426.0905888094
 20
1743.3819811321
 30
0.0
 11
1424.0905888094
 21
1746.0519811321
 31
0.0
  0
LINE
  5
CF
330
1F
100
AcDbEntity
  8
0
  6
Continuous
 62
     7
370
    15
100
AcDbLine
 10
1416.7805888094
 20
1746.0519811321
 30
0.0
 11
1414.7805888094
 21
1743.3819811321
 31
0.0
  0
LINE
  5
D0
330
1F
100
AcDbEntity
  8
0
  6
Continuous
 62
     7
370
    15
100
AcDbLine
 10
1276.0905888094
 20
1743.3819811321
 30
0.0
 11
1274.0905888094
 21
1746.0519811321
 31
0.0
  0
LINE
  5
D1
330
1F
100
AcDbEntity
  8
0
  6
Continuous
 62
     7
370
    15
100
AcDbLine
 10
1266.7805888094
 20
1746.0519811321
 30
0.0
 11
1264.7805888094
 21
1743.3819811321
 31
0.0
  0
LINE
  5
D2
330
1F
100
AcDbEntity
  8
0
  6
Continuous
 62
     7
370
    15
100
AcDbLine
 10
1336.0905888094
 20
1743.3819811321
 30
0.0
 11
1334.0905888094
 21
1746.0519811321
 31
0.0
  0
LINE
  5
D3
330
1F
100
AcDbEntity
  8
0
  6
Continuous
 62
     7
370
    15
100
AcDbLine
 10
1326.7805888094
 20
1746.0519811321
 30
0.0
 11
1324.7805888094
 21
1743.3819811321
 31
0.0
  0
LINE
  5
D4
330
1F
100
AcDbEntity
  8
0
  6
Continuous
 62
     7
370
    15
100
AcDbLine
 10
1756.0905888094
 20
1743.3819811321
 30
0.0
 11
1754.0905888094
 21
1746.0519811321
 31
0.0
  0
LINE
  5
D5
330
1F
100
AcDbEntity
  8
0
  6
Continuous
 62
     7
370
    15
100
AcDbLine
 10
1746.7805888094
 20
1746.0519811321
 30
0.0
 11
1744.7805888094
 21
1743.3819811321
 31
0.0
  0
LINE
  5
D6
330
1F
100
AcDbEntity
  8
0
  6
Continuous
 62
     7
370
    15
100
AcDbLine
 10
1546.0905888094
 20
1743.3819811321
 30
0.0
 11
1544.0905888094
 21
1746.0519811321
 31
0.0
  0
LINE
  5
D7
330
1F
100
AcDbEntity
  8
0
  6
Continuous
 62
     7
370
    15
100
AcDbLine
 10
1536.7805888094
 20
1746.0519811321
 30
0.0
 11
1534.7805888094
 21
1743.3819811321
 31
0.0
  0
LINE
  5
D8
330
1F
100
AcDbEntity
  8
0
  6
Continuous
 62
     7
370
    15
100
AcDbLine
 10
1516.0905888094
 20
1743.3819811321
 30
0.0
 11
1514.0905888094
 21
1746.0519811321
 31
0.0
  0
LINE
  5
D9
330
1F
100
AcDbEntity
  8
0
  6
Continuous
 62
     7
370
    15
100
AcDbLine
 10
1506.7805888094
 20
1746.0519811321
 30
0.0
 11
1504.7805888094
 21
1743.3819811321
 31
0.0
  0
LINE
  5
DA
330
1F
100
AcDbEntity
  8
0
  6
Continuous
 62
     7
370
    15
100
AcDbLine
 10
1696.0905888094
 20
1743.3819811321
 30
0.0
 11
1694.0905888094
 21
1746.0519811321
 31
0.0
  0
LINE
  5
DB
330
1F
100
AcDbEntity
  8
0
  6
Continuous
 62
     7
370
    15
100
AcDbLine
 10
1686.7805888094
 20
1746.0519811321
 30
0.0
 11
1684.7805888094
 21
1743.3819811321
 31
0.0
  0
LINE
  5
DC
330
1F
100
AcDbEntity
  8
0
  6
Continuous
 62
     7
370
    15
100
AcDbLine
 10
1306.0905888094
 20
1743.3819811321
 30
0.0
 11
1304.0905888094
 21
1746.0519811321
 31
0.0
  0
LINE
  5
DD
330
1F
100
AcDbEntity
  8
0
  6
Continuous
 62
     7
370
    15
100
AcDbLine
 10
1296.7805888094
 20
1746.0519811321
 30
0.0
 11
1294.7805888094
 21
1743.3819811321
 31
0.0
  0
LINE
  5
DE
330
1F
100
AcDbEntity
  8
0
  6
Continuous
 62
     7
370
    15
100
AcDbLine
 10
1726.0905888094
 20
1743.3819811321
 30
0.0
 11
1724.0905888094
 21
1746.0519811321
 31
0.0
  0
LINE
  5
DF
330
1F
100
AcDbEntity
  8
0
  6
Continuous
 62
     7
370
    15
100
AcDbLine
 10
1716.7805888094
 20
1746.0519811321
 30
0.0
 11
1714.7805888094
 21
1743.3819811321
 31
0.0
  0
LINE
  5
E0
330
1F
100
AcDbEntity
  8
0
  6
Continuous
 62
     7
370
    15
100
AcDbLine
 10
1456.0905888094
 20
1743.3819811321
 30
0.0
 11
1454.0905888094
 21
1746.0519811321
 31
0.0
  0
LINE
  5
E1
330
1F
100
AcDbEntity
  8
0
  6
Continuous
 62
     7
370
    15
100
AcDbLine
 10
1446.7805888094
 20
1746.0519811321
 30
0.0
 11
1444.7805888094
 21
1743.3819811321
 31
0.0
  0
LINE
  5
E2
330
1F
100
AcDbEntity
  8
0
  6
Continuous
 62
     7
370
    15
100
AcDbLine
 10
1366.0905888094
 20
1743.3819811321
 30
0.0
 11
1364.0905888094
 21
1746.0519811321
 31
0.0
  0
LINE
  5
E3
330
1F
100
AcDbEntity
  8
0
  6
Continuous
 62
     7
370
    15
100
AcDbLine
 10
1356.7805888094
 20
1746.0519811321
 30
0.0
 11
1354.7805888094
 21
1743.3819811321
 31
0.0
  0
LINE
  5
E4
330
1F
100
AcDbEntity
  8
0
  6
Continuous
 62
     7
370
    15
100
AcDbLine
 10
1786.0905888094
 20
1743.3819811321
 30
0.0
 11
1784.0905888094
 21
1746.0519811321
 31
0.0
  0
LINE
  5
E5
330
1F
100
AcDbEntity
  8
0
  6
Continuous
 62
     7
370
    15
100
AcDbLine
 10
1776.7805888094
 20
1746.0519811321
 30
0.0
 11
1774.7805888094
 21
1743.3819811321
 31
0.0
  0
LINE
  5
E6
330
1F
100
AcDbEntity
  8
0
  6
Continuous
 62
     7
370
    15
100
AcDbLine
 10
1606.0905888094
 20
1743.3819811321
 30
0.0
 11
1604.0905888094
 21
1746.0519811321
 31
0.0
  0
LINE
  5
E7
330
1F
100
AcDbEntity
  8
0
  6
Continuous
 62
     7
370
    15
100
AcDbLine
 10
1596.7805888094
 20
1746.0519811321
 30
0.0
 11
1594.7805888094
 21
1743.3819811321
 31
0.0
  0
LINE
  5
E8
330
1F
100
AcDbEntity
  8
0
  6
Continuous
 62
     7
370
    15
100
AcDbLine
 10
1853.9355888094
 20
1721.3819811321
 30
0.0
 11
1853.9355888094
 21
1673.3819811321
 31
0.0
  0
LINE
  5
E9
330
1F
100
AcDbEntity
  8
0
  6
Continuous
 62
     7
370
    15
100
AcDbLine
 10
1259.9355888094
 20
1721.3819811321
 30
0.0
 11
1853.9355888094
 21
1721.3819811321
 31
0.0
  0
LINE
  5
EA
330
1F
100
AcDbEntity
  8
0
  6
Continuous
 62
     7
370
    15
100
AcDbLine
 10
1259.9355888094
 20
1721.3819811321
 30
0.0
 11
1259.9355888094
 21
1673.3819811321
 31
0.0
  0
LINE
  5
EB
330
1F
100
AcDbEntity
  8
0
  6
Continuous
 62
     7
370
    15
100
AcDbLine
 10
1256.9355888094
 20
1743.3819811321
 30
0.0
 11
1856.9355888094
 21
1743.3819811321
 31
0.0
  0
LINE
  5
EC
330
1F
100
AcDbEntity
  8
0
  6
Continuous
 62
     7
370
    15
100
AcDbLine
 10
1856.9355888094
 20
1743.3819811321
 30
0.0
 11
1856.9355888094
 21
1673.3819811321
 31
0.0
  0
LINE
  5
ED
330
1F
100
AcDbEntity
  8
0
  6
Continuous
 62
     7
370
    15
100
AcDbLine
 10
1259.9355888094
 20
1673.3819811321
 30
0.0
 11
1256.9355888094
 21
1673.3819811321
 31
0.0
  0
LINE
  5
EE
330
1F
100
AcDbEntity
  8
0
  6
Continuous
 62
     7
370
    15
100
AcDbLine
 10
1853.9355888094
 20
1673.3819811321
 30
0.0
 11
1856.9355888094
 21
1673.3819811321
 31
0.0
  0
LINE
  5
EF
330
1F
100
AcDbEntity
  8
0
  6
Continuous
 62
     7
370
    15
100
AcDbLine
 10
1256.9355888094
 20
1743.3819811321
 30
0.0
 11
1256.9355888094
 21
1673.3819811321
 31
0.0
  0
LINE
  5
F0
330
1F
100
AcDbEntity
  8
0
  6
Continuous
 62
     7
370
    15
100
AcDbLine
 10
1830.5905888094
 20
1746.0519811321
 30
0.0
 11
1823.2805888094
 21
1746.0519811321
 31
0.0
  0
LINE
  5
F1
330
1F
100
AcDbEntity
  8
0
  6
Continuous
 62
     7
370
    15
100
AcDbLine
 10
1560.5905888094
 20
1746.0519811321
 30
0.0
 11
1553.2805888094
 21
1746.0519811321
 31
0.0
  0
LINE
  5
F2
330
1F
100
AcDbEntity
  8
0
  6
Continuous
 62
     7
370
    15
100
AcDbLine
 10
1710.5905888094
 20
1746.0519811321
 30
0.0
 11
1703.2805888094
 21
1746.0519811321
 31
0.0
  0
LINE
  5
F3
330
1F
100
AcDbEntity
  8
0
  6
Continuous
 62
     7
370
    15
100
AcDbLine
 10
1770.5905888094
 20
1746.0519811321
 30
0.0
 11
1763.2805888094
 21
1746.0519811321
 31
0.0
  0
LINE
  5
F4
330
1F
100
AcDbEntity
  8
0
  6
Continuous
 62
     7
370
    15
100
AcDbLine
 10
1740.5905888094
 20
1746.0519811321
 30
0.0
 11
1733.2805888094
 21
1746.0519811321
 31
0.0
  0
LINE
  5
F5
330
1F
100
AcDbEntity
  8
0
  6
Continuous
 62
     7
370
    15
100
AcDbLine
 10
1530.5905888094
 20
1746.0519811321
 30
0.0
 11
1523.2805888094
 21
1746.0519811321
 31
0.0
  0
LINE
  5
F6
330
1F
100
AcDbEntity
  8
0
  6
Continuous
 62
     7
370
    15
100
AcDbLine
 10
1620.5905888094
 20
1746.0519811321
 30
0.0
 11
1613.2805888094
 21
1746.0519811321
 31
0.0
  0
LINE
  5
F7
330
1F
100
AcDbEntity
  8
0
  6
Continuous
 62
     7
370
    15
100
AcDbLine
 10
1680.5905888094
 20
1746.0519811321
 30
0.0
 11
1673.2805888094
 21
1746.0519811321
 31
0.0
  0
LINE
  5
F8
330
1F
100
AcDbEntity
  8
0
  6
Continuous
 62
     7
370
    15
100
AcDbLine
 10
1800.5905888094
 20
1746.0519811321
 30
0.0
 11
1793.2805888094
 21
1746.0519811321
 31
0.0
  0
LINE
  5
F9
330
1F
100
AcDbEntity
  8
0
  6
Continuous
 62
     7
370
    15
100
AcDbLine
 10
1650.5905888094
 20
1746.0519811321
 30
0.0
 11
1643.2805888094
 21
1746.0519811321
 31
0.0
  0
LINE
  5
FA
330
1F
100
AcDbEntity
  8
0
  6
Continuous
 62
     7
370
    15
100
AcDbLine
 10
1590.5905888094
 20
1746.0519811321
 30
0.0
 11
1583.2805888094
 21
1746.0519811321
 31
0.0
  0
LINE
  5
FB
330
1F
100
AcDbEntity
  8
0
  6
Continuous
 62
     7
370
    15
100
AcDbLine
 10
1500.5905888094
 20
1746.0519811321
 30
0.0
 11
1493.2805888094
 21
1746.0519811321
 31
0.0
  0
LINE
  5
FC
330
1F
100
AcDbEntity
  8
0
  6
Continuous
 62
     7
370
    15
100
AcDbLine
 10
1470.5905888094
 20
1746.0519811321
 30
0.0
 11
1463.2805888094
 21
1746.0519811321
 31
0.0
  0
LINE
  5
FD
330
1F
100
AcDbEntity
  8
0
  6
Continuous
 62
     7
370
    15
100
AcDbLine
 10
1410.5905888094
 20
1746.0519811321
 30
0.0
 11
1403.2805888094
 21
1746.0519811321
 31
0.0
  0
LINE
  5
FE
330
1F
100
AcDbEntity
  8
0
  6
Continuous
 62
     7
370
    15
100
AcDbLine
 10
1380.5905888094
 20
1746.0519811321
 30
0.0
 11
1373.2805888094
 21
1746.0519811321
 31
0.0
  0
LINE
  5
FF
330
1F
100
AcDbEntity
  8
0
  6
Continuous
 62
     7
370
    15
100
AcDbLine
 10
1440.5905888094
 20
1746.0519811321
 30
0.0
 11
1433.2805888094
 21
1746.0519811321
 31
0.0
  0
LINE
  5
100
330
1F
100
AcDbEntity
  8
0
  6
Continuous
 62
     7
370
    15
100
AcDbLine
 10
1350.5905888094
 20
1746.0519811321
 30
0.0
 11
1343.2805888094
 21
1746.0519811321
 31
0.0
  0
LINE
  5
101
330
1F
100
AcDbEntity
  8
0
  6
Continuous
 62
     7
370
    15
100
AcDbLine
 10
1320.5905888094
 20
1746.0519811321
 30
0.0
 11
1313.2805888094
 21
1746.0519811321
 31
0.0
  0
LINE
  5
102
330
1F
100
AcDbEntity
  8
0
  6
Continuous
 62
     7
370
    15
100
AcDbLine
 10
1290.5905888094
 20
1746.0519811321
 30
0.0
 11
1283.2805888094
 21
1746.0519811321
 31
0.0
  0
LINE
  5
103
330
1F
100
AcDbEntity
  8
0
  6
Continuous
 62
     7
370
    15
100
AcDbLine
 10
1259.9355888094
 20
1673.3819811321
 30
0.0
 11
1853.9355888094
 21
1673.3819811321
 31
0.0
  0
LINE
  5
104
330
1F
100
AcDbEntity
  8
0
  6
Continuous
 62
     7
370
    15
100
AcDbLine
 10
1630.4355888094
 20
1746.0519811321
 30
0.0
 11
1634.0905888094
 21
1746.0519811321
 31
0.0
  0
LINE
  5
105
330
1F
100
AcDbEntity
  8
0
  6
Continuous
 62
     7
370
    15
100
AcDbLine
 10
1626.7805888094
 20
1746.0519811321
 30
0.0
 11
1630.4355888094
 21
1746.0519811321
 31
0.0
  0
LINE
  5
106
330
1F
100
AcDbEntity
  8
0
  6
Continuous
 62
     7
370
    15
100
AcDbLine
 10
1840.4355888094
 20
1746.0519811321
 30
0.0
 11
1844.0905888094
 21
1746.0519811321
 31
0.0
  0
LINE
  5
107
330
1F
100
AcDbEntity
  8
0
  6
Continuous
 62
     7
370
    15
100
AcDbLine
 10
1836.7805888094
 20
1746.0519811321
 30
0.0
 11
1840.4355888094
 21
1746.0519811321
 31
0.0
  0
LINE
  5
108
330
1F
100
AcDbEntity
  8
0
  6
Continuous
 62
     7
370
    15
100
AcDbLine
 10
1660.4355888094
 20
1746.0519811321
 30
0.0
 11
1664.0905888094
 21
1746.0519811321
 31
0.0
  0
LINE
  5
109
330
1F
100
AcDbEntity
  8
0
  6
Continuous
 62
     7
370
    15
100
AcDbLine
 10
1656.7805888094
 20
1746.0519811321
 30
0.0
 11
1660.4355888094
 21
1746.0519811321
 31
0.0
  0
LINE
  5
10A
330
1F
100
AcDbEntity
  8
0
  6
Continuous
 62
     7
370
    15
100
AcDbLine
 10
1810.4355888094
 20
1746.0519811321
 30
0.0
 11
1814.0905888094
 21
1746.0519811321
 31
0.0
  0
LINE
  5
10B
330
1F
100
AcDbEntity
  8
0
  6
Continuous
 62
     7
370
    15
100
AcDbLine
 10
1806.7805888094
 20
1746.0519811321
 30
0.0
 11
1810.4355888094
 21
1746.0519811321
 31
0.0
  0
LINE
  5
10C
330
1F
100
AcDbEntity
  8
0
  6
Continuous
 62
     7
370
    15
100
AcDbLine
 10
1390.4355888094
 20
1746.0519811321
 30
0.0
 11
1394.0905888094
 21
1746.0519811321
 31
0.0
  0
LINE
  5
10D
330
1F
100
AcDbEntity
  8
0
  6
Continuous
 62
     7
370
    15
100
AcDbLine
 10
1386.7805888094
 20
1746.0519811321
 30
0.0
 11
1390.4355888094
 21
1746.0519811321
 31
0.0
  0
LINE
  5
10E
330
1F
100
AcDbEntity
  8
0
  6
Continuous
 62
     7
370
    15
100
AcDbLine
 10
1480.4355888094
 20
1746.0519811321
 30
0.0
 11
1484.0905888094
 21
1746.0519811321
 31
0.0
  0
LINE
  5
10F
330
1F
100
AcDbEntity
  8
0
  6
Continuous
 62
     7
370
    15
100
AcDbLine
 10
1476.7805888094
 20
1746.0519811321
 30
0.0
 11
1480.4355888094
 21
1746.0519811321
 31
0.0
  0
LINE
  5
110
330
1F
100
AcDbEntity
  8
0
  6
Continuous
 62
     7
370
    15
100
AcDbLine
 10
1570.4355888094
 20
1746.0519811321
 30
0.0
 11
1574.0905888094
 21
1746.0519811321
 31
0.0
  0
LINE
  5
111
330
1F
100
AcDbEntity
  8
0
  6
Continuous
 62
     7
370
    15
100
AcDbLine
 10
1566.7805888094
 20
1746.0519811321
 30
0.0
 11
1570.4355888094
 21
1746.0519811321
 31
0.0
  0
LINE
  5
112
330
1F
100
AcDbEntity
  8
0
  6
Continuous
 62
     7
370
    15
100
AcDbLine
 10
1420.4355888094
 20
1746.0519811321
 30
0.0
 11
1424.0905888094
 21
1746.0519811321
 31
0.0
  0
LINE
  5
113
330
1F
100
AcDbEntity
  8
0
  6
Continuous
 62
     7
370
    15
100
AcDbLine
 10
1416.7805888094
 20
1746.0519811321
 30
0.0
 11
1420.4355888094
 21
1746.0519811321
 31
0.0
  0
LINE
  5
114
330
1F
100
AcDbEntity
  8
0
  6
Continuous
 62
     7
370
    15
100
AcDbLine
 10
1270.4355888094
 20
1746.0519811321
 30
0.0
 11
1274.0905888094
 21
1746.0519811321
 31
0.0
  0
LINE
  5
115
330
1F
100
AcDbEntity
  8
0
  6
Continuous
 62
     7
370
    15
100
AcDbLine
 10
1266.7805888094
 20
1746.0519811321
 30
0.0
 11
1270.4355888094
 21
1746.0519811321
 31
0.0
  0
LINE
  5
116
330
1F
100
AcDbEntity
  8
0
  6
Continuous
 62
     7
370
    15
100
AcDbLine
 10
1330.4355888094
 20
1746.0519811321
 30
0.0
 11
1334.0905888094
 21
1746.0519811321
 31
0.0
  0
LINE
  5
117
330
1F
100
AcDbEntity
  8
0
  6
Continuous
 62
     7
370
    15
100
AcDbLine
 10
1326.7805888094
 20
1746.0519811321
 30
0.0
 11
1330.4355888094
 21
1746.0519811321
 31
0.0
  0
LINE
  5
118
330
1F
100
AcDbEntity
  8
0
  6
Continuous
 62
     7
370
    15
100
AcDbLine
 10
1750.4355888094
 20
1746.0519811321
 30
0.0
 11
1754.0905888094
 21
1746.0519811321
 31
0.0
  0
LINE
  5
119
330
1F
100
AcDbEntity
  8
0
  6
Continuous
 62
     7
370
    15
100
AcDbLine
 10
1746.7805888094
 20
1746.0519811321
 30
0.0
 11
1750.4355888094
 21
1746.0519811321
 31
0.0
  0
LINE
  5
11A
330
1F
100
AcDbEntity
  8
0
  6
Continuous
 62
     7
370
    15
100
AcDbLine
 10
1540.4355888094
 20
1746.0519811321
 30
0.0
 11
1544.0905888094
 21
1746.0519811321
 31
0.0
  0
LINE
  5
11B
330
1F
100
AcDbEntity
  8
0
  6
Continuous
 62
     7
370
    15
100
AcDbLine
 10
1536.7805888094
 20
1746.0519811321
 30
0.0
 11
1540.4355888094
 21
1746.0519811321
 31
0.0
  0
LINE
  5
11C
330
1F
100
AcDbEntity
  8
0
  6
Continuous
 62
     7
370
    15
100
AcDbLine
 10
1510.4355888094
 20
1746.0519811321
 30
0.0
 11
1514.0905888094
 21
1746.0519811321
 31
0.0
  0
LINE
  5
11D
330
1F
100
AcDbEntity
  8
0
  6
Continuous
 62
     7
370
    15
100
AcDbLine
 10
1506.7805888094
 20
1746.0519811321
 30
0.0
 11
1510.4355888094
 21
1746.0519811321
 31
0.0
  0
LINE
  5
11E
330
1F
100
AcDbEntity
  8
0
  6
Continuous
 62
     7
370
    15
100
AcDbLine
 10
1690.4355888094
 20
1746.0519811321
 30
0.0
 11
1694.0905888094
 21
1746.0519811321
 31
0.0
  0
LINE
  5
11F
330
1F
100
AcDbEntity
  8
0
  6
Continuous
 62
     7
370
    15
100
AcDbLine
 10
1686.7805888094
 20
1746.0519811321
 30
0.0
 11
1690.4355888094
 21
1746.0519811321
 31
0.0
  0
LINE
  5
120
330
1F
100
AcDbEntity
  8
0
  6
Continuous
 62
     7
370
    15
100
AcDbLine
 10
1300.4355888094
 20
1746.0519811321
 30
0.0
 11
1304.0905888094
 21
1746.0519811321
 31
0.0
  0
LINE
  5
121
330
1F
100
AcDbEntity
  8
0
  6
Continuous
 62
     7
370
    15
100
AcDbLine
 10
1296.7805888094
 20
1746.0519811321
 30
0.0
 11
1300.4355888094
 21
1746.0519811321
 31
0.0
  0
LINE
  5
122
330
1F
100
AcDbEntity
  8
0
  6
Continuous
 62
     7
370
    15
100
AcDbLine
 10
1720.4355888094
 20
1746.0519811321
 30
0.0
 11
1724.0905888094
 21
1746.0519811321
 31
0.0
  0
LINE
  5
123
330
1F
100
AcDbEntity
  8
0
  6
Continuous
 62
     7
370
    15
100
AcDbLine
 10
1716.7805888094
 20
1746.0519811321
 30
0.0
 11
1720.4355888094
 21
1746.0519811321
 31
0.0
  0
LINE
  5
124
330
1F
100
AcDbEntity
  8
0
  6
Continuous
 62
     7
370
    15
100
AcDbLine
 10
1450.4355888094
 20
1746.0519811321
 30
0.0
 11
1454.0905888094
 21
1746.0519811321
 31
0.0
  0
LINE
  5
125
330
1F
100
AcDbEntity
  8
0
  6
Continuous
 62
     7
370
    15
100
AcDbLine
 10
1446.7805888094
 20
1746.0519811321
 30
0.0
 11
1450.4355888094
 21
1746.0519811321
 31
0.0
  0
LINE
  5
126
330
1F
100
AcDbEntity
  8
0
  6
Continuous
 62
     7
370
    15
100
AcDbLine
 10
1360.4355888094
 20
1746.0519811321
 30
0.0
 11
1364.0905888094
 21
1746.0519811321
 31
0.0
  0
LINE
  5
127
330
1F
100
AcDbEntity
  8
0
  6
Continuous
 62
     7
370
    15
100
AcDbLine
 10
1356.7805888094
 20
1746.0519811321
 30
0.0
 11
1360.4355888094
 21
1746.0519811321
 31
0.0
  0
LINE
  5
128
330
1F
100
AcDbEntity
  8
0
  6
Continuous
 62
     7
370
    15
100
AcDbLine
 10
1780.4355888094
 20
1746.0519811321
 30
0.0
 11
1784.0905888094
 21
1746.0519811321
 31
0.0
  0
LINE
  5
129
330
1F
100
AcDbEntity
  8
0
  6
Continuous
 62
     7
370
    15
100
AcDbLine
 10
1776.7805888094
 20
1746.0519811321
 30
0.0
 11
1780.4355888094
 21
1746.0519811321
 31
0.0
  0
LINE
  5
12A
330
1F
100
AcDbEntity
  8
0
  6
Continuous
 62
     7
370
    15
100
AcDbLine
 10
1600.4355888094
 20
1746.0519811321
 30
0.0
 11
1604.0905888094
 21
1746.0519811321
 31
0.0
  0
LINE
  5
12B
330
1F
100
AcDbEntity
  8
0
  6
Continuous
 62
     7
370
    15
100
AcDbLine
 10
1596.7805888094
 20
1746.0519811321
 30
0.0
 11
1600.4355888094
 21
1746.0519811321
 31
0.0
  0
LINE
  5
12C
330
1F
100
AcDbEntity
  8
0
  6
Continuous
 62
     7
370
    15
100
AcDbLine
 10
394.4207524886
 20
1743.3819811321
 30
0.0
 11
392.4207524886
 21
1746.0519811321
 31
0.0
  0
LINE
  5
12D
330
1F
100
AcDbEntity
  8
0
  6
Continuous
 62
     7
370
    15
100
AcDbLine
 10
385.1107524886
 20
1746.0519811321
 30
0.0
 11
383.1107524886
 21
1743.3819811321
 31
0.0
  0
LINE
  5
12E
330
1F
100
AcDbEntity
  8
0
  6
Continuous
 62
     7
370
    15
100
AcDbLine
 10
383.7657524886
 20
1744.2564061321
 30
0.0
 11
382.4207524886
 21
1746.0519811321
 31
0.0
  0
LINE
  5
12F
330
1F
100
AcDbEntity
  8
0
  6
Continuous
 62
     7
370
    15
100
AcDbLine
 10
375.1107524886
 20
1746.0519811321
 30
0.0
 11
373.1107524886
 21
1743.3819811321
 31
0.0
  0
LINE
  5
130
330
1F
100
AcDbEntity
  8
0
  6
Continuous
 62
     7
370
    15
100
AcDbLine
 10
608.7657524886
 20
1743.3819811321
 30
0.0
 11
368.7657524886
 21
1743.3819811321
 31
0.0
  0
CIRCLE
  5
131
330
1F
100
AcDbEntity
  8
0
  6
Continuous
 62
     7
370
    15
100
AcDbCircle
 10
403.7657524886
 20
1688.3819811321
 30
0.0
 40
6.500000000000057
  0
LINE
  5
132
330
1F
100
AcDbEntity
  8
0
  6
Continuous
 62
     7
370
    15
100
AcDbLine
 10
542.2657524886
 20
1694.8819811321
 30
0.0
 11
505.2657524886
 21
1694.8819811321
 31
0.0
  0
ARC
  5
133
330
1F
100
AcDbEntity
  8
0
  6
Continuous
 62
     7
370
    15
100
AcDbCircle
 10
505.2657524886
 20
1688.3819811321
 30
0.0
 40
6.5
100
AcDbArc
 50
90.0
 51
270.0
  0
LINE
  5
134
330
1F
100
AcDbEntity
  8
0
  6
Continuous
 62
     7
370
    15
100
AcDbLine
 10
505.2657524886
 20
1681.8819811321
 30
0.0
 11
542.2657524886
 21
1681.8819811321
 31
0.0
  0
LINE
  5
135
330
1F
100
AcDbEntity
  8
0
  6
Continuous
 62
     7
370
    15
100
AcDbLine
 10
578.7657524886
 20
1673.3819811321
 30
0.0
 11
608.7657524886
 21
1703.3819811321
 31
0.0
  0
LINE
  5
136
330
1F
100
AcDbEntity
  8
0
  6
Continuous
 62
     7
370
    15
100
AcDbLine
 10
608.7657524886
 20
1703.3819811321
 30
0.0
 11
608.7657524886
 21
1743.3819811321
 31
0.0
  0
LINE
  5
137
330
1F
100
AcDbEntity
  8
0
  6
Continuous
 62
     7
370
    15
100
AcDbLine
 10
368.7657524886
 20
1743.3819811321
 30
0.0
 11
368.7657524886
 21
1673.3819811321
 31
0.0
  0
LINE
  5
138
330
1F
100
AcDbEntity
  8
0
  6
Continuous
 62
     7
370
    15
100
AcDbLine
 10
368.7657524886
 20
1673.3819811321
 30
0.0
 11
578.7657524886
 21
1673.3819811321
 31
0.0
  0
ARC
  5
139
330
1F
100
AcDbEntity
  8
0
  6
Continuous
 62
     7
370
    15
100
AcDbCircle
 10
542.2657524886
 20
1688.3819811321
 30
0.0
 40
6.500000000000227
100
AcDbArc
 50
270.0
 51
90.0
  0
LINE
  5
13A
330
1F
100
AcDbEntity
  8
0
  6
Continuous
 62
     7
370
    15
100
AcDbLine
 10
385.1107524886
 20
1746.0519811321
 30
0.0
 11
392.4207524886
 21
1746.0519811321
 31
0.0
  0
LINE
  5
13B
330
1F
100
AcDbEntity
  8
0
  6
Continuous
 62
     7
370
    15
100
AcDbLine
 10
382.4207524886
 20
1746.0519811321
 30
0.0
 11
375.1107524886
 21
1746.0519811321
 31
0.0
  0
POINT
  5
13C
330
1F
100
AcDbEntity
  8
0
  6
Continuous
 62
     7
370
     0
100
AcDbPoint
 10
523.7657524886
 20
1681.8819811321
 30
0.0
  0
LINE
  5
13D
330
1F
100
AcDbEntity
  8
0
  6
Continuous
 62
     7
370
    15
100
AcDbLine
 10
1853.9355888094
 20
1088.929220283
 30
0.0
 11
1853.9355888094
 21
1090.429220283
 31
0.0
  0
LINE
  5
13E
330
1F
100
AcDbEntity
  8
0
  6
Continuous
 62
     7
370
    15
100
AcDbLine
 10
1853.9355888094
 20
1088.929220283
 30
0.0
 11
1259.9355888094
 21
1088.929220283
 31
0.0
  0
LINE
  5
13F
330
1F
100
AcDbEntity
  8
0
  6
Continuous
 62
     7
370
    15
100
AcDbLine
 10
1853.9355888094
 20
1090.429220283
 30
0.0
 11
1259.9355888094
 21
1090.429220283
 31
0.0
  0
LINE
  5
140
330
1F
100
AcDbEntity
  8
0
  6
Continuous
 62
     7
370
    15
100
AcDbLine
 10
1259.9355888094
 20
1088.929220283
 30
0.0
 11
1259.9355888094
 21
1090.429220283
 31
0.0
  0
LINE
  5
141
330
1F
100
AcDbEntity
  8
0
  6
Continuous
 62
     7
370
    15
100
AcDbLine
 10
1853.9355888094
 20
1120.429220283
 30
0.0
 11
1259.9355888094
 21
1120.429220283
 31
0.0
  0
LINE
  5
142
330
1F
100
AcDbEntity
  8
0
  6
Continuous
 62
     7
370
    15
100
AcDbLine
 10
1259.9355888094
 20
1120.429220283
 30
0.0
 11
1259.9355888094
 21
1121.929220283
 31
0.0
  0
LINE
  5
143
330
1F
100
AcDbEntity
  8
0
  6
Continuous
 62
     7
370
    15
100
AcDbLine
 10
1853.9355888094
 20
1120.429220283
 30
0.0
 11
1853.9355888094
 21
1121.929220283
 31
0.0
  0
LINE
  5
144
330
1F
100
AcDbEntity
  8
0
  6
Continuous
 62
     7
370
    15
100
AcDbLine
 10
1853.9355888094
 20
1121.929220283
 30
0.0
 11
1259.9355888094
 21
1121.929220283
 31
0.0
  0
LINE
  5
145
330
1F
100
AcDbEntity
  8
0
  6
Continuous
 62
     7
370
    15
100
AcDbLine
 10
1853.9355888094
 20
1247.929220283
 30
0.0
 11
1259.9355888094
 21
1247.929220283
 31
0.0
  0
LINE
  5
146
330
1F
100
AcDbEntity
  8
0
  6
Continuous
 62
     7
370
    15
100
AcDbLine
 10
1853.9355888094
 20
1246.429220283
 30
0.0
 11
1259.9355888094
 21
1246.429220283
 31
0.0
  0
LINE
  5
147
330
1F
100
AcDbEntity
  8
0
  6
Continuous
 62
     7
370
    15
100
AcDbLine
 10
1259.9355888094
 20
1246.429220283
 30
0.0
 11
1259.9355888094
 21
1247.929220283
 31
0.0
  0
LINE
  5
148
330
1F
100
AcDbEntity
  8
0
  6
Continuous
 62
     7
370
    15
100
AcDbLine
 10
1853.9355888094
 20
1246.429220283
 30
0.0
 11
1853.9355888094
 21
1247.929220283
 31
0.0
  0
LINE
  5
149
330
1F
100
AcDbEntity
  8
0
  6
Continuous
 62
     7
370
    15
100
AcDbLine
 10
1259.9355888094
 20
1214.929220283
 30
0.0
 11
1259.9355888094
 21
1216.429220283
 31
0.0
  0
LINE
  5
14A
330
1F
100
AcDbEntity
  8
0
  6
Continuous
 62
     7
370
    15
100
AcDbLine
 10
1853.9355888094
 20
1214.929220283
 30
0.0
 11
1853.9355888094
 21
1216.429220283
 31
0.0
  0
LINE
  5
14B
330
1F
100
AcDbEntity
  8
0
  6
Continuous
 62
     7
370
    15
100
AcDbLine
 10
1853.9355888094
 20
1214.929220283
 30
0.0
 11
1259.9355888094
 21
1214.929220283
 31
0.0
  0
LINE
  5
14C
330
1F
100
AcDbEntity
  8
0
  6
Continuous
 62
     7
370
    15
100
AcDbLine
 10
1853.9355888094
 20
1216.429220283
 30
0.0
 11
1259.9355888094
 21
1216.429220283
 31
0.0
  0
LINE
  5
14D
330
1F
100
AcDbEntity
  8
0
  6
Continuous
 62
     7
370
    15
100
AcDbLine
 10
1853.9355888094
 20
1183.429220283
 30
0.0
 11
1853.9355888094
 21
1184.929220283
 31
0.0
  0
LINE
  5
14E
330
1F
100
AcDbEntity
  8
0
  6
Continuous
 62
     7
370
    15
100
AcDbLine
 10
1853.9355888094
 20
1183.429220283
 30
0.0
 11
1259.9355888094
 21
1183.429220283
 31
0.0
  0
LINE
  5
14F
330
1F
100
AcDbEntity
  8
0
  6
Continuous
 62
     7
370
    15
100
AcDbLine
 10
1259.9355888094
 20
1183.429220283
 30
0.0
 11
1259.9355888094
 21
1184.929220283
 31
0.0
  0
LINE
  5
150
330
1F
100
AcDbEntity
  8
0
  6
Continuous
 62
     7
370
    15
100
AcDbLine
 10
1853.9355888094
 20
1184.929220283
 30
0.0
 11
1259.9355888094
 21
1184.929220283
 31
0.0
  0
LINE
  5
151
330
1F
100
AcDbEntity
  8
0
  6
Continuous
 62
     7
370
    15
100
AcDbLine
 10
1259.9355888094
 20
1151.929220283
 30
0.0
 11
1259.9355888094
 21
1153.429220283
 31
0.0
  0
LINE
  5
152
330
1F
100
AcDbEntity
  8
0
  6
Continuous
 62
     7
370
    15
100
AcDbLine
 10
1853.9355888094
 20
1153.429220283
 30
0.0
 11
1259.9355888094
 21
1153.429220283
 31
0.0
  0
LINE
  5
153
330
1F
100
AcDbEntity
  8
0
  6
Continuous
 62
     7
370
    15
100
AcDbLine
 10
1853.9355888094
 20
1151.929220283
 30
0.0
 11
1853.9355888094
 21
1153.429220283
 31
0.0
  0
LINE
  5
154
330
1F
100
AcDbEntity
  8
0
  6
Continuous
 62
     7
370
    15
100
AcDbLine
 10
1853.9355888094
 20
1151.929220283
 30
0.0
 11
1259.9355888094
 21
1151.929220283
 31
0.0
  0
LINE
  5
155
330
1F
100
AcDbEntity
  8
0
  6
Continuous
 62
     7
370
    15
100
AcDbLine
 10
1274.1855888094
 20
1262.179220283
 30
0.0
 11
1272.6855888094
 21
1262.179220283
 31
0.0
  0
LINE
  5
156
330
1F
100
AcDbEntity
  8
0
  6
Continuous
 62
     7
370
    15
100
AcDbLine
 10
1274.1855888094
 20
1262.179220283
 30
0.0
 11
1274.1855888094
 21
1062.679220283
 31
0.0
  0
LINE
  5
157
330
1F
100
AcDbEntity
  8
0
  6
Continuous
 62
     7
370
    15
100
AcDbLine
 10
1274.1855888094
 20
1062.679220283
 30
0.0
 11
1272.6855888094
 21
1062.679220283
 31
0.0
  0
LINE
  5
158
330
1F
100
AcDbEntity
  8
0
  6
Continuous
 62
     7
370
    15
100
AcDbLine
 10
1272.6855888094
 20
1262.179220283
 30
0.0
 11
1272.6855888094
 21
1062.679220283
 31
0.0
  0
LINE
  5
159
330
1F
100
AcDbEntity
  8
0
  6
Continuous
 62
     7
370
    15
100
AcDbLine
 10
1272.6855888094
 20
1055.3601716067
 30
0.0
 11
1272.6855888094
 21
1049.9982689593
 31
0.0
  0
LINE
  5
15A
330
1F
100
AcDbEntity
  8
0
  6
Continuous
 62
     7
370
    15
100
AcDbLine
 10
1305.6855888094
 20
1262.179220283
 30
0.0
 11
1304.1855888094
 21
1262.179220283
 31
0.0
  0
LINE
  5
15B
330
1F
100
AcDbEntity
  8
0
  6
Continuous
 62
     7
370
    15
100
AcDbLine
 10
1304.1855888094
 20
1262.179220283
 30
0.0
 11
1304.1855888094
 21
1062.679220283
 31
0.0
  0
LINE
  5
15C
330
1F
100
AcDbEntity
  8
0
  6
Continuous
 62
     7
370
    15
100
AcDbLine
 10
1305.6855888094
 20
1062.679220283
 30
0.0
 11
1304.1855888094
 21
1062.679220283
 31
0.0
  0
LINE
  5
15D
330
1F
100
AcDbEntity
  8
0
  6
Continuous
 62
     7
370
    15
100
AcDbLine
 10
1305.6855888094
 20
1262.179220283
 30
0.0
 11
1305.6855888094
 21
1062.679220283
 31
0.0
  0
LINE
  5
15E
330
1F
100
AcDbEntity
  8
0
  6
Continuous
 62
     7
370
    15
100
AcDbLine
 10
1337.1855888094
 20
1062.679220283
 30
0.0
 11
1335.6855888094
 21
1062.679220283
 31
0.0
  0
LINE
  5
15F
330
1F
100
AcDbEntity
  8
0
  6
Continuous
 62
     7
370
    15
100
AcDbLine
 10
1337.1855888094
 20
1262.179220283
 30
0.0
 11
1337.1855888094
 21
1062.679220283
 31
0.0
  0
LINE
  5
160
330
1F
100
AcDbEntity
  8
0
  6
Continuous
 62
     7
370
    15
100
AcDbLine
 10
1335.6855888094
 20
1262.179220283
 30
0.0
 11
1335.6855888094
 21
1062.679220283
 31
0.0
  0
LINE
  5
161
330
1F
100
AcDbEntity
  8
0
  6
Continuous
 62
     7
370
    15
100
AcDbLine
 10
1337.1855888094
 20
1262.179220283
 30
0.0
 11
1335.6855888094
 21
1262.179220283
 31
0.0
  0
LINE
  5
162
330
1F
100
AcDbEntity
  8
0
  6
Continuous
 62
     7
370
    15
100
AcDbLine
 10
1368.6855888094
 20
1262.179220283
 30
0.0
 11
1367.1855888094
 21
1262.179220283
 31
0.0
  0
LINE
  5
163
330
1F
100
AcDbEntity
  8
0
  6
Continuous
 62
     7
370
    15
100
AcDbLine
 10
1368.6855888094
 20
1262.179220283
 30
0.0
 11
1368.6855888094
 21
1062.679220283
 31
0.0
  0
LINE
  5
164
330
1F
100
AcDbEntity
  8
0
  6
Continuous
 62
     7
370
    15
100
AcDbLine
 10
1368.6855888094
 20
1062.679220283
 30
0.0
 11
1367.1855888094
 21
1062.679220283
 31
0.0
  0
LINE
  5
165
330
1F
100
AcDbEntity
  8
0
  6
Continuous
 62
     7
370
    15
100
AcDbLine
 10
1367.1855888094
 20
1262.179220283
 30
0.0
 11
1367.1855888094
 21
1062.679220283
 31
0.0
  0
LINE
  5
166
330
1F
100
AcDbEntity
  8
0
  6
Continuous
 62
     7
370
    15
100
AcDbLine
 10
1400.1855888094
 20
1262.179220283
 30
0.0
 11
1398.6855888094
 21
1262.179220283
 31
0.0
  0
LINE
  5
167
330
1F
100
AcDbEntity
  8
0
  6
Continuous
 62
     7
370
    15
100
AcDbLine
 10
1400.1855888094
 20
1262.179220283
 30
0.0
 11
1400.1855888094
 21
1062.679220283
 31
0.0
  0
LINE
  5
168
330
1F
100
AcDbEntity
  8
0
  6
Continuous
 62
     7
370
    15
100
AcDbLine
 10
1398.6855888094
 20
1262.179220283
 30
0.0
 11
1398.6855888094
 21
1062.679220283
 31
0.0
  0
LINE
  5
169
330
1F
100
AcDbEntity
  8
0
  6
Continuous
 62
     7
370
    15
100
AcDbLine
 10
1400.1855888094
 20
1062.679220283
 30
0.0
 11
1398.6855888094
 21
1062.679220283
 31
0.0
  0
LINE
  5
16A
330
1F
100
AcDbEntity
  8
0
  6
Continuous
 62
     7
370
    15
100
AcDbLine
 10
1841.1855888094
 20
1262.179220283
 30
0.0
 11
1839.6855888094
 21
1262.179220283
 31
0.0
  0
LINE
  5
16B
330
1F
100
AcDbEntity
  8
0
  6
Continuous
 62
     7
370
    15
100
AcDbLine
 10
1839.6855888094
 20
1262.179220283
 30
0.0
 11
1839.6855888094
 21
1062.679220283
 31
0.0
  0
LINE
  5
16C
330
1F
100
AcDbEntity
  8
0
  6
Continuous
 62
     7
370
    15
100
AcDbLine
 10
1841.1855888094
 20
1262.179220283
 30
0.0
 11
1841.1855888094
 21
1062.679220283
 31
0.0
  0
LINE
  5
16D
330
1F
100
AcDbEntity
  8
0
  6
Continuous
 62
     7
370
    15
100
AcDbLine
 10
1841.1855888094
 20
1062.679220283
 30
0.0
 11
1839.6855888094
 21
1062.679220283
 31
0.0
  0
LINE
  5
16E
330
1F
100
AcDbEntity
  8
0
  6
Continuous
 62
     7
370
    15
100
AcDbLine
 10
1839.6855888094
 20
1056.0979188658
 30
0.0
 11
1839.6855888094
 21
1049.2605217002
 31
0.0
  0
LINE
  5
16F
330
1F
100
AcDbEntity
  8
0
  6
Continuous
 62
     7
370
    15
100
AcDbLine
 10
1841.1855888094
 20
1056.0979188658
 30
0.0
 11
1841.1855888094
 21
1049.2605217002
 31
0.0
  0
LINE
  5
170
330
1F
100
AcDbEntity
  8
0
  6
Continuous
 62
     7
370
    15
100
AcDbLine
 10
1809.6855888094
 20
1262.179220283
 30
0.0
 11
1808.1855888094
 21
1262.179220283
 31
0.0
  0
LINE
  5
171
330
1F
100
AcDbEntity
  8
0
  6
Continuous
 62
     7
370
    15
100
AcDbLine
 10
1809.6855888094
 20
1262.179220283
 30
0.0
 11
1809.6855888094
 21
1062.679220283
 31
0.0
  0
LINE
  5
172
330
1F
100
AcDbEntity
  8
0
  6
Continuous
 62
     7
370
    15
100
AcDbLine
 10
1809.6855888094
 20
1062.679220283
 30
0.0
 11
1808.1855888094
 21
1062.679220283
 31
0.0
  0
LINE
  5
173
330
1F
100
AcDbEntity
  8
0
  6
Continuous
 62
     7
370
    15
100
AcDbLine
 10
1808.1855888094
 20
1262.179220283
 30
0.0
 11
1808.1855888094
 21
1062.679220283
 31
0.0
  0
LINE
  5
174
330
1F
100
AcDbEntity
  8
0
  6
Continuous
 62
     7
370
    15
100
AcDbLine
 10
1809.6855888094
 20
1056.0979188658
 30
0.0
 11
1809.6855888094
 21
1049.2605217002
 31
0.0
  0
LINE
  5
175
330
1F
100
AcDbEntity
  8
0
  6
Continuous
 62
     7
370
    15
100
AcDbLine
 10
1808.1855888094
 20
1055.3601716067
 30
0.0
 11
1808.1855888094
 21
1049.9982689593
 31
0.0
  0
LINE
  5
176
330
1F
100
AcDbEntity
  8
0
  6
Continuous
 62
     7
370
    15
100
AcDbLine
 10
1776.6855888094
 20
1262.179220283
 30
0.0
 11
1776.6855888094
 21
1062.679220283
 31
0.0
  0
LINE
  5
177
330
1F
100
AcDbEntity
  8
0
  6
Continuous
 62
     7
370
    15
100
AcDbLine
 10
1778.1855888094
 20
1062.679220283
 30
0.0
 11
1776.6855888094
 21
1062.679220283
 31
0.0
  0
LINE
  5
178
330
1F
100
AcDbEntity
  8
0
  6
Continuous
 62
     7
370
    15
100
AcDbLine
 10
1778.1855888094
 20
1262.179220283
 30
0.0
 11
1776.6855888094
 21
1262.179220283
 31
0.0
  0
LINE
  5
179
330
1F
100
AcDbEntity
  8
0
  6
Continuous
 62
     7
370
    15
100
AcDbLine
 10
1778.1855888094
 20
1262.179220283
 30
0.0
 11
1778.1855888094
 21
1062.679220283
 31
0.0
  0
LINE
  5
17A
330
1F
100
AcDbEntity
  8
0
  6
Continuous
 62
     7
370
    15
100
AcDbLine
 10
1778.1855888094
 20
1055.3601716067
 30
0.0
 11
1778.1855888094
 21
1049.9982689593
 31
0.0
  0
LINE
  5
17B
330
1F
100
AcDbEntity
  8
0
  6
Continuous
 62
     7
370
    15
100
AcDbLine
 10
1746.6855888094
 20
1262.179220283
 30
0.0
 11
1745.1855888094
 21
1262.179220283
 31
0.0
  0
LINE
  5
17C
330
1F
100
AcDbEntity
  8
0
  6
Continuous
 62
     7
370
    15
100
AcDbLine
 10
1746.6855888094
 20
1262.179220283
 30
0.0
 11
1746.6855888094
 21
1062.679220283
 31
0.0
  0
LINE
  5
17D
330
1F
100
AcDbEntity
  8
0
  6
Continuous
 62
     7
370
    15
100
AcDbLine
 10
1745.1855888094
 20
1262.179220283
 30
0.0
 11
1745.1855888094
 21
1062.679220283
 31
0.0
  0
LINE
  5
17E
330
1F
100
AcDbEntity
  8
0
  6
Continuous
 62
     7
370
    15
100
AcDbLine
 10
1746.6855888094
 20
1062.679220283
 30
0.0
 11
1745.1855888094
 21
1062.679220283
 31
0.0
  0
LINE
  5
17F
330
1F
100
AcDbEntity
  8
0
  6
Continuous
 62
     7
370
    15
100
AcDbLine
 10
1715.1855888094
 20
1262.179220283
 30
0.0
 11
1713.6855888094
 21
1262.179220283
 31
0.0
  0
LINE
  5
180
330
1F
100
AcDbEntity
  8
0
  6
Continuous
 62
     7
370
    15
100
AcDbLine
 10
1715.1855888094
 20
1062.679220283
 30
0.0
 11
1713.6855888094
 21
1062.679220283
 31
0.0
  0
LINE
  5
181
330
1F
100
AcDbEntity
  8
0
  6
Continuous
 62
     7
370
    15
100
AcDbLine
 10
1715.1855888094
 20
1262.179220283
 30
0.0
 11
1715.1855888094
 21
1062.679220283
 31
0.0
  0
LINE
  5
182
330
1F
100
AcDbEntity
  8
0
  6
Continuous
 62
     7
370
    15
100
AcDbLine
 10
1713.6855888094
 20
1262.179220283
 30
0.0
 11
1713.6855888094
 21
1062.679220283
 31
0.0
  0
CIRCLE
  5
183
330
1F
100
AcDbEntity
  8
0
  6
Continuous
 62
     7
370
    15
100
AcDbCircle
 10
1286.9355888094
 20
1042.679220283
 30
0.0
 40
5.654999999999973
  0
CIRCLE
  5
184
330
1F
100
AcDbEntity
  8
0
  6
Continuous
 62
     7
370
    15
100
AcDbCircle
 10
1286.9355888094
 20
1042.679220283
 30
0.0
 40
3.654999999999745
  0
CIRCLE
  5
185
330
1F
100
AcDbEntity
  8
0
  6
Continuous
 62
     7
370
    15
100
AcDbCircle
 10
1286.9355888094
 20
1042.679220283
 30
0.0
 40
3.499999999999773
  0
CIRCLE
  5
186
330
1F
100
AcDbEntity
  8
0
  6
Continuous
 62
     7
370
    15
100
AcDbCircle
 10
1346.9355888094
 20
1042.679220283
 30
0.0
 40
5.654999999999973
  0
CIRCLE
  5
187
330
1F
100
AcDbEntity
  8
0
  6
Continuous
 62
     7
370
    15
100
AcDbCircle
 10
1346.9355888094
 20
1042.679220283
 30
0.0
 40
3.654999999999745
  0
CIRCLE
  5
188
330
1F
100
AcDbEntity
  8
0
  6
Continuous
 62
     7
370
    15
100
AcDbCircle
 10
1346.9355888094
 20
1042.679220283
 30
0.0
 40
3.499999999999773
  0
CIRCLE
  5
189
330
1F
100
AcDbEntity
  8
0
  6
Continuous
 62
     7
370
    15
100
AcDbCircle
 10
1316.9355888094
 20
1042.679220283
 30
0.0
 40
5.654999999999973
  0
CIRCLE
  5
18A
330
1F
100
AcDbEntity
  8
0
  6
Continuous
 62
     7
370
    15
100
AcDbCircle
 10
1316.9355888094
 20
1042.679220283
 30
0.0
 40
3.654999999999745
  0
CIRCLE
  5
18B
330
1F
100
AcDbEntity
  8
0
  6
Continuous
 62
     7
370
    15
100
AcDbCircle
 10
1316.9355888094
 20
1042.679220283
 30
0.0
 40
3.499999999999773
  0
CIRCLE
  5
18C
330
1F
100
AcDbEntity
  8
0
  6
Continuous
 62
     7
370
    15
100
AcDbCircle
 10
1376.9355888094
 20
1042.679220283
 30
0.0
 40
5.654999999999973
  0
CIRCLE
  5
18D
330
1F
100
AcDbEntity
  8
0
  6
Continuous
 62
     7
370
    15
100
AcDbCircle
 10
1376.9355888094
 20
1042.679220283
 30
0.0
 40
3.654999999999745
  0
CIRCLE
  5
18E
330
1F
100
AcDbEntity
  8
0
  6
Continuous
 62
     7
370
    15
100
AcDbCircle
 10
1376.9355888094
 20
1042.679220283
 30
0.0
 40
3.499999999999773
  0
CIRCLE
  5
18F
330
1F
100
AcDbEntity
  8
0
  6
Continuous
 62
     7
370
    15
100
AcDbCircle
 10
1406.9355888094
 20
1042.679220283
 30
0.0
 40
5.654999999999973
  0
CIRCLE
  5
190
330
1F
100
AcDbEntity
  8
0
  6
Continuous
 62
     7
370
    15
100
AcDbCircle
 10
1406.9355888094
 20
1042.679220283
 30
0.0
 40
3.654999999999745
  0
CIRCLE
  5
191
330
1F
100
AcDbEntity
  8
0
  6
Continuous
 62
     7
370
    15
100
AcDbCircle
 10
1406.9355888094
 20
1042.679220283
 30
0.0
 40
3.499999999999773
  0
CIRCLE
  5
192
330
1F
100
AcDbEntity
  8
0
  6
Continuous
 62
     7
370
    15
100
AcDbCircle
 10
1436.9355888094
 20
1042.679220283
 30
0.0
 40
3.654999999999745
  0
CIRCLE
  5
193
330
1F
100
AcDbEntity
  8
0
  6
Continuous
 62
     7
370
    15
100
AcDbCircle
 10
1436.9355888094
 20
1042.679220283
 30
0.0
 40
3.499999999999773
  0
CIRCLE
  5
194
330
1F
100
AcDbEntity
  8
0
  6
Continuous
 62
     7
370
    15
100
AcDbCircle
 10
1436.9355888094
 20
1042.679220283
 30
0.0
 40
5.654999999999973
  0
CIRCLE
  5
195
330
1F
100
AcDbEntity
  8
0
  6
Continuous
 62
     7
370
    15
100
AcDbCircle
 10
1466.9355888094
 20
1042.679220283
 30
0.0
 40
3.654999999999745
  0
CIRCLE
  5
196
330
1F
100
AcDbEntity
  8
0
  6
Continuous
 62
     7
370
    15
100
AcDbCircle
 10
1466.9355888094
 20
1042.679220283
 30
0.0
 40
3.499999999999773
  0
CIRCLE
  5
197
330
1F
100
AcDbEntity
  8
0
  6
Continuous
 62
     7
370
    15
100
AcDbCircle
 10
1466.9355888094
 20
1042.679220283
 30
0.0
 40
5.654999999999973
  0
CIRCLE
  5
198
330
1F
100
AcDbEntity
  8
0
  6
Continuous
 62
     7
370
    15
100
AcDbCircle
 10
1496.9355888094
 20
1042.679220283
 30
0.0
 40
5.654999999999973
  0
CIRCLE
  5
199
330
1F
100
AcDbEntity
  8
0
  6
Continuous
 62
     7
370
    15
100
AcDbCircle
 10
1496.9355888094
 20
1042.679220283
 30
0.0
 40
3.654999999999745
  0
CIRCLE
  5
19A
330
1F
100
AcDbEntity
  8
0
  6
Continuous
 62
     7
370
    15
100
AcDbCircle
 10
1496.9355888094
 20
1042.679220283
 30
0.0
 40
3.499999999999773
  0
CIRCLE
  5
19B
330
1F
100
AcDbEntity
  8
0
  6
Continuous
 62
     7
370
    15
100
AcDbCircle
 10
1526.9355888094
 20
1042.679220283
 30
0.0
 40
3.654999999999745
  0
CIRCLE
  5
19C
330
1F
100
AcDbEntity
  8
0
  6
Continuous
 62
     7
370
    15
100
AcDbCircle
 10
1526.9355888094
 20
1042.679220283
 30
0.0
 40
3.499999999999773
  0
CIRCLE
  5
19D
330
1F
100
AcDbEntity
  8
0
  6
Continuous
 62
     7
370
    15
100
AcDbCircle
 10
1526.9355888094
 20
1042.679220283
 30
0.0
 40
5.654999999999973
  0
CIRCLE
  5
19E
330
1F
100
AcDbEntity
  8
0
  6
Continuous
 62
     7
370
    15
100
AcDbCircle
 10
1676.9355888094
 20
1042.679220283
 30
0.0
 40
5.654999999999973
  0
CIRCLE
  5
19F
330
1F
100
AcDbEntity
  8
0
  6
Continuous
 62
     7
370
    15
100
AcDbCircle
 10
1676.9355888094
 20
1042.679220283
 30
0.0
 40
3.654999999999745
  0
CIRCLE
  5
1A0
330
1F
100
AcDbEntity
  8
0
  6
Continuous
 62
     7
370
    15
100
AcDbCircle
 10
1646.9355888094
 20
1042.679220283
 30
0.0
 40
3.654999999999745
  0
CIRCLE
  5
1A1
330
1F
100
AcDbEntity
  8
0
  6
Continuous
 62
     7
370
    15
100
AcDbCircle
 10
1646.9355888094
 20
1042.679220283
 30
0.0
 40
3.499999999999773
  0
CIRCLE
  5
1A2
330
1F
100
AcDbEntity
  8
0
  6
Continuous
 62
     7
370
    15
100
AcDbCircle
 10
1586.9355888094
 20
1042.679220283
 30
0.0
 40
5.654999999999973
  0
CIRCLE
  5
1A3
330
1F
100
AcDbEntity
  8
0
  6
Continuous
 62
     7
370
    15
100
AcDbCircle
 10
1586.9355888094
 20
1042.679220283
 30
0.0
 40
3.654999999999745
  0
CIRCLE
  5
1A4
330
1F
100
AcDbEntity
  8
0
  6
Continuous
 62
     7
370
    15
100
AcDbCircle
 10
1586.9355888094
 20
1042.679220283
 30
0.0
 40
3.499999999999773
  0
CIRCLE
  5
1A5
330
1F
100
AcDbEntity
  8
0
  6
Continuous
 62
     7
370
    15
100
AcDbCircle
 10
1616.9355888094
 20
1042.679220283
 30
0.0
 40
5.654999999999973
  0
CIRCLE
  5
1A6
330
1F
100
AcDbEntity
  8
0
  6
Continuous
 62
     7
370
    15
100
AcDbCircle
 10
1616.9355888094
 20
1042.679220283
 30
0.0
 40
3.654999999999745
  0
CIRCLE
  5
1A7
330
1F
100
AcDbEntity
  8
0
  6
Continuous
 62
     7
370
    15
100
AcDbCircle
 10
1616.9355888094
 20
1042.679220283
 30
0.0
 40
3.499999999999773
  0
CIRCLE
  5
1A8
330
1F
100
AcDbEntity
  8
0
  6
Continuous
 62
     7
370
    15
100
AcDbCircle
 10
1646.9355888094
 20
1042.679220283
 30
0.0
 40
5.654999999999973
  0
CIRCLE
  5
1A9
330
1F
100
AcDbEntity
  8
0
  6
Continuous
 62
     7
370
    15
100
AcDbCircle
 10
1826.9355888094
 20
1042.679220283
 30
0.0
 40
3.654999999999745
  0
CIRCLE
  5
1AA
330
1F
100
AcDbEntity
  8
0
  6
Continuous
 62
     7
370
    15
100
AcDbCircle
 10
1826.9355888094
 20
1042.679220283
 30
0.0
 40
3.499999999999773
  0
CIRCLE
  5
1AB
330
1F
100
AcDbEntity
  8
0
  6
Continuous
 62
     7
370
    15
100
AcDbCircle
 10
1600.4355888094
 20
1052.679220283
 30
0.0
 40
5.654999999999973
  0
CIRCLE
  5
1AC
330
1F
100
AcDbEntity
  8
0
  6
Continuous
 62
     7
370
    15
100
AcDbCircle
 10
1600.4355888094
 20
1052.679220283
 30
0.0
 40
3.6550000000002
  0
CIRCLE
  5
1AD
330
1F
100
AcDbEntity
  8
0
  6
Continuous
 62
     7
370
    15
100
AcDbCircle
 10
1600.4355888094
 20
1052.679220283
 30
0.0
 40
3.5
  0
CIRCLE
  5
1AE
330
1F
100
AcDbEntity
  8
0
  6
Continuous
 62
     7
370
    15
100
AcDbCircle
 10
1570.4355888094
 20
1052.679220283
 30
0.0
 40
5.654999999999973
  0
CIRCLE
  5
1AF
330
1F
100
AcDbEntity
  8
0
  6
Continuous
 62
     7
370
    15
100
AcDbCircle
 10
1570.4355888094
 20
1052.679220283
 30
0.0
 40
3.6550000000002
  0
CIRCLE
  5
1B0
330
1F
100
AcDbEntity
  8
0
  6
Continuous
 62
     7
370
    15
100
AcDbCircle
 10
1570.4355888094
 20
1052.679220283
 30
0.0
 40
3.5
  0
CIRCLE
  5
1B1
330
1F
100
AcDbEntity
  8
0
  6
Continuous
 62
     7
370
    15
100
AcDbCircle
 10
1540.4355888094
 20
1052.679220283
 30
0.0
 40
5.654999999999973
  0
CIRCLE
  5
1B2
330
1F
100
AcDbEntity
  8
0
  6
Continuous
 62
     7
370
    15
100
AcDbCircle
 10
1540.4355888094
 20
1052.679220283
 30
0.0
 40
3.6550000000002
  0
CIRCLE
  5
1B3
330
1F
100
AcDbEntity
  8
0
  6
Continuous
 62
     7
370
    15
100
AcDbCircle
 10
1540.4355888094
 20
1052.679220283
 30
0.0
 40
3.5
  0
CIRCLE
  5
1B4
330
1F
100
AcDbEntity
  8
0
  6
Continuous
 62
     7
370
    15
100
AcDbCircle
 10
1510.4355888094
 20
1052.679220283
 30
0.0
 40
5.654999999999973
  0
CIRCLE
  5
1B5
330
1F
100
AcDbEntity
  8
0
  6
Continuous
 62
     7
370
    15
100
AcDbCircle
 10
1510.4355888094
 20
1052.679220283
 30
0.0
 40
3.6550000000002
  0
CIRCLE
  5
1B6
330
1F
100
AcDbEntity
  8
0
  6
Continuous
 62
     7
370
    15
100
AcDbCircle
 10
1510.4355888094
 20
1052.679220283
 30
0.0
 40
3.5
  0
CIRCLE
  5
1B7
330
1F
100
AcDbEntity
  8
0
  6
Continuous
 62
     7
370
    15
100
AcDbCircle
 10
1480.4355888094
 20
1052.679220283
 30
0.0
 40
5.654999999999973
  0
CIRCLE
  5
1B8
330
1F
100
AcDbEntity
  8
0
  6
Continuous
 62
     7
370
    15
100
AcDbCircle
 10
1480.4355888094
 20
1052.679220283
 30
0.0
 40
3.6550000000002
  0
CIRCLE
  5
1B9
330
1F
100
AcDbEntity
  8
0
  6
Continuous
 62
     7
370
    15
100
AcDbCircle
 10
1480.4355888094
 20
1052.679220283
 30
0.0
 40
3.5
  0
CIRCLE
  5
1BA
330
1F
100
AcDbEntity
  8
0
  6
Continuous
 62
     7
370
    15
100
AcDbCircle
 10
1450.4355888094
 20
1052.679220283
 30
0.0
 40
5.654999999999973
  0
CIRCLE
  5
1BB
330
1F
100
AcDbEntity
  8
0
  6
Continuous
 62
     7
370
    15
100
AcDbCircle
 10
1450.4355888094
 20
1052.679220283
 30
0.0
 40
3.6550000000002
  0
CIRCLE
  5
1BC
330
1F
100
AcDbEntity
  8
0
  6
Continuous
 62
     7
370
    15
100
AcDbCircle
 10
1450.4355888094
 20
1052.679220283
 30
0.0
 40
3.5
  0
CIRCLE
  5
1BD
330
1F
100
AcDbEntity
  8
0
  6
Continuous
 62
     7
370
    15
100
AcDbCircle
 10
1420.4355888094
 20
1052.679220283
 30
0.0
 40
5.654999999999973
  0
CIRCLE
  5
1BE
330
1F
100
AcDbEntity
  8
0
  6
Continuous
 62
     7
370
    15
100
AcDbCircle
 10
1420.4355888094
 20
1052.679220283
 30
0.0
 40
3.6550000000002
  0
CIRCLE
  5
1BF
330
1F
100
AcDbEntity
  8
0
  6
Continuous
 62
     7
370
    15
100
AcDbCircle
 10
1676.9355888094
 20
1042.679220283
 30
0.0
 40
3.499999999999773
  0
CIRCLE
  5
1C0
330
1F
100
AcDbEntity
  8
0
  6
Continuous
 62
     7
370
    15
100
AcDbCircle
 10
1706.9355888094
 20
1042.679220283
 30
0.0
 40
5.654999999999973
  0
CIRCLE
  5
1C1
330
1F
100
AcDbEntity
  8
0
  6
Continuous
 62
     7
370
    15
100
AcDbCircle
 10
1706.9355888094
 20
1042.679220283
 30
0.0
 40
3.654999999999745
  0
CIRCLE
  5
1C2
330
1F
100
AcDbEntity
  8
0
  6
Continuous
 62
     7
370
    15
100
AcDbCircle
 10
1706.9355888094
 20
1042.679220283
 30
0.0
 40
3.499999999999773
  0
CIRCLE
  5
1C3
330
1F
100
AcDbEntity
  8
0
  6
Continuous
 62
     7
370
    15
100
AcDbCircle
 10
1736.9355888094
 20
1042.679220283
 30
0.0
 40
5.654999999999973
  0
CIRCLE
  5
1C4
330
1F
100
AcDbEntity
  8
0
  6
Continuous
 62
     7
370
    15
100
AcDbCircle
 10
1736.9355888094
 20
1042.679220283
 30
0.0
 40
3.654999999999745
  0
CIRCLE
  5
1C5
330
1F
100
AcDbEntity
  8
0
  6
Continuous
 62
     7
370
    15
100
AcDbCircle
 10
1736.9355888094
 20
1042.679220283
 30
0.0
 40
3.499999999999773
  0
CIRCLE
  5
1C6
330
1F
100
AcDbEntity
  8
0
  6
Continuous
 62
     7
370
    15
100
AcDbCircle
 10
1766.9355888094
 20
1042.679220283
 30
0.0
 40
5.654999999999973
  0
CIRCLE
  5
1C7
330
1F
100
AcDbEntity
  8
0
  6
Continuous
 62
     7
370
    15
100
AcDbCircle
 10
1766.9355888094
 20
1042.679220283
 30
0.0
 40
3.654999999999745
  0
CIRCLE
  5
1C8
330
1F
100
AcDbEntity
  8
0
  6
Continuous
 62
     7
370
    15
100
AcDbCircle
 10
1766.9355888094
 20
1042.679220283
 30
0.0
 40
3.499999999999773
  0
CIRCLE
  5
1C9
330
1F
100
AcDbEntity
  8
0
  6
Continuous
 62
     7
370
    15
100
AcDbCircle
 10
1796.9355888094
 20
1042.679220283
 30
0.0
 40
5.654999999999973
  0
CIRCLE
  5
1CA
330
1F
100
AcDbEntity
  8
0
  6
Continuous
 62
     7
370
    15
100
AcDbCircle
 10
1796.9355888094
 20
1042.679220283
 30
0.0
 40
3.654999999999745
  0
CIRCLE
  5
1CB
330
1F
100
AcDbEntity
  8
0
  6
Continuous
 62
     7
370
    15
100
AcDbCircle
 10
1796.9355888094
 20
1042.679220283
 30
0.0
 40
3.499999999999773
  0
CIRCLE
  5
1CC
330
1F
100
AcDbEntity
  8
0
  6
Continuous
 62
     7
370
    15
100
AcDbCircle
 10
1826.9355888094
 20
1042.679220283
 30
0.0
 40
5.654999999999973
  0
CIRCLE
  5
1CD
330
1F
100
AcDbEntity
  8
0
  6
Continuous
 62
     7
370
    15
100
AcDbCircle
 10
1270.4355888094
 20
1052.679220283
 30
0.0
 40
3.6550000000002
  0
CIRCLE
  5
1CE
330
1F
100
AcDbEntity
  8
0
  6
Continuous
 62
     7
370
    15
100
AcDbCircle
 10
1270.4355888094
 20
1052.679220283
 30
0.0
 40
3.5
  0
CIRCLE
  5
1CF
330
1F
100
AcDbEntity
  8
0
  6
Continuous
 62
     7
370
    15
100
AcDbCircle
 10
1780.4355888094
 20
1052.679220283
 30
0.0
 40
5.654999999999973
  0
CIRCLE
  5
1D0
330
1F
100
AcDbEntity
  8
0
  6
Continuous
 62
     7
370
    15
100
AcDbCircle
 10
1780.4355888094
 20
1052.679220283
 30
0.0
 40
3.6550000000002
  0
CIRCLE
  5
1D1
330
1F
100
AcDbEntity
  8
0
  6
Continuous
 62
     7
370
    15
100
AcDbCircle
 10
1780.4355888094
 20
1052.679220283
 30
0.0
 40
3.5
  0
CIRCLE
  5
1D2
330
1F
100
AcDbEntity
  8
0
  6
Continuous
 62
     7
370
    15
100
AcDbCircle
 10
1630.4355888094
 20
1052.679220283
 30
0.0
 40
5.654999999999973
  0
CIRCLE
  5
1D3
330
1F
100
AcDbEntity
  8
0
  6
Continuous
 62
     7
370
    15
100
AcDbCircle
 10
1630.4355888094
 20
1052.679220283
 30
0.0
 40
3.6550000000002
  0
CIRCLE
  5
1D4
330
1F
100
AcDbEntity
  8
0
  6
Continuous
 62
     7
370
    15
100
AcDbCircle
 10
1630.4355888094
 20
1052.679220283
 30
0.0
 40
3.5
  0
CIRCLE
  5
1D5
330
1F
100
AcDbEntity
  8
0
  6
Continuous
 62
     7
370
    15
100
AcDbCircle
 10
1660.4355888094
 20
1052.679220283
 30
0.0
 40
5.654999999999973
  0
CIRCLE
  5
1D6
330
1F
100
AcDbEntity
  8
0
  6
Continuous
 62
     7
370
    15
100
AcDbCircle
 10
1660.4355888094
 20
1052.679220283
 30
0.0
 40
3.6550000000002
  0
CIRCLE
  5
1D7
330
1F
100
AcDbEntity
  8
0
  6
Continuous
 62
     7
370
    15
100
AcDbCircle
 10
1660.4355888094
 20
1052.679220283
 30
0.0
 40
3.5
  0
CIRCLE
  5
1D8
330
1F
100
AcDbEntity
  8
0
  6
Continuous
 62
     7
370
    15
100
AcDbCircle
 10
1690.4355888094
 20
1052.679220283
 30
0.0
 40
5.654999999999973
  0
CIRCLE
  5
1D9
330
1F
100
AcDbEntity
  8
0
  6
Continuous
 62
     7
370
    15
100
AcDbCircle
 10
1690.4355888094
 20
1052.679220283
 30
0.0
 40
3.6550000000002
  0
CIRCLE
  5
1DA
330
1F
100
AcDbEntity
  8
0
  6
Continuous
 62
     7
370
    15
100
AcDbCircle
 10
1690.4355888094
 20
1052.679220283
 30
0.0
 40
3.5
  0
CIRCLE
  5
1DB
330
1F
100
AcDbEntity
  8
0
  6
Continuous
 62
     7
370
    15
100
AcDbCircle
 10
1720.4355888094
 20
1052.679220283
 30
0.0
 40
5.654999999999973
  0
CIRCLE
  5
1DC
330
1F
100
AcDbEntity
  8
0
  6
Continuous
 62
     7
370
    15
100
AcDbCircle
 10
1720.4355888094
 20
1052.679220283
 30
0.0
 40
3.6550000000002
  0
CIRCLE
  5
1DD
330
1F
100
AcDbEntity
  8
0
  6
Continuous
 62
     7
370
    15
100
AcDbCircle
 10
1720.4355888094
 20
1052.679220283
 30
0.0
 40
3.5
  0
CIRCLE
  5
1DE
330
1F
100
AcDbEntity
  8
0
  6
Continuous
 62
     7
370
    15
100
AcDbCircle
 10
1750.4355888094
 20
1052.679220283
 30
0.0
 40
5.654999999999973
  0
CIRCLE
  5
1DF
330
1F
100
AcDbEntity
  8
0
  6
Continuous
 62
     7
370
    15
100
AcDbCircle
 10
1750.4355888094
 20
1052.679220283
 30
0.0
 40
3.6550000000002
  0
CIRCLE
  5
1E0
330
1F
100
AcDbEntity
  8
0
  6
Continuous
 62
     7
370
    15
100
AcDbCircle
 10
1750.4355888094
 20
1052.679220283
 30
0.0
 40
3.5
  0
CIRCLE
  5
1E1
330
1F
100
AcDbEntity
  8
0
  6
Continuous
 62
     7
370
    15
100
AcDbCircle
 10
1330.4355888094
 20
1052.679220283
 30
0.0
 40
5.654999999999973
  0
CIRCLE
  5
1E2
330
1F
100
AcDbEntity
  8
0
  6
Continuous
 62
     7
370
    15
100
AcDbCircle
 10
1330.4355888094
 20
1052.679220283
 30
0.0
 40
3.6550000000002
  0
CIRCLE
  5
1E3
330
1F
100
AcDbEntity
  8
0
  6
Continuous
 62
     7
370
    15
100
AcDbCircle
 10
1420.4355888094
 20
1052.679220283
 30
0.0
 40
3.5
  0
CIRCLE
  5
1E4
330
1F
100
AcDbEntity
  8
0
  6
Continuous
 62
     7
370
    15
100
AcDbCircle
 10
1810.4355888094
 20
1052.679220283
 30
0.0
 40
5.654999999999973
  0
CIRCLE
  5
1E5
330
1F
100
AcDbEntity
  8
0
  6
Continuous
 62
     7
370
    15
100
AcDbCircle
 10
1810.4355888094
 20
1052.679220283
 30
0.0
 40
3.6550000000002
  0
CIRCLE
  5
1E6
330
1F
100
AcDbEntity
  8
0
  6
Continuous
 62
     7
370
    15
100
AcDbCircle
 10
1810.4355888094
 20
1052.679220283
 30
0.0
 40
3.5
  0
CIRCLE
  5
1E7
330
1F
100
AcDbEntity
  8
0
  6
Continuous
 62
     7
370
    15
100
AcDbCircle
 10
1840.4355888094
 20
1052.679220283
 30
0.0
 40
5.654999999999973
  0
CIRCLE
  5
1E8
330
1F
100
AcDbEntity
  8
0
  6
Continuous
 62
     7
370
    15
100
AcDbCircle
 10
1840.4355888094
 20
1052.679220283
 30
0.0
 40
3.6550000000002
  0
CIRCLE
  5
1E9
330
1F
100
AcDbEntity
  8
0
  6
Continuous
 62
     7
370
    15
100
AcDbCircle
 10
1840.4355888094
 20
1052.679220283
 30
0.0
 40
3.5
  0
CIRCLE
  5
1EA
330
1F
100
AcDbEntity
  8
0
  6
Continuous
 62
     7
370
    15
100
AcDbCircle
 10
1360.4355888094
 20
1052.679220283
 30
0.0
 40
3.6550000000002
  0
CIRCLE
  5
1EB
330
1F
100
AcDbEntity
  8
0
  6
Continuous
 62
     7
370
    15
100
AcDbCircle
 10
1360.4355888094
 20
1052.679220283
 30
0.0
 40
3.5
  0
CIRCLE
  5
1EC
330
1F
100
AcDbEntity
  8
0
  6
Continuous
 62
     7
370
    15
100
AcDbCircle
 10
1300.4355888094
 20
1052.679220283
 30
0.0
 40
5.654999999999973
  0
CIRCLE
  5
1ED
330
1F
100
AcDbEntity
  8
0
  6
Continuous
 62
     7
370
    15
100
AcDbCircle
 10
1300.4355888094
 20
1052.679220283
 30
0.0
 40
3.6550000000002
  0
CIRCLE
  5
1EE
330
1F
100
AcDbEntity
  8
0
  6
Continuous
 62
     7
370
    15
100
AcDbCircle
 10
1300.4355888094
 20
1052.679220283
 30
0.0
 40
3.5
  0
CIRCLE
  5
1EF
330
1F
100
AcDbEntity
  8
0
  6
Continuous
 62
     7
370
    15
100
AcDbCircle
 10
1330.4355888094
 20
1052.679220283
 30
0.0
 40
3.5
  0
CIRCLE
  5
1F0
330
1F
100
AcDbEntity
  8
0
  6
Continuous
 62
     7
370
    15
100
AcDbCircle
 10
1390.4355888094
 20
1052.679220283
 30
0.0
 40
5.654999999999973
  0
CIRCLE
  5
1F1
330
1F
100
AcDbEntity
  8
0
  6
Continuous
 62
     7
370
    15
100
AcDbCircle
 10
1390.4355888094
 20
1052.679220283
 30
0.0
 40
3.6550000000002
  0
CIRCLE
  5
1F2
330
1F
100
AcDbEntity
  8
0
  6
Continuous
 62
     7
370
    15
100
AcDbCircle
 10
1270.4355888094
 20
1052.679220283
 30
0.0
 40
5.654999999999973
  0
CIRCLE
  5
1F3
330
1F
100
AcDbEntity
  8
0
  6
Continuous
 62
     7
370
    15
100
AcDbCircle
 10
1360.4355888094
 20
1052.679220283
 30
0.0
 40
5.654999999999973
  0
CIRCLE
  5
1F4
330
1F
100
AcDbEntity
  8
0
  6
Continuous
 62
     7
370
    15
100
AcDbCircle
 10
1390.4355888094
 20
1052.679220283
 30
0.0
 40
3.5
  0
CIRCLE
  5
1F5
330
1F
100
AcDbEntity
  8
0
  6
Continuous
 62
     7
370
    15
100
AcDbCircle
 10
1556.9355888094
 20
1042.679220283
 30
0.0
 40
3.654999999999745
  0
CIRCLE
  5
1F6
330
1F
100
AcDbEntity
  8
0
  6
Continuous
 62
     7
370
    15
100
AcDbCircle
 10
1556.9355888094
 20
1042.679220283
 30
0.0
 40
3.499999999999773
  0
CIRCLE
  5
1F7
330
1F
100
AcDbEntity
  8
0
  6
Continuous
 62
     7
370
    15
100
AcDbCircle
 10
1556.9355888094
 20
1042.679220283
 30
0.0
 40
5.654999999999973
  0
LINE
  5
1F8
330
1F
100
AcDbEntity
  8
0
  6
Continuous
 62
     7
370
    15
100
AcDbLine
 10
1620.6855888094
 20
1262.179220283
 30
0.0
 11
1620.6855888094
 21
1062.679220283
 31
0.0
  0
LINE
  5
1F9
330
1F
100
AcDbEntity
  8
0
  6
Continuous
 62
     7
370
    15
100
AcDbLine
 10
1620.6855888094
 20
1062.679220283
 30
0.0
 11
1650.6855888094
 21
1062.679220283
 31
0.0
  0
LINE
  5
1FA
330
1F
100
AcDbEntity
  8
0
  6
Continuous
 62
     7
370
    15
100
AcDbLine
 10
1650.6855888094
 20
1262.179220283
 30
0.0
 11
1650.6855888094
 21
1062.679220283
 31
0.0
  0
LINE
  5
1FB
330
1F
100
AcDbEntity
  8
0
  6
Continuous
 62
     7
370
    15
100
AcDbLine
 10
1620.6855888094
 20
1262.179220283
 30
0.0
 11
1650.6855888094
 21
1262.179220283
 31
0.0
  0
LINE
  5
1FC
330
1F
100
AcDbEntity
  8
0
  6
Continuous
 62
     7
370
    15
100
AcDbLine
 10
1557.6855888094
 20
1262.179220283
 30
0.0
 11
1557.6855888094
 21
1062.679220283
 31
0.0
  0
LINE
  5
1FD
330
1F
100
AcDbEntity
  8
0
  6
Continuous
 62
     7
370
    15
100
AcDbLine
 10
1557.6855888094
 20
1062.679220283
 30
0.0
 11
1587.6855888094
 21
1062.679220283
 31
0.0
  0
LINE
  5
1FE
330
1F
100
AcDbEntity
  8
0
  6
Continuous
 62
     7
370
    15
100
AcDbLine
 10
1587.6855888094
 20
1262.179220283
 30
0.0
 11
1587.6855888094
 21
1062.679220283
 31
0.0
  0
LINE
  5
1FF
330
1F
100
AcDbEntity
  8
0
  6
Continuous
 62
     7
370
    15
100
AcDbLine
 10
1557.6855888094
 20
1262.179220283
 30
0.0
 11
1587.6855888094
 21
1262.179220283
 31
0.0
  0
LINE
  5
200
330
1F
100
AcDbEntity
  8
0
  6
Continuous
 62
     7
370
    15
100
AcDbLine
 10
1259.9355888094
 20
1262.179220283
 30
0.0
 11
1259.9355888094
 21
1062.679220283
 31
0.0
  0
LINE
  5
201
330
1F
100
AcDbEntity
  8
0
  6
Continuous
 62
     7
370
    15
100
AcDbLine
 10
1259.9355888094
 20
1062.679220283
 30
0.0
 11
1430.1855888094
 21
1062.679220283
 31
0.0
  0
LINE
  5
202
330
1F
100
AcDbEntity
  8
0
  6
Continuous
 62
     7
370
    15
100
AcDbLine
 10
1430.1855888094
 20
1262.179220283
 30
0.0
 11
1430.1855888094
 21
1062.679220283
 31
0.0
  0
LINE
  5
203
330
1F
100
AcDbEntity
  8
0
  6
Continuous
 62
     7
370
    15
100
AcDbLine
 10
1259.9355888094
 20
1262.179220283
 30
0.0
 11
1430.1855888094
 21
1262.179220283
 31
0.0
  0
LINE
  5
204
330
1F
100
AcDbEntity
  8
0
  6
Continuous
 62
     7
370
    15
100
AcDbLine
 10
1431.6855888094
 20
1062.679220283
 30
0.0
 11
1461.6855888094
 21
1062.679220283
 31
0.0
  0
LINE
  5
205
330
1F
100
AcDbEntity
  8
0
  6
Continuous
 62
     7
370
    15
100
AcDbLine
 10
1461.6855888094
 20
1262.179220283
 30
0.0
 11
1461.6855888094
 21
1062.679220283
 31
0.0
  0
LINE
  5
206
330
1F
100
AcDbEntity
  8
0
  6
Continuous
 62
     7
370
    15
100
AcDbLine
 10
1431.6855888094
 20
1262.179220283
 30
0.0
 11
1461.6855888094
 21
1262.179220283
 31
0.0
  0
LINE
  5
207
330
1F
100
AcDbEntity
  8
0
  6
Continuous
 62
     7
370
    15
100
AcDbLine
 10
1431.6855888094
 20
1262.179220283
 30
0.0
 11
1431.6855888094
 21
1062.679220283
 31
0.0
  0
LINE
  5
208
330
1F
100
AcDbEntity
  8
0
  6
Continuous
 62
     7
370
    15
100
AcDbLine
 10
1494.6855888094
 20
1062.679220283
 30
0.0
 11
1524.6855888094
 21
1062.679220283
 31
0.0
  0
LINE
  5
209
330
1F
100
AcDbEntity
  8
0
  6
Continuous
 62
     7
370
    15
100
AcDbLine
 10
1524.6855888094
 20
1262.179220283
 30
0.0
 11
1524.6855888094
 21
1062.679220283
 31
0.0
  0
LINE
  5
20A
330
1F
100
AcDbEntity
  8
0
  6
Continuous
 62
     7
370
    15
100
AcDbLine
 10
1494.6855888094
 20
1262.179220283
 30
0.0
 11
1524.6855888094
 21
1262.179220283
 31
0.0
  0
LINE
  5
20B
330
1F
100
AcDbEntity
  8
0
  6
Continuous
 62
     7
370
    15
100
AcDbLine
 10
1494.6855888094
 20
1262.179220283
 30
0.0
 11
1494.6855888094
 21
1062.679220283
 31
0.0
  0
LINE
  5
20C
330
1F
100
AcDbEntity
  8
0
  6
Continuous
 62
     7
370
    15
100
AcDbLine
 10
1256.9355888094
 20
1032.679220283
 30
0.0
 11
1856.9355888094
 21
1032.679220283
 31
0.0
  0
LINE
  5
20D
330
1F
100
AcDbEntity
  8
0
  6
Continuous
 62
     7
370
    15
100
AcDbLine
 10
1256.9355888094
 20
1272.679220283
 30
0.0
 11
1256.9355888094
 21
1032.679220283
 31
0.0
  0
LINE
  5
20E
330
1F
100
AcDbEntity
  8
0
  6
Continuous
 62
     7
370
    15
100
AcDbLine
 10
1256.9355888094
 20
1272.679220283
 30
0.0
 11
1856.9355888094
 21
1272.679220283
 31
0.0
  0
LINE
  5
20F
330
1F
100
AcDbEntity
  8
0
  6
Continuous
 62
     7
370
    15
100
AcDbLine
 10
1856.9355888094
 20
1272.679220283
 30
0.0
 11
1856.9355888094
 21
1032.679220283
 31
0.0
  0
LINE
  5
210
330
1F
100
AcDbEntity
  8
0
  6
Continuous
 62
     7
370
    15
100
AcDbLine
 10
1526.1855888094
 20
1062.679220283
 30
0.0
 11
1556.1855888094
 21
1062.679220283
 31
0.0
  0
LINE
  5
211
330
1F
100
AcDbEntity
  8
0
  6
Continuous
 62
     7
370
    15
100
AcDbLine
 10
1556.1855888094
 20
1262.179220283
 30
0.0
 11
1556.1855888094
 21
1062.679220283
 31
0.0
  0
LINE
  5
212
330
1F
100
AcDbEntity
  8
0
  6
Continuous
 62
     7
370
    15
100
AcDbLine
 10
1526.1855888094
 20
1262.179220283
 30
0.0
 11
1556.1855888094
 21
1262.179220283
 31
0.0
  0
LINE
  5
213
330
1F
100
AcDbEntity
  8
0
  6
Continuous
 62
     7
370
    15
100
AcDbLine
 10
1526.1855888094
 20
1262.179220283
 30
0.0
 11
1526.1855888094
 21
1062.679220283
 31
0.0
  0
LINE
  5
214
330
1F
100
AcDbEntity
  8
0
  6
Continuous
 62
     7
370
    15
100
AcDbLine
 10
1463.1855888094
 20
1062.679220283
 30
0.0
 11
1493.1855888094
 21
1062.679220283
 31
0.0
  0
LINE
  5
215
330
1F
100
AcDbEntity
  8
0
  6
Continuous
 62
     7
370
    15
100
AcDbLine
 10
1493.1855888094
 20
1262.179220283
 30
0.0
 11
1493.1855888094
 21
1062.679220283
 31
0.0
  0
LINE
  5
216
330
1F
100
AcDbEntity
  8
0
  6
Continuous
 62
     7
370
    15
100
AcDbLine
 10
1463.1855888094
 20
1262.179220283
 30
0.0
 11
1493.1855888094
 21
1262.179220283
 31
0.0
  0
LINE
  5
217
330
1F
100
AcDbEntity
  8
0
  6
Continuous
 62
     7
370
    15
100
AcDbLine
 10
1463.1855888094
 20
1262.179220283
 30
0.0
 11
1463.1855888094
 21
1062.679220283
 31
0.0
  0
LINE
  5
218
330
1F
100
AcDbEntity
  8
0
  6
Continuous
 62
     7
370
    15
100
AcDbLine
 10
1589.1855888094
 20
1262.179220283
 30
0.0
 11
1589.1855888094
 21
1062.679220283
 31
0.0
  0
LINE
  5
219
330
1F
100
AcDbEntity
  8
0
  6
Continuous
 62
     7
370
    15
100
AcDbLine
 10
1589.1855888094
 20
1062.679220283
 30
0.0
 11
1619.1855888094
 21
1062.679220283
 31
0.0
  0
LINE
  5
21A
330
1F
100
AcDbEntity
  8
0
  6
Continuous
 62
     7
370
    15
100
AcDbLine
 10
1619.1855888094
 20
1262.179220283
 30
0.0
 11
1619.1855888094
 21
1062.679220283
 31
0.0
  0
LINE
  5
21B
330
1F
100
AcDbEntity
  8
0
  6
Continuous
 62
     7
370
    15
100
AcDbLine
 10
1589.1855888094
 20
1262.179220283
 30
0.0
 11
1619.1855888094
 21
1262.179220283
 31
0.0
  0
LINE
  5
21C
330
1F
100
AcDbEntity
  8
0
  6
Continuous
 62
     7
370
    15
100
AcDbLine
 10
1683.6855888094
 20
1062.679220283
 30
0.0
 11
1853.9355888094
 21
1062.679220283
 31
0.0
  0
LINE
  5
21D
330
1F
100
AcDbEntity
  8
0
  6
Continuous
 62
     7
370
    15
100
AcDbLine
 10
1853.9355888094
 20
1262.179220283
 30
0.0
 11
1853.9355888094
 21
1062.679220283
 31
0.0
  0
LINE
  5
21E
330
1F
100
AcDbEntity
  8
0
  6
Continuous
 62
     7
370
    15
100
AcDbLine
 10
1683.6855888094
 20
1262.179220283
 30
0.0
 11
1853.9355888094
 21
1262.179220283
 31
0.0
  0
LINE
  5
21F
330
1F
100
AcDbEntity
  8
0
  6
Continuous
 62
     7
370
    15
100
AcDbLine
 10
1683.6855888094
 20
1262.179220283
 30
0.0
 11
1683.6855888094
 21
1062.679220283
 31
0.0
  0
LINE
  5
220
330
1F
100
AcDbEntity
  8
0
  6
Continuous
 62
     7
370
    15
100
AcDbLine
 10
1652.1855888094
 20
1262.179220283
 30
0.0
 11
1652.1855888094
 21
1062.679220283
 31
0.0
  0
LINE
  5
221
330
1F
100
AcDbEntity
  8
0
  6
Continuous
 62
     7
370
    15
100
AcDbLine
 10
1652.1855888094
 20
1062.679220283
 30
0.0
 11
1682.1855888094
 21
1062.679220283
 31
0.0
  0
LINE
  5
222
330
1F
100
AcDbEntity
  8
0
  6
Continuous
 62
     7
370
    15
100
AcDbLine
 10
1682.1855888094
 20
1262.179220283
 30
0.0
 11
1682.1855888094
 21
1062.679220283
 31
0.0
  0
LINE
  5
223
330
1F
100
AcDbEntity
  8
0
  6
Continuous
 62
     7
370
    15
100
AcDbLine
 10
1652.1855888094
 20
1262.179220283
 30
0.0
 11
1682.1855888094
 21
1262.179220283
 31
0.0
  0
LINE
  5
224
330
1F
100
AcDbEntity
  8
0
  6
Continuous
 62
     7
370
    15
100
AcDbLine
 10
1494.6855888094
 20
1045.3601716067
 30
0.0
 11
1494.6855888094
 21
1039.9982689593
 31
0.0
  0
LINE
  5
225
330
1F
100
AcDbEntity
  8
0
  6
Continuous
 62
     7
370
    15
100
AcDbLine
 10
1524.6855888094
 20
1045.3601716067
 30
0.0
 11
1524.6855888094
 21
1039.9982689593
 31
0.0
  0
LINE
  5
226
330
1F
100
AcDbEntity
  8
0
  6
Continuous
 62
     7
370
    15
100
AcDbLine
 10
1526.1855888094
 20
1046.0979188658
 30
0.0
 11
1526.1855888094
 21
1039.2605217002
 31
0.0
  0
LINE
  5
227
330
1F
100
AcDbEntity
  8
0
  6
Continuous
 62
     7
370
    15
100
AcDbLine
 10
1556.1855888094
 20
1046.0979188658
 30
0.0
 11
1556.1855888094
 21
1039.2605217002
 31
0.0
  0
LINE
  5
228
330
1F
100
AcDbEntity
  8
0
  6
Continuous
 62
     7
370
    15
100
AcDbLine
 10
1557.6855888094
 20
1039.2605217002
 30
0.0
 11
1557.6855888094
 21
1046.0979188658
 31
0.0
  0
LINE
  5
229
330
1F
100
AcDbEntity
  8
0
  6
Continuous
 62
     7
370
    15
100
AcDbLine
 10
1619.1855888094
 20
1045.3601716067
 30
0.0
 11
1619.1855888094
 21
1039.9982689593
 31
0.0
  0
LINE
  5
22A
330
1F
100
AcDbEntity
  8
0
  6
Continuous
 62
     7
370
    15
100
AcDbLine
 10
1587.6855888094
 20
1046.0979188658
 30
0.0
 11
1587.6855888094
 21
1039.2605217002
 31
0.0
  0
LINE
  5
22B
330
1F
100
AcDbEntity
  8
0
  6
Continuous
 62
     7
370
    15
100
AcDbLine
 10
1589.1855888094
 20
1045.3601716067
 30
0.0
 11
1589.1855888094
 21
1039.9982689593
 31
0.0
  0
LINE
  5
22C
330
1F
100
AcDbEntity
  8
0
  6
Continuous
 62
     7
370
    15
100
AcDbLine
 10
1259.9355888094
 20
1245.7944439722
 30
0.0
 11
1272.6855888094
 21
1245.7944439722
 31
0.0
  0
LINE
  5
22D
330
1F
100
AcDbEntity
  8
0
  6
Continuous
 62
     7
370
    15
100
AcDbLine
 10
1274.1855888094
 20
1245.7944439722
 30
0.0
 11
1304.1855888094
 21
1245.7944439722
 31
0.0
  0
LINE
  5
22E
330
1F
100
AcDbEntity
  8
0
  6
Continuous
 62
     7
370
    15
100
AcDbLine
 10
1305.6855888094
 20
1245.7944439722
 30
0.0
 11
1335.6855888094
 21
1245.7944439722
 31
0.0
  0
LINE
  5
22F
330
1F
100
AcDbEntity
  8
0
  6
Continuous
 62
     7
370
    15
100
AcDbLine
 10
1337.1855888094
 20
1245.7944439722
 30
0.0
 11
1367.1855888094
 21
1245.7944439722
 31
0.0
  0
LINE
  5
230
330
1F
100
AcDbEntity
  8
0
  6
Continuous
 62
     7
370
    15
100
AcDbLine
 10
1368.6855888094
 20
1245.7944439722
 30
0.0
 11
1398.6855888094
 21
1245.7944439722
 31
0.0
  0
LINE
  5
231
330
1F
100
AcDbEntity
  8
0
  6
Continuous
 62
     7
370
    15
100
AcDbLine
 10
1400.1855888094
 20
1245.7944439722
 30
0.0
 11
1430.1855888094
 21
1245.7944439722
 31
0.0
  0
LINE
  5
232
330
1F
100
AcDbEntity
  8
0
  6
Continuous
 62
     7
370
    15
100
AcDbLine
 10
1431.6855888094
 20
1245.7944439722
 30
0.0
 11
1461.6855888094
 21
1245.7944439722
 31
0.0
  0
LINE
  5
233
330
1F
100
AcDbEntity
  8
0
  6
Continuous
 62
     7
370
    15
100
AcDbLine
 10
1463.1855888094
 20
1245.7944439722
 30
0.0
 11
1493.1855888094
 21
1245.7944439722
 31
0.0
  0
LINE
  5
234
330
1F
100
AcDbEntity
  8
0
  6
Continuous
 62
     7
370
    15
100
AcDbLine
 10
1494.6855888094
 20
1245.7944439722
 30
0.0
 11
1524.6855888094
 21
1245.7944439722
 31
0.0
  0
LINE
  5
235
330
1F
100
AcDbEntity
  8
0
  6
Continuous
 62
     7
370
    15
100
AcDbLine
 10
1526.1855888094
 20
1245.7944439722
 30
0.0
 11
1556.1855888094
 21
1245.7944439722
 31
0.0
  0
LINE
  5
236
330
1F
100
AcDbEntity
  8
0
  6
Continuous
 62
     7
370
    15
100
AcDbLine
 10
1557.6855888094
 20
1245.7944439722
 30
0.0
 11
1587.6855888094
 21
1245.7944439722
 31
0.0
  0
LINE
  5
237
330
1F
100
AcDbEntity
  8
0
  6
Continuous
 62
     7
370
    15
100
AcDbLine
 10
1589.1855888094
 20
1245.7944439722
 30
0.0
 11
1619.1855888094
 21
1245.7944439722
 31
0.0
  0
LINE
  5
238
330
1F
100
AcDbEntity
  8
0
  6
Continuous
 62
     7
370
    15
100
AcDbLine
 10
1620.6855888094
 20
1245.7944439722
 30
0.0
 11
1650.6855888094
 21
1245.7944439722
 31
0.0
  0
LINE
  5
239
330
1F
100
AcDbEntity
  8
0
  6
Continuous
 62
     7
370
    15
100
AcDbLine
 10
1652.1855888094
 20
1245.7944439722
 30
0.0
 11
1682.1855888094
 21
1245.7944439722
 31
0.0
  0
LINE
  5
23A
330
1F
100
AcDbEntity
  8
0
  6
Continuous
 62
     7
370
    15
100
AcDbLine
 10
1683.6855888094
 20
1245.7944439722
 30
0.0
 11
1713.6855888094
 21
1245.7944439722
 31
0.0
  0
LINE
  5
23B
330
1F
100
AcDbEntity
  8
0
  6
Continuous
 62
     7
370
    15
100
AcDbLine
 10
1715.1855888094
 20
1245.7944439722
 30
0.0
 11
1745.1855888094
 21
1245.7944439722
 31
0.0
  0
LINE
  5
23C
330
1F
100
AcDbEntity
  8
0
  6
Continuous
 62
     7
370
    15
100
AcDbLine
 10
1746.6855888094
 20
1245.7944439722
 30
0.0
 11
1776.6855888094
 21
1245.7944439722
 31
0.0
  0
LINE
  5
23D
330
1F
100
AcDbEntity
  8
0
  6
Continuous
 62
     7
370
    15
100
AcDbLine
 10
1778.1855888094
 20
1245.7944439722
 30
0.0
 11
1808.1855888094
 21
1245.7944439722
 31
0.0
  0
LINE
  5
23E
330
1F
100
AcDbEntity
  8
0
  6
Continuous
 62
     7
370
    15
100
AcDbLine
 10
1809.6855888094
 20
1245.7944439722
 30
0.0
 11
1839.6855888094
 21
1245.7944439722
 31
0.0
  0
LINE
  5
23F
330
1F
100
AcDbEntity
  8
0
  6
Continuous
 62
     7
370
    15
100
AcDbLine
 10
1841.1855888094
 20
1245.7944439722
 30
0.0
 11
1853.9355888094
 21
1245.7944439722
 31
0.0
  0
LINE
  5
240
330
1F
100
AcDbEntity
  8
0
  6
Continuous
 62
     7
370
    15
100
AcDbLine
 10
2605.4225187876
 20
588.6507475684
 30
0.0
 11
2603.6365451949
 21
590.4757646411
 31
0.0
  0
LINE
  5
241
330
1F
100
AcDbEntity
  8
0
  6
Continuous
 62
     7
370
    15
100
AcDbLine
 10
2597.1088117133
 20
590.4757646411
 30
0.0
 11
2595.3228381206
 21
588.6507475684
 31
0.0
  0
LINE
  5
242
330
1F
100
AcDbEntity
  8
0
  6
Continuous
 62
     7
370
    15
100
AcDbLine
 10
2622.0291173196
 20
589.9608980583
 30
0.0
 11
2620.2431437268
 21
591.7859151309
 31
0.0
  0
LINE
  5
243
330
1F
100
AcDbEntity
  8
0
  6
Continuous
 62
     7
370
    15
100
AcDbLine
 10
2613.7154102453
 20
591.7859151309
 30
0.0
 11
2611.9294366525
 21
589.9608980583
 31
0.0
  0
LINE
  5
244
330
1F
100
AcDbEntity
  8
0
  6
Continuous
 62
     7
370
    15
100
AcDbLine
 10
2578.8899751373
 20
595.861724409
 30
0.0
 11
2577.1040015445
 21
597.6867414816
 31
0.0
  0
LINE
  5
245
330
1F
100
AcDbEntity
  8
0
  6
Continuous
 62
     7
370
    15
100
AcDbLine
 10
2570.576268063
 20
597.6867414816
 30
0.0
 11
2568.7902944703
 21
595.861724409
 31
0.0
  0
LINE
  5
246
330
1F
100
AcDbEntity
  8
0
  6
Continuous
 62
     7
370
    15
100
AcDbLine
 10
2595.4965736693
 20
597.1718748988
 30
0.0
 11
2593.7106000765
 21
598.9968919714
 31
0.0
  0
LINE
  5
247
330
1F
100
AcDbEntity
  8
0
  6
Continuous
 62
     7
370
    15
100
AcDbLine
 10
2587.182866595
 20
598.9968919714
 30
0.0
 11
2585.3968930022
 21
597.1718748988
 31
0.0
  0
LINE
  5
248
330
1F
100
AcDbEntity
  8
0
  6
Continuous
 62
     7
370
    15
100
AcDbLine
 10
2552.357431487
 20
603.0727012495
 30
0.0
 11
2550.5714578942
 21
604.8977183221
 31
0.0
  0
LINE
  5
249
330
1F
100
AcDbEntity
  8
0
  6
Continuous
 62
     7
370
    15
100
AcDbLine
 10
2544.0437244127
 20
604.8977183221
 30
0.0
 11
2542.2577508199
 21
603.0727012495
 31
0.0
  0
LINE
  5
24A
330
1F
100
AcDbEntity
  8
0
  6
Continuous
 62
     7
370
    15
100
AcDbLine
 10
2568.9640300189
 20
604.3828517393
 30
0.0
 11
2567.1780564262
 21
606.2078688119
 31
0.0
  0
LINE
  5
24B
330
1F
100
AcDbEntity
  8
0
  6
Continuous
 62
     7
370
    15
100
AcDbLine
 10
2560.6503229446
 20
606.2078688119
 30
0.0
 11
2558.8643493519
 21
604.3828517393
 31
0.0
  0
LINE
  5
24C
330
1F
100
AcDbEntity
  8
0
  6
Continuous
 62
     7
370
    15
100
AcDbLine
 10
2525.8248878367
 20
610.28367809
 30
0.0
 11
2524.0389142439
 21
612.1086951626
 31
0.0
  0
LINE
  5
24D
330
1F
100
AcDbEntity
  8
0
  6
Continuous
 62
     7
370
    15
100
AcDbLine
 10
2517.5111807624
 20
612.1086951626
 30
0.0
 11
2515.7252071696
 21
610.28367809
 31
0.0
  0
LINE
  5
24E
330
1F
100
AcDbEntity
  8
0
  6
Continuous
 62
     7
370
    15
100
AcDbLine
 10
2542.4314863686
 20
611.5938285798
 30
0.0
 11
2540.6455127758
 21
613.4188456524
 31
0.0
  0
LINE
  5
24F
330
1F
100
AcDbEntity
  8
0
  6
Continuous
 62
     7
370
    15
100
AcDbLine
 10
2534.1177792943
 20
613.4188456524
 30
0.0
 11
2532.3318057016
 21
611.5938285798
 31
0.0
  0
LINE
  5
250
330
1F
100
AcDbEntity
  8
0
  6
Continuous
 62
     7
370
    15
100
AcDbLine
 10
2499.2923441863
 20
617.4946549305
 30
0.0
 11
2497.5063705936
 21
619.3196720031
 31
0.0
  0
LINE
  5
251
330
1F
100
AcDbEntity
  8
0
  6
Continuous
 62
     7
370
    15
100
AcDbLine
 10
2490.978637112
 20
619.3196720031
 30
0.0
 11
2489.1926635193
 21
617.4946549305
 31
0.0
  0
LINE
  5
252
330
1F
100
AcDbEntity
  8
0
  6
Continuous
 62
     7
370
    15
100
AcDbLine
 10
2515.8989427183
 20
618.8048054203
 30
0.0
 11
2514.1129691255
 21
620.629822493
 31
0.0
  0
LINE
  5
253
330
1F
100
AcDbEntity
  8
0
  6
Continuous
 62
     7
370
    15
100
AcDbLine
 10
2507.585235644
 20
620.629822493
 30
0.0
 11
2505.7992620512
 21
618.8048054203
 31
0.0
  0
LINE
  5
254
330
1F
100
AcDbEntity
  8
0
  6
Continuous
 62
     7
370
    15
100
AcDbLine
 10
2472.759800536
 20
624.705631771
 30
0.0
 11
2470.9738269433
 21
626.5306488437
 31
0.0
  0
LINE
  5
255
330
1F
100
AcDbEntity
  8
0
  6
Continuous
 62
     7
370
    15
100
AcDbLine
 10
2464.4460934617
 20
626.5306488437
 30
0.0
 11
2462.660119869
 21
624.705631771
 31
0.0
  0
LINE
  5
256
330
1F
100
AcDbEntity
  8
0
  6
Continuous
 62
     7
370
    15
100
AcDbLine
 10
2489.366399068
 20
626.0157822608
 30
0.0
 11
2487.5804254752
 21
627.8407993335
 31
0.0
  0
LINE
  5
257
330
1F
100
AcDbEntity
  8
0
  6
Continuous
 62
     7
370
    15
100
AcDbLine
 10
2481.0526919937
 20
627.8407993335
 30
0.0
 11
2479.2667184009
 21
626.0157822608
 31
0.0
  0
LINE
  5
258
330
1F
100
AcDbEntity
  8
0
  6
Continuous
 62
     7
370
    15
100
AcDbLine
 10
2446.2272568857
 20
631.9166086115
 30
0.0
 11
2444.4412832929
 21
633.7416256842
 31
0.0
  0
LINE
  5
259
330
1F
100
AcDbEntity
  8
0
  6
Continuous
 62
     7
370
    15
100
AcDbLine
 10
2437.9135498114
 20
633.7416256842
 30
0.0
 11
2436.1275762186
 21
631.9166086115
 31
0.0
  0
LINE
  5
25A
330
1F
100
AcDbEntity
  8
0
  6
Continuous
 62
     7
370
    15
100
AcDbLine
 10
2462.8338554176
 20
633.2267591014
 30
0.0
 11
2461.0478818249
 21
635.051776174
 31
0.0
  0
LINE
  5
25B
330
1F
100
AcDbEntity
  8
0
  6
Continuous
 62
     7
370
    15
100
AcDbLine
 10
2454.5201483433
 20
635.051776174
 30
0.0
 11
2452.7341747506
 21
633.2267591014
 31
0.0
  0
LINE
  5
25C
330
1F
100
AcDbEntity
  8
0
  6
Continuous
 62
     7
370
    15
100
AcDbLine
 10
2419.6947132354
 20
639.1275854521
 30
0.0
 11
2417.9087396426
 21
640.9526025247
 31
0.0
  0
LINE
  5
25D
330
1F
100
AcDbEntity
  8
0
  6
Continuous
 62
     7
370
    15
100
AcDbLine
 10
2411.3810061611
 20
640.9526025247
 30
0.0
 11
2409.5950325683
 21
639.1275854521
 31
0.0
  0
LINE
  5
25E
330
1F
100
AcDbEntity
  8
0
  6
Continuous
 62
     7
370
    15
100
AcDbLine
 10
2436.3013117673
 20
640.4377359419
 30
0.0
 11
2434.5153381746
 21
642.2627530145
 31
0.0
  0
LINE
  5
25F
330
1F
100
AcDbEntity
  8
0
  6
Continuous
 62
     7
370
    15
100
AcDbLine
 10
2427.987604693
 20
642.2627530145
 30
0.0
 11
2426.2016311003
 21
640.4377359419
 31
0.0
  0
LINE
  5
260
330
1F
100
AcDbEntity
  8
0
  6
Continuous
 62
     7
370
    15
100
AcDbLine
 10
2393.162169585
 20
646.3385622926
 30
0.0
 11
2391.3761959923
 21
648.1635793652
 31
0.0
  0
LINE
  5
261
330
1F
100
AcDbEntity
  8
0
  6
Continuous
 62
     7
370
    15
100
AcDbLine
 10
2384.8484625108
 20
648.1635793652
 30
0.0
 11
2383.062488918
 21
646.3385622926
 31
0.0
  0
LINE
  5
262
330
1F
100
AcDbEntity
  8
0
  6
Continuous
 62
     7
370
    15
100
AcDbLine
 10
2409.768768117
 20
647.6487127824
 30
0.0
 11
2407.9827945242
 21
649.473729855
 31
0.0
  0
LINE
  5
263
330
1F
100
AcDbEntity
  8
0
  6
Continuous
 62
     7
370
    15
100
AcDbLine
 10
2401.4550610427
 20
649.473729855
 30
0.0
 11
2399.6690874499
 21
647.6487127824
 31
0.0
  0
LINE
  5
264
330
1F
100
AcDbEntity
  8
0
  6
Continuous
 62
     7
370
    15
100
AcDbLine
 10
2366.6296259347
 20
653.5495391331
 30
0.0
 11
2364.843652342
 21
655.3745562057
 31
0.0
  0
LINE
  5
265
330
1F
100
AcDbEntity
  8
0
  6
Continuous
 62
     7
370
    15
100
AcDbLine
 10
2358.3159188604
 20
655.3745562057
 30
0.0
 11
2356.5299452677
 21
653.5495391331
 31
0.0
  0
LINE
  5
266
330
1F
100
AcDbEntity
  8
0
  6
Continuous
 62
     7
370
    15
100
AcDbLine
 10
2383.2362244667
 20
654.8596896229
 30
0.0
 11
2381.4502508739
 21
656.6847066955
 31
0.0
  0
LINE
  5
267
330
1F
100
AcDbEntity
  8
0
  6
Continuous
 62
     7
370
    15
100
AcDbLine
 10
2374.9225173924
 20
656.6847066955
 30
0.0
 11
2373.1365437996
 21
654.8596896229
 31
0.0
  0
LINE
  5
268
330
1F
100
AcDbEntity
  8
0
  6
Continuous
 62
     7
370
    15
100
AcDbLine
 10
2340.0970822844
 20
660.7605159736
 30
0.0
 11
2338.3111086916
 21
662.5855330462
 31
0.0
  0
LINE
  5
269
330
1F
100
AcDbEntity
  8
0
  6
Continuous
 62
     7
370
    15
100
AcDbLine
 10
2331.7833752101
 20
662.5855330462
 30
0.0
 11
2329.9974016173
 21
660.7605159736
 31
0.0
  0
LINE
  5
26A
330
1F
100
AcDbEntity
  8
0
  6
Continuous
 62
     7
370
    15
100
AcDbLine
 10
2356.7036808163
 20
662.0706664634
 30
0.0
 11
2354.9177072236
 21
663.8956835361
 31
0.0
  0
LINE
  5
26B
330
1F
100
AcDbEntity
  8
0
  6
Continuous
 62
     7
370
    15
100
AcDbLine
 10
2348.3899737421
 20
663.8956835361
 30
0.0
 11
2346.6040001493
 21
662.0706664634
 31
0.0
  0
LINE
  5
26C
330
1F
100
AcDbEntity
  8
0
  6
Continuous
 62
     7
370
    15
100
AcDbLine
 10
2313.5645386341
 20
667.9714928141
 30
0.0
 11
2311.7785650413
 21
669.7965098868
 31
0.0
  0
LINE
  5
26D
330
1F
100
AcDbEntity
  8
0
  6
Continuous
 62
     7
370
    15
100
AcDbLine
 10
2305.2508315598
 20
669.7965098868
 30
0.0
 11
2303.464857967
 21
667.9714928141
 31
0.0
  0
LINE
  5
26E
330
1F
100
AcDbEntity
  8
0
  6
Continuous
 62
     7
370
    15
100
AcDbLine
 10
2330.171137166
 20
669.2816433039
 30
0.0
 11
2328.3851635733
 21
671.1066603766
 31
0.0
  0
LINE
  5
26F
330
1F
100
AcDbEntity
  8
0
  6
Continuous
 62
     7
370
    15
100
AcDbLine
 10
2321.8574300917
 20
671.1066603766
 30
0.0
 11
2320.071456499
 21
669.2816433039
 31
0.0
  0
LINE
  5
270
330
1F
100
AcDbEntity
  8
0
  6
Continuous
 62
     7
370
    15
100
AcDbLine
 10
2287.0319949838
 20
675.1824696547
 30
0.0
 11
2285.246021391
 21
677.0074867273
 31
0.0
  0
LINE
  5
271
330
1F
100
AcDbEntity
  8
0
  6
Continuous
 62
     7
370
    15
100
AcDbLine
 10
2278.7182879095
 20
677.0074867273
 30
0.0
 11
2276.9323143167
 21
675.1824696547
 31
0.0
  0
LINE
  5
272
330
1F
100
AcDbEntity
  8
0
  6
Continuous
 62
     7
370
    15
100
AcDbLine
 10
2303.6385935157
 20
676.4926201445
 30
0.0
 11
2301.8526199229
 21
678.3176372171
 31
0.0
  0
LINE
  5
273
330
1F
100
AcDbEntity
  8
0
  6
Continuous
 62
     7
370
    15
100
AcDbLine
 10
2295.3248864414
 20
678.3176372171
 30
0.0
 11
2293.5389128486
 21
676.4926201445
 31
0.0
  0
LINE
  5
274
330
1F
100
AcDbEntity
  8
0
  6
Continuous
 62
     7
370
    15
100
AcDbLine
 10
2260.4994513334
 20
682.3934464952
 30
0.0
 11
2258.7134777407
 21
684.2184635678
 31
0.0
  0
LINE
  5
275
330
1F
100
AcDbEntity
  8
0
  6
Continuous
 62
     7
370
    15
100
AcDbLine
 10
2252.1857442591
 20
684.2184635678
 30
0.0
 11
2250.3997706664
 21
682.3934464952
 31
0.0
  0
LINE
  5
276
330
1F
100
AcDbEntity
  8
0
  6
Continuous
 62
     7
370
    15
100
AcDbLine
 10
2277.1060498654
 20
683.703596985
 30
0.0
 11
2275.3200762726
 21
685.5286140576
 31
0.0
  0
LINE
  5
277
330
1F
100
AcDbEntity
  8
0
  6
Continuous
 62
     7
370
    15
100
AcDbLine
 10
2268.7923427911
 20
685.5286140576
 30
0.0
 11
2267.0063691983
 21
683.703596985
 31
0.0
  0
LINE
  5
278
330
1F
100
AcDbEntity
  8
0
  6
Continuous
 62
     7
370
    15
100
AcDbLine
 10
2233.9669076831
 20
689.6044233357
 30
0.0
 11
2232.1809340904
 21
691.4294404083
 31
0.0
  0
LINE
  5
279
330
1F
100
AcDbEntity
  8
0
  6
Continuous
 62
     7
370
    15
100
AcDbLine
 10
2225.6532006088
 20
691.4294404083
 30
0.0
 11
2223.8672270161
 21
689.6044233357
 31
0.0
  0
LINE
  5
27A
330
1F
100
AcDbEntity
  8
0
  6
Continuous
 62
     7
370
    15
100
AcDbLine
 10
2250.5735062151
 20
690.9145738255
 30
0.0
 11
2248.7875326223
 21
692.7395908981
 31
0.0
  0
LINE
  5
27B
330
1F
100
AcDbEntity
  8
0
  6
Continuous
 62
     7
370
    15
100
AcDbLine
 10
2242.2597991408
 20
692.7395908981
 30
0.0
 11
2240.473825548
 21
690.9145738255
 31
0.0
  0
LINE
  5
27C
330
1F
100
AcDbEntity
  8
0
  6
Continuous
 62
     7
370
    15
100
AcDbLine
 10
2207.4343640328
 20
696.8154001762
 30
0.0
 11
2205.64839044
 21
698.6404172488
 31
0.0
  0
LINE
  5
27D
330
1F
100
AcDbEntity
  8
0
  6
Continuous
 62
     7
370
    15
100
AcDbLine
 10
2199.1206569585
 20
698.6404172488
 30
0.0
 11
2197.3346833657
 21
696.8154001762
 31
0.0
  0
LINE
  5
27E
330
1F
100
AcDbEntity
  8
0
  6
Continuous
 62
     7
370
    15
100
AcDbLine
 10
2224.0409625647
 20
698.125550666
 30
0.0
 11
2222.254988972
 21
699.9505677386
 31
0.0
  0
LINE
  5
27F
330
1F
100
AcDbEntity
  8
0
  6
Continuous
 62
     7
370
    15
100
AcDbLine
 10
2215.7272554904
 20
699.9505677386
 30
0.0
 11
2213.9412818977
 21
698.125550666
 31
0.0
  0
LINE
  5
280
330
1F
100
AcDbEntity
  8
0
  6
Continuous
 62
     7
370
    15
100
AcDbLine
 10
2180.9018203825
 20
704.0263770167
 30
0.0
 11
2179.1158467897
 21
705.8513940894
 31
0.0
  0
LINE
  5
281
330
1F
100
AcDbEntity
  8
0
  6
Continuous
 62
     7
370
    15
100
AcDbLine
 10
2172.5881133082
 20
705.8513940894
 30
0.0
 11
2170.8021397154
 21
704.0263770167
 31
0.0
  0
LINE
  5
282
330
1F
100
AcDbEntity
  8
0
  6
Continuous
 62
     7
370
    15
100
AcDbLine
 10
2197.5084189144
 20
705.3365275065
 30
0.0
 11
2195.7224453217
 21
707.1615445792
 31
0.0
  0
LINE
  5
283
330
1F
100
AcDbEntity
  8
0
  6
Continuous
 62
     7
370
    15
100
AcDbLine
 10
2189.1947118401
 20
707.1615445792
 30
0.0
 11
2187.4087382474
 21
705.3365275065
 31
0.0
  0
LINE
  5
284
330
1F
100
AcDbEntity
  8
0
  6
Continuous
 62
     7
370
    15
100
AcDbLine
 10
2154.3692767321
 20
711.2373538572
 30
0.0
 11
2152.5833031394
 21
713.0623709299
 31
0.0
  0
LINE
  5
285
330
1F
100
AcDbEntity
  8
0
  6
Continuous
 62
     7
370
    15
100
AcDbLine
 10
2146.0555696578
 20
713.0623709299
 30
0.0
 11
2144.2695960651
 21
711.2373538572
 31
0.0
  0
LINE
  5
286
330
1F
100
AcDbEntity
  8
0
  6
Continuous
 62
     7
370
    15
100
AcDbLine
 10
2170.9758752641
 20
712.5475043471
 30
0.0
 11
2169.1899016713
 21
714.3725214197
 31
0.0
  0
LINE
  5
287
330
1F
100
AcDbEntity
  8
0
  6
Continuous
 62
     7
370
    15
100
AcDbLine
 10
2162.6621681898
 20
714.3725214197
 30
0.0
 11
2160.876194597
 21
712.5475043471
 31
0.0
  0
LINE
  5
288
330
1F
100
AcDbEntity
  8
0
  6
Continuous
 62
     7
370
    15
100
AcDbLine
 10
2127.8367330818
 20
718.4483306978
 30
0.0
 11
2126.0507594891
 21
720.2733477704
 31
0.0
  0
LINE
  5
289
330
1F
100
AcDbEntity
  8
0
  6
Continuous
 62
     7
370
    15
100
AcDbLine
 10
2119.5230260075
 20
720.2733477704
 30
0.0
 11
2117.7370524148
 21
718.4483306978
 31
0.0
  0
LINE
  5
28A
330
1F
100
AcDbEntity
  8
0
  6
Continuous
 62
     7
370
    15
100
AcDbLine
 10
2144.4433316138
 20
719.7584811876
 30
0.0
 11
2142.657358021
 21
721.5834982602
 31
0.0
  0
LINE
  5
28B
330
1F
100
AcDbEntity
  8
0
  6
Continuous
 62
     7
370
    15
100
AcDbLine
 10
2136.1296245395
 20
721.5834982602
 30
0.0
 11
2134.3436509467
 21
719.7584811876
 31
0.0
  0
LINE
  5
28C
330
1F
100
AcDbEntity
  8
0
  6
Continuous
 62
     7
370
    15
100
AcDbLine
 10
2117.9107879634
 20
726.9694580281
 30
0.0
 11
2116.1248143707
 21
728.7944751007
 31
0.0
  0
LINE
  5
28D
330
1F
100
AcDbEntity
  8
0
  6
Continuous
 62
     7
370
    15
100
AcDbLine
 10
2109.5970808891
 20
728.7944751007
 30
0.0
 11
2107.8111072964
 21
726.9694580281
 31
0.0
  0
LINE
  5
28E
330
1F
100
AcDbEntity
  8
0
  6
Continuous
 62
     7
370
    15
100
AcDbLine
 10
2120.492265201
 20
737.8372785371
 30
0.0
 11
2120.492265201
 21
744.6946169427
 31
0.0
  0
LINE
  5
28F
330
1F
100
AcDbEntity
  8
0
  6
Continuous
 62
     7
370
    15
100
AcDbLine
 10
2645.8366294774
 20
601.9172755004
 30
0.0
 11
2120.492265201
 21
744.6946169427
 31
0.0
  0
LINE
  5
290
330
1F
100
AcDbEntity
  8
0
  6
Continuous
 62
     7
370
    15
100
AcDbLine
 10
2640.3411272434
 20
596.5534968476
 30
0.0
 11
2634.560298426
 21
598.124602252
 31
0.0
  0
LINE
  5
291
330
1F
100
AcDbEntity
  8
0
  6
Continuous
 62
     7
370
    15
100
AcDbLine
 10
2627.7381690095
 20
599.9787108469
 30
0.0
 11
2606.7011275932
 21
605.6961279346
 31
0.0
  0
LINE
  5
292
330
1F
100
AcDbEntity
  8
0
  6
Continuous
 62
     7
370
    15
100
AcDbLine
 10
2599.8789981767
 20
607.5502365294
 30
0.0
 11
2578.8419567603
 21
613.2676536171
 31
0.0
  0
LINE
  5
293
330
1F
100
AcDbEntity
  8
0
  6
Continuous
 62
     7
370
    15
100
AcDbLine
 10
2572.0198273438
 20
615.121762212
 30
0.0
 11
2550.9827859275
 21
620.8391792997
 31
0.0
  0
LINE
  5
294
330
1F
100
AcDbEntity
  8
0
  6
Continuous
 62
     7
370
    15
100
AcDbLine
 10
2544.160656511
 20
622.6932878945
 30
0.0
 11
2523.1236150947
 21
628.4107049822
 31
0.0
  0
LINE
  5
295
330
1F
100
AcDbEntity
  8
0
  6
Continuous
 62
     7
370
    15
100
AcDbLine
 10
2516.3014856782
 20
630.2648135771
 30
0.0
 11
2495.2644442618
 21
635.9822306648
 31
0.0
  0
LINE
  5
296
330
1F
100
AcDbEntity
  8
0
  6
Continuous
 62
     7
370
    15
100
AcDbLine
 10
2488.4423148453
 20
637.8363392596
 30
0.0
 11
2467.405273429
 21
643.5537563473
 31
0.0
  0
LINE
  5
297
330
1F
100
AcDbEntity
  8
0
  6
Continuous
 62
     7
370
    15
100
AcDbLine
 10
2460.5831440125
 20
645.4078649422
 30
0.0
 11
2439.5461025961
 21
651.1252820298
 31
0.0
  0
LINE
  5
298
330
1F
100
AcDbEntity
  8
0
  6
Continuous
 62
     7
370
    15
100
AcDbLine
 10
2432.7239731796
 20
652.9793906247
 30
0.0
 11
2411.6869317633
 21
658.6968077124
 31
0.0
  0
LINE
  5
299
330
1F
100
AcDbEntity
  8
0
  6
Continuous
 62
     7
370
    15
100
AcDbLine
 10
2404.8648023468
 20
660.5509163072
 30
0.0
 11
2383.8277609305
 21
666.2683333949
 31
0.0
  0
LINE
  5
29A
330
1F
100
AcDbEntity
  8
0
  6
Continuous
 62
     7
370
    15
100
AcDbLine
 10
2377.005631514
 20
668.1224419898
 30
0.0
 11
2355.9685900976
 21
673.8398590775
 31
0.0
  0
LINE
  5
29B
330
1F
100
AcDbEntity
  8
0
  6
Continuous
 62
     7
370
    15
100
AcDbLine
 10
2349.1464606811
 20
675.6939676723
 30
0.0
 11
2328.1094192648
 21
681.41138476
 31
0.0
  0
LINE
  5
29C
330
1F
100
AcDbEntity
  8
0
  6
Continuous
 62
     7
370
    15
100
AcDbLine
 10
2321.2872898483
 20
683.2654933549
 30
0.0
 11
2300.250248432
 21
688.9829104426
 31
0.0
  0
LINE
  5
29D
330
1F
100
AcDbEntity
  8
0
  6
Continuous
 62
     7
370
    15
100
AcDbLine
 10
2293.4281190154
 20
690.8370190374
 30
0.0
 11
2272.3910775991
 21
696.5544361251
 31
0.0
  0
LINE
  5
29E
330
1F
100
AcDbEntity
  8
0
  6
Continuous
 62
     7
370
    15
100
AcDbLine
 10
2265.5689481826
 20
698.40854472
 30
0.0
 11
2244.5319067663
 21
704.1259618076
 31
0.0
  0
LINE
  5
29F
330
1F
100
AcDbEntity
  8
0
  6
Continuous
 62
     7
370
    15
100
AcDbLine
 10
2237.7097773498
 20
705.9800704025
 30
0.0
 11
2216.6727359334
 21
711.6974874902
 31
0.0
  0
LINE
  5
2A0
330
1F
100
AcDbEntity
  8
0
  6
Continuous
 62
     7
370
    15
100
AcDbLine
 10
2209.8506065169
 20
713.551596085
 30
0.0
 11
2188.8135651006
 21
719.2690131727
 31
0.0
  0
LINE
  5
2A1
330
1F
100
AcDbEntity
  8
0
  6
Continuous
 62
     7
370
    15
100
AcDbLine
 10
2181.9914356841
 20
721.1231217676
 30
0.0
 11
2160.9543942678
 21
726.8405388553
 31
0.0
  0
LINE
  5
2A2
330
1F
100
AcDbEntity
  8
0
  6
Continuous
 62
     7
370
    15
100
AcDbLine
 10
2154.1322648513
 20
728.6946474501
 30
0.0
 11
2133.0952234349
 21
734.4120645378
 31
0.0
  0
LINE
  5
2A3
330
1F
100
AcDbEntity
  8
0
  6
Continuous
 62
     7
370
    15
100
AcDbLine
 10
2126.2730940184
 20
736.2661731327
 30
0.0
 11
2120.492265201
 21
737.8372785371
 31
0.0
  0
LINE
  5
2A4
330
1F
100
AcDbEntity
  8
0
  6
Continuous
 62
     7
370
    15
100
AcDbLine
 10
2645.8366294774
 20
601.9172755004
 30
0.0
 11
2646.5366725608
 21
602.6005390106
 31
0.0
  0
LINE
  5
2A5
330
1F
100
AcDbEntity
  8
0
  6
Continuous
 62
     7
370
    15
100
AcDbLine
 10
2120.492265201
 20
744.6946169427
 30
0.0
 11
2121.1923082844
 21
745.3778804529
 31
0.0
  0
LINE
  5
2A6
330
1F
100
AcDbEntity
  8
0
  6
Continuous
 62
     7
370
    15
100
AcDbLine
 10
2646.5366725608
 20
602.6005390106
 30
0.0
 11
2121.1923082844
 21
745.3778804529
 31
0.0
  0
LINE
  5
2A7
330
1F
100
AcDbEntity
  8
0
  6
Continuous
 62
     7
370
    15
100
AcDbLine
 10
2135.1931699523
 20
752.1858122514
 30
0.0
 11
2135.1931699523
 21
759.043150657
 31
0.0
  0
LINE
  5
2A8
330
1F
100
AcDbEntity
  8
0
  6
Continuous
 62
     7
370
    15
100
AcDbLine
 10
2660.5375342287
 20
616.2658092148
 30
0.0
 11
2135.1931699523
 21
759.043150657
 31
0.0
  0
LINE
  5
2A9
330
1F
100
AcDbEntity
  8
0
  6
Continuous
 62
     7
370
    15
100
AcDbLine
 10
2655.0420319947
 20
610.902030562
 30
0.0
 11
2649.2612031773
 21
612.4731359664
 31
0.0
  0
LINE
  5
2AA
330
1F
100
AcDbEntity
  8
0
  6
Continuous
 62
     7
370
    15
100
AcDbLine
 10
2642.4390737608
 20
614.3272445612
 30
0.0
 11
2621.4020323445
 21
620.0446616489
 31
0.0
  0
LINE
  5
2AB
330
1F
100
AcDbEntity
  8
0
  6
Continuous
 62
     7
370
    15
100
AcDbLine
 10
2614.579902928
 20
621.8987702438
 30
0.0
 11
2593.5428615116
 21
627.6161873315
 31
0.0
  0
LINE
  5
2AC
330
1F
100
AcDbEntity
  8
0
  6
Continuous
 62
     7
370
    15
100
AcDbLine
 10
2586.7207320951
 20
629.4702959263
 30
0.0
 11
2565.6836906788
 21
635.187713014
 31
0.0
  0
LINE
  5
2AD
330
1F
100
AcDbEntity
  8
0
  6
Continuous
 62
     7
370
    15
100
AcDbLine
 10
2558.8615612623
 20
637.0418216089
 30
0.0
 11
2537.824519846
 21
642.7592386965
 31
0.0
  0
LINE
  5
2AE
330
1F
100
AcDbEntity
  8
0
  6
Continuous
 62
     7
370
    15
100
AcDbLine
 10
2531.0023904295
 20
644.6133472914
 30
0.0
 11
2509.9653490131
 21
650.3307643791
 31
0.0
  0
LINE
  5
2AF
330
1F
100
AcDbEntity
  8
0
  6
Continuous
 62
     7
370
    15
100
AcDbLine
 10
2503.1432195966
 20
652.1848729739
 30
0.0
 11
2482.1061781803
 21
657.9022900616
 31
0.0
  0
LINE
  5
2B0
330
1F
100
AcDbEntity
  8
0
  6
Continuous
 62
     7
370
    15
100
AcDbLine
 10
2475.2840487638
 20
659.7563986565
 30
0.0
 11
2454.2470073474
 21
665.4738157442
 31
0.0
  0
LINE
  5
2B1
330
1F
100
AcDbEntity
  8
0
  6
Continuous
 62
     7
370
    15
100
AcDbLine
 10
2447.4248779309
 20
667.327924339
 30
0.0
 11
2426.3878365146
 21
673.0453414267
 31
0.0
  0
LINE
  5
2B2
330
1F
100
AcDbEntity
  8
0
  6
Continuous
 62
     7
370
    15
100
AcDbLine
 10
2419.5657070981
 20
674.8994500216
 30
0.0
 11
2398.5286656818
 21
680.6168671093
 31
0.0
  0
LINE
  5
2B3
330
1F
100
AcDbEntity
  8
0
  6
Continuous
 62
     7
370
    15
100
AcDbLine
 10
2391.7065362653
 20
682.4709757041
 30
0.0
 11
2370.6694948489
 21
688.1883927918
 31
0.0
  0
LINE
  5
2B4
330
1F
100
AcDbEntity
  8
0
  6
Continuous
 62
     7
370
    15
100
AcDbLine
 10
2363.8473654324
 20
690.0425013867
 30
0.0
 11
2342.8103240161
 21
695.7599184743
 31
0.0
  0
LINE
  5
2B5
330
1F
100
AcDbEntity
  8
0
  6
Continuous
 62
     7
370
    15
100
AcDbLine
 10
2335.9881945996
 20
697.6140270692
 30
0.0
 11
2314.9511531833
 21
703.3314441569
 31
0.0
  0
LINE
  5
2B6
330
1F
100
AcDbEntity
  8
0
  6
Continuous
 62
     7
370
    15
100
AcDbLine
 10
2308.1290237667
 20
705.1855527517
 30
0.0
 11
2287.0919823504
 21
710.9029698394
 31
0.0
  0
LINE
  5
2B7
330
1F
100
AcDbEntity
  8
0
  6
Continuous
 62
     7
370
    15
100
AcDbLine
 10
2280.2698529339
 20
712.7570784343
 30
0.0
 11
2259.2328115176
 21
718.474495522
 31
0.0
  0
LINE
  5
2B8
330
1F
100
AcDbEntity
  8
0
  6
Continuous
 62
     7
370
    15
100
AcDbLine
 10
2252.4106821011
 20
720.3286041168
 30
0.0
 11
2231.3736406847
 21
726.0460212045
 31
0.0
  0
LINE
  5
2B9
330
1F
100
AcDbEntity
  8
0
  6
Continuous
 62
     7
370
    15
100
AcDbLine
 10
2224.5515112682
 20
727.9001297994
 30
0.0
 11
2203.5144698519
 21
733.6175468871
 31
0.0
  0
LINE
  5
2BA
330
1F
100
AcDbEntity
  8
0
  6
Continuous
 62
     7
370
    15
100
AcDbLine
 10
2196.6923404354
 20
735.4716554819
 30
0.0
 11
2175.6552990191
 21
741.1890725696
 31
0.0
  0
LINE
  5
2BB
330
1F
100
AcDbEntity
  8
0
  6
Continuous
 62
     7
370
    15
100
AcDbLine
 10
2168.8331696025
 20
743.0431811645
 30
0.0
 11
2147.7961281862
 21
748.7605982522
 31
0.0
  0
LINE
  5
2BC
330
1F
100
AcDbEntity
  8
0
  6
Continuous
 62
     7
370
    15
100
AcDbLine
 10
2140.9739987697
 20
750.614706847
 30
0.0
 11
2135.1931699523
 21
752.1858122514
 31
0.0
  0
LINE
  5
2BD
330
1F
100
AcDbEntity
  8
0
  6
Continuous
 62
     7
370
    15
100
AcDbLine
 10
2135.1931699523
 20
759.043150657
 30
0.0
 11
2135.8932130357
 21
759.7264141672
 31
0.0
  0
LINE
  5
2BE
330
1F
100
AcDbEntity
  8
0
  6
Continuous
 62
     7
370
    15
100
AcDbLine
 10
2661.2375773121
 20
616.949072725
 30
0.0
 11
2135.8932130357
 21
759.7264141672
 31
0.0
  0
LINE
  5
2BF
330
1F
100
AcDbEntity
  8
0
  6
Continuous
 62
     7
370
    15
100
AcDbLine
 10
2660.5375342287
 20
616.2658092148
 30
0.0
 11
2661.2375773121
 21
616.949072725
 31
0.0
  0
LINE
  5
2C0
330
1F
100
AcDbEntity
  8
0
  6
Continuous
 62
     7
370
    15
100
AcDbLine
 10
2719.3411532339
 20
673.6599440721
 30
0.0
 11
2720.0411963173
 21
674.3432075823
 31
0.0
  0
LINE
  5
2C1
330
1F
100
AcDbEntity
  8
0
  6
Continuous
 62
     7
370
    15
100
AcDbLine
 10
2193.9967889575
 20
809.5799471087
 30
0.0
 11
2193.9967889575
 21
816.4372855144
 31
0.0
  0
LINE
  5
2C2
330
1F
100
AcDbEntity
  8
0
  6
Continuous
 62
     7
370
    15
100
AcDbLine
 10
2719.3411532339
 20
673.6599440721
 30
0.0
 11
2193.9967889575
 21
816.4372855144
 31
0.0
  0
LINE
  5
2C3
330
1F
100
AcDbEntity
  8
0
  6
Continuous
 62
     7
370
    15
100
AcDbLine
 10
2713.8456509999
 20
668.2961654193
 30
0.0
 11
2708.0648221825
 21
669.8672708237
 31
0.0
  0
LINE
  5
2C4
330
1F
100
AcDbEntity
  8
0
  6
Continuous
 62
     7
370
    15
100
AcDbLine
 10
2701.242692766
 20
671.7213794186
 30
0.0
 11
2680.2056513497
 21
677.4387965063
 31
0.0
  0
LINE
  5
2C5
330
1F
100
AcDbEntity
  8
0
  6
Continuous
 62
     7
370
    15
100
AcDbLine
 10
2673.3835219332
 20
679.2929051011
 30
0.0
 11
2652.3464805168
 21
685.0103221888
 31
0.0
  0
LINE
  5
2C6
330
1F
100
AcDbEntity
  8
0
  6
Continuous
 62
     7
370
    15
100
AcDbLine
 10
2645.5243511003
 20
686.8644307837
 30
0.0
 11
2624.487309684
 21
692.5818478713
 31
0.0
  0
LINE
  5
2C7
330
1F
100
AcDbEntity
  8
0
  6
Continuous
 62
     7
370
    15
100
AcDbLine
 10
2617.6651802675
 20
694.4359564662
 30
0.0
 11
2596.6281388511
 21
700.1533735539
 31
0.0
  0
LINE
  5
2C8
330
1F
100
AcDbEntity
  8
0
  6
Continuous
 62
     7
370
    15
100
AcDbLine
 10
2589.8060094346
 20
702.0074821487
 30
0.0
 11
2568.7689680183
 21
707.7248992364
 31
0.0
  0
LINE
  5
2C9
330
1F
100
AcDbEntity
  8
0
  6
Continuous
 62
     7
370
    15
100
AcDbLine
 10
2561.9468386018
 20
709.5790078313
 30
0.0
 11
2540.9097971855
 21
715.296424919
 31
0.0
  0
LINE
  5
2CA
330
1F
100
AcDbEntity
  8
0
  6
Continuous
 62
     7
370
    15
100
AcDbLine
 10
2534.087667769
 20
717.1505335138
 30
0.0
 11
2513.0506263526
 21
722.8679506015
 31
0.0
  0
LINE
  5
2CB
330
1F
100
AcDbEntity
  8
0
  6
Continuous
 62
     7
370
    15
100
AcDbLine
 10
2506.2284969361
 20
724.7220591964
 30
0.0
 11
2485.1914555198
 21
730.4394762841
 31
0.0
  0
LINE
  5
2CC
330
1F
100
AcDbEntity
  8
0
  6
Continuous
 62
     7
370
    15
100
AcDbLine
 10
2478.3693261033
 20
732.2935848789
 30
0.0
 11
2457.332284687
 21
738.0110019666
 31
0.0
  0
LINE
  5
2CD
330
1F
100
AcDbEntity
  8
0
  6
Continuous
 62
     7
370
    15
100
AcDbLine
 10
2450.5101552704
 20
739.8651105615
 30
0.0
 11
2429.4731138541
 21
745.5825276491
 31
0.0
  0
LINE
  5
2CE
330
1F
100
AcDbEntity
  8
0
  6
Continuous
 62
     7
370
    15
100
AcDbLine
 10
2422.6509844376
 20
747.436636244
 30
0.0
 11
2401.6139430213
 21
753.1540533317
 31
0.0
  0
LINE
  5
2CF
330
1F
100
AcDbEntity
  8
0
  6
Continuous
 62
     7
370
    15
100
AcDbLine
 10
2394.7918136048
 20
755.0081619265
 30
0.0
 11
2373.7547721884
 21
760.7255790142
 31
0.0
  0
LINE
  5
2D0
330
1F
100
AcDbEntity
  8
0
  6
Continuous
 62
     7
370
    15
100
AcDbLine
 10
2366.9326427719
 20
762.5796876091
 30
0.0
 11
2345.8956013556
 21
768.2971046968
 31
0.0
  0
LINE
  5
2D1
330
1F
100
AcDbEntity
  8
0
  6
Continuous
 62
     7
370
    15
100
AcDbLine
 10
2339.0734719391
 20
770.1512132916
 30
0.0
 11
2318.0364305228
 21
775.8686303793
 31
0.0
  0
LINE
  5
2D2
330
1F
100
AcDbEntity
  8
0
  6
Continuous
 62
     7
370
    15
100
AcDbLine
 10
2311.2143011063
 20
777.7227389742
 30
0.0
 11
2290.1772596899
 21
783.4401560619
 31
0.0
  0
LINE
  5
2D3
330
1F
100
AcDbEntity
  8
0
  6
Continuous
 62
     7
370
    15
100
AcDbLine
 10
2283.3551302734
 20
785.2942646567
 30
0.0
 11
2262.3180888571
 21
791.0116817444
 31
0.0
  0
LINE
  5
2D4
330
1F
100
AcDbEntity
  8
0
  6
Continuous
 62
     7
370
    15
100
AcDbLine
 10
2255.4959594406
 20
792.8657903393
 30
0.0
 11
2234.4589180242
 21
798.5832074269
 31
0.0
  0
LINE
  5
2D5
330
1F
100
AcDbEntity
  8
0
  6
Continuous
 62
     7
370
    15
100
AcDbLine
 10
2227.6367886077
 20
800.4373160218
 30
0.0
 11
2206.5997471914
 21
806.1547331095
 31
0.0
  0
LINE
  5
2D6
330
1F
100
AcDbEntity
  8
0
  6
Continuous
 62
     7
370
    15
100
AcDbLine
 10
2199.7776177749
 20
808.0088417043
 30
0.0
 11
2193.9967889575
 21
809.5799471087
 31
0.0
  0
LINE
  5
2D7
330
1F
100
AcDbEntity
  8
0
  6
Continuous
 62
     7
370
    15
100
AcDbLine
 10
2193.9967889575
 20
816.4372855144
 30
0.0
 11
2194.6968320409
 21
817.1205490246
 31
0.0
  0
LINE
  5
2D8
330
1F
100
AcDbEntity
  8
0
  6
Continuous
 62
     7
370
    15
100
AcDbLine
 10
2720.0411963173
 20
674.3432075823
 30
0.0
 11
2194.6968320409
 21
817.1205490246
 31
0.0
  0
LINE
  5
2D9
330
1F
100
AcDbEntity
  8
0
  6
Continuous
 62
     7
370
    15
100
AcDbLine
 10
2179.2958842062
 20
795.2314133944
 30
0.0
 11
2179.2958842062
 21
802.0887518
 31
0.0
  0
LINE
  5
2DA
330
1F
100
AcDbEntity
  8
0
  6
Continuous
 62
     7
370
    15
100
AcDbLine
 10
2704.6402484826
 20
659.3114103578
 30
0.0
 11
2179.2958842062
 21
802.0887518
 31
0.0
  0
LINE
  5
2DB
330
1F
100
AcDbEntity
  8
0
  6
Continuous
 62
     7
370
    15
100
AcDbLine
 10
2699.1447462486
 20
653.947631705
 30
0.0
 11
2693.3639174312
 21
655.5187371094
 31
0.0
  0
LINE
  5
2DC
330
1F
100
AcDbEntity
  8
0
  6
Continuous
 62
     7
370
    15
100
AcDbLine
 10
2686.5417880147
 20
657.3728457042
 30
0.0
 11
2665.5047465984
 21
663.0902627919
 31
0.0
  0
LINE
  5
2DD
330
1F
100
AcDbEntity
  8
0
  6
Continuous
 62
     7
370
    15
100
AcDbLine
 10
2658.6826171819
 20
664.9443713868
 30
0.0
 11
2637.6455757655
 21
670.6617884745
 31
0.0
  0
LINE
  5
2DE
330
1F
100
AcDbEntity
  8
0
  6
Continuous
 62
     7
370
    15
100
AcDbLine
 10
2630.823446349
 20
672.5158970693
 30
0.0
 11
2609.7864049327
 21
678.233314157
 31
0.0
  0
LINE
  5
2DF
330
1F
100
AcDbEntity
  8
0
  6
Continuous
 62
     7
370
    15
100
AcDbLine
 10
2602.9642755162
 20
680.0874227519
 30
0.0
 11
2581.9272340999
 21
685.8048398395
 31
0.0
  0
LINE
  5
2E0
330
1F
100
AcDbEntity
  8
0
  6
Continuous
 62
     7
370
    15
100
AcDbLine
 10
2575.1051046833
 20
687.6589484344
 30
0.0
 11
2554.068063267
 21
693.3763655221
 31
0.0
  0
LINE
  5
2E1
330
1F
100
AcDbEntity
  8
0
  6
Continuous
 62
     7
370
    15
100
AcDbLine
 10
2547.2459338505
 20
695.2304741169
 30
0.0
 11
2526.2088924342
 21
700.9478912046
 31
0.0
  0
LINE
  5
2E2
330
1F
100
AcDbEntity
  8
0
  6
Continuous
 62
     7
370
    15
100
AcDbLine
 10
2519.3867630177
 20
702.8019997995
 30
0.0
 11
2498.3497216013
 21
708.5194168872
 31
0.0
  0
LINE
  5
2E3
330
1F
100
AcDbEntity
  8
0
  6
Continuous
 62
     7
370
    15
100
AcDbLine
 10
2491.5275921848
 20
710.373525482
 30
0.0
 11
2470.4905507685
 21
716.0909425697
 31
0.0
  0
LINE
  5
2E4
330
1F
100
AcDbEntity
  8
0
  6
Continuous
 62
     7
370
    15
100
AcDbLine
 10
2463.668421352
 20
717.9450511646
 30
0.0
 11
2442.6313799357
 21
723.6624682523
 31
0.0
  0
LINE
  5
2E5
330
1F
100
AcDbEntity
  8
0
  6
Continuous
 62
     7
370
    15
100
AcDbLine
 10
2435.8092505191
 20
725.5165768471
 30
0.0
 11
2414.7722091028
 21
731.2339939348
 31
0.0
  0
LINE
  5
2E6
330
1F
100
AcDbEntity
  8
0
  6
Continuous
 62
     7
370
    15
100
AcDbLine
 10
2407.9500796863
 20
733.0881025297
 30
0.0
 11
2386.91303827
 21
738.8055196174
 31
0.0
  0
LINE
  5
2E7
330
1F
100
AcDbEntity
  8
0
  6
Continuous
 62
     7
370
    15
100
AcDbLine
 10
2380.0909088535
 20
740.6596282122
 30
0.0
 11
2359.0538674371
 21
746.3770452999
 31
0.0
  0
LINE
  5
2E8
330
1F
100
AcDbEntity
  8
0
  6
Continuous
 62
     7
370
    15
100
AcDbLine
 10
2352.2317380206
 20
748.2311538948
 30
0.0
 11
2331.1946966043
 21
753.9485709824
 31
0.0
  0
LINE
  5
2E9
330
1F
100
AcDbEntity
  8
0
  6
Continuous
 62
     7
370
    15
100
AcDbLine
 10
2324.3725671878
 20
755.8026795773
 30
0.0
 11
2303.3355257715
 21
761.520096665
 31
0.0
  0
LINE
  5
2EA
330
1F
100
AcDbEntity
  8
0
  6
Continuous
 62
     7
370
    15
100
AcDbLine
 10
2296.513396355
 20
763.3742052598
 30
0.0
 11
2275.4763549386
 21
769.0916223475
 31
0.0
  0
LINE
  5
2EB
330
1F
100
AcDbEntity
  8
0
  6
Continuous
 62
     7
370
    15
100
AcDbLine
 10
2268.6542255221
 20
770.9457309424
 30
0.0
 11
2247.6171841058
 21
776.6631480301
 31
0.0
  0
LINE
  5
2EC
330
1F
100
AcDbEntity
  8
0
  6
Continuous
 62
     7
370
    15
100
AcDbLine
 10
2240.7950546893
 20
778.5172566249
 30
0.0
 11
2219.7580132729
 21
784.2346737126
 31
0.0
  0
LINE
  5
2ED
330
1F
100
AcDbEntity
  8
0
  6
Continuous
 62
     7
370
    15
100
AcDbLine
 10
2212.9358838564
 20
786.0887823075
 30
0.0
 11
2191.8988424401
 21
791.8061993952
 31
0.0
  0
LINE
  5
2EE
330
1F
100
AcDbEntity
  8
0
  6
Continuous
 62
     7
370
    15
100
AcDbLine
 10
2185.0767130236
 20
793.66030799
 30
0.0
 11
2179.2958842062
 21
795.2314133944
 31
0.0
  0
LINE
  5
2EF
330
1F
100
AcDbEntity
  8
0
  6
Continuous
 62
     7
370
    15
100
AcDbLine
 10
2704.6402484826
 20
659.3114103578
 30
0.0
 11
2705.340291566
 21
659.994673868
 31
0.0
  0
LINE
  5
2F0
330
1F
100
AcDbEntity
  8
0
  6
Continuous
 62
     7
370
    15
100
AcDbLine
 10
2179.2958842062
 20
802.0887518
 30
0.0
 11
2179.9959272896
 21
802.7720153102
 31
0.0
  0
LINE
  5
2F1
330
1F
100
AcDbEntity
  8
0
  6
Continuous
 62
     7
370
    15
100
AcDbLine
 10
2705.340291566
 20
659.994673868
 30
0.0
 11
2179.9959272896
 21
802.7720153102
 31
0.0
  0
LINE
  5
2F2
330
1F
100
AcDbEntity
  8
0
  6
Continuous
 62
     7
370
    15
100
AcDbLine
 10
2164.5949794549
 20
780.8828796801
 30
0.0
 11
2164.5949794549
 21
787.7402180857
 31
0.0
  0
LINE
  5
2F3
330
1F
100
AcDbEntity
  8
0
  6
Continuous
 62
     7
370
    15
100
AcDbLine
 10
2689.9393437313
 20
644.9628766434
 30
0.0
 11
2164.5949794549
 21
787.7402180857
 31
0.0
  0
LINE
  5
2F4
330
1F
100
AcDbEntity
  8
0
  6
Continuous
 62
     7
370
    15
100
AcDbLine
 10
2684.4438414973
 20
639.5990979906
 30
0.0
 11
2678.6630126799
 21
641.170203395
 31
0.0
  0
LINE
  5
2F5
330
1F
100
AcDbEntity
  8
0
  6
Continuous
 62
     7
370
    15
100
AcDbLine
 10
2671.8408832634
 20
643.0243119899
 30
0.0
 11
2650.8038418471
 21
648.7417290776
 31
0.0
  0
LINE
  5
2F6
330
1F
100
AcDbEntity
  8
0
  6
Continuous
 62
     7
370
    15
100
AcDbLine
 10
2643.9817124306
 20
650.5958376724
 30
0.0
 11
2622.9446710142
 21
656.3132547601
 31
0.0
  0
LINE
  5
2F7
330
1F
100
AcDbEntity
  8
0
  6
Continuous
 62
     7
370
    15
100
AcDbLine
 10
2616.1225415977
 20
658.167363355
 30
0.0
 11
2595.0855001814
 21
663.8847804427
 31
0.0
  0
LINE
  5
2F8
330
1F
100
AcDbEntity
  8
0
  6
Continuous
 62
     7
370
    15
100
AcDbLine
 10
2588.2633707649
 20
665.7388890375
 30
0.0
 11
2567.2263293486
 21
671.4563061252
 31
0.0
  0
LINE
  5
2F9
330
1F
100
AcDbEntity
  8
0
  6
Continuous
 62
     7
370
    15
100
AcDbLine
 10
2560.404199932
 20
673.3104147201
 30
0.0
 11
2539.3671585157
 21
679.0278318078
 31
0.0
  0
LINE
  5
2FA
330
1F
100
AcDbEntity
  8
0
  6
Continuous
 62
     7
370
    15
100
AcDbLine
 10
2532.5450290992
 20
680.8819404026
 30
0.0
 11
2511.5079876829
 21
686.5993574903
 31
0.0
  0
LINE
  5
2FB
330
1F
100
AcDbEntity
  8
0
  6
Continuous
 62
     7
370
    15
100
AcDbLine
 10
2504.6858582664
 20
688.4534660852
 30
0.0
 11
2483.64881685
 21
694.1708831728
 31
0.0
  0
LINE
  5
2FC
330
1F
100
AcDbEntity
  8
0
  6
Continuous
 62
     7
370
    15
100
AcDbLine
 10
2476.8266874335
 20
696.0249917677
 30
0.0
 11
2455.7896460172
 21
701.7424088554
 31
0.0
  0
LINE
  5
2FD
330
1F
100
AcDbEntity
  8
0
  6
Continuous
 62
     7
370
    15
100
AcDbLine
 10
2448.9675166007
 20
703.5965174502
 30
0.0
 11
2427.9304751844
 21
709.3139345379
 31
0.0
  0
LINE
  5
2FE
330
1F
100
AcDbEntity
  8
0
  6
Continuous
 62
     7
370
    15
100
AcDbLine
 10
2421.1083457679
 20
711.1680431328
 30
0.0
 11
2400.0713043515
 21
716.8854602205
 31
0.0
  0
LINE
  5
2FF
330
1F
100
AcDbEntity
  8
0
  6
Continuous
 62
     7
370
    15
100
AcDbLine
 10
2393.249174935
 20
718.7395688153
 30
0.0
 11
2372.2121335187
 21
724.456985903
 31
0.0
  0
LINE
  5
300
330
1F
100
AcDbEntity
  8
0
  6
Continuous
 62
     7
370
    15
100
AcDbLine
 10
2365.3900041022
 20
726.3110944979
 30
0.0
 11
2344.3529626858
 21
732.0285115856
 31
0.0
  0
LINE
  5
301
330
1F
100
AcDbEntity
  8
0
  6
Continuous
 62
     7
370
    15
100
AcDbLine
 10
2337.5308332693
 20
733.8826201804
 30
0.0
 11
2316.493791853
 21
739.6000372681
 31
0.0
  0
LINE
  5
302
330
1F
100
AcDbEntity
  8
0
  6
Continuous
 62
     7
370
    15
100
AcDbLine
 10
2309.6716624365
 20
741.454145863
 30
0.0
 11
2288.6346210202
 21
747.1715629506
 31
0.0
  0
LINE
  5
303
330
1F
100
AcDbEntity
  8
0
  6
Continuous
 62
     7
370
    15
100
AcDbLine
 10
2281.8124916037
 20
749.0256715455
 30
0.0
 11
2260.7754501873
 21
754.7430886332
 31
0.0
  0
LINE
  5
304
330
1F
100
AcDbEntity
  8
0
  6
Continuous
 62
     7
370
    15
100
AcDbLine
 10
2253.9533207708
 20
756.597197228
 30
0.0
 11
2232.9162793545
 21
762.3146143157
 31
0.0
  0
LINE
  5
305
330
1F
100
AcDbEntity
  8
0
  6
Continuous
 62
     7
370
    15
100
AcDbLine
 10
2226.094149938
 20
764.1687229106
 30
0.0
 11
2205.0571085217
 21
769.8861399983
 31
0.0
  0
LINE
  5
306
330
1F
100
AcDbEntity
  8
0
  6
Continuous
 62
     7
370
    15
100
AcDbLine
 10
2198.2349791051
 20
771.7402485931
 30
0.0
 11
2177.1979376888
 21
777.4576656808
 31
0.0
  0
LINE
  5
307
330
1F
100
AcDbEntity
  8
0
  6
Continuous
 62
     7
370
    15
100
AcDbLine
 10
2170.3758082723
 20
779.3117742757
 30
0.0
 11
2164.5949794549
 21
780.8828796801
 31
0.0
  0
LINE
  5
308
330
1F
100
AcDbEntity
  8
0
  6
Continuous
 62
     7
370
    15
100
AcDbLine
 10
2689.9393437313
 20
644.9628766434
 30
0.0
 11
2690.6393868147
 21
645.6461401536
 31
0.0
  0
LINE
  5
309
330
1F
100
AcDbEntity
  8
0
  6
Continuous
 62
     7
370
    15
100
AcDbLine
 10
2164.5949794549
 20
787.7402180857
 30
0.0
 11
2165.2950225383
 21
788.4234815959
 31
0.0
  0
LINE
  5
30A
330
1F
100
AcDbEntity
  8
0
  6
Continuous
 62
     7
370
    15
100
AcDbLine
 10
2690.6393868147
 20
645.6461401536
 30
0.0
 11
2165.2950225383
 21
788.4234815959
 31
0.0
  0
LINE
  5
30B
330
1F
100
AcDbEntity
  8
0
  6
Continuous
 62
     7
370
    15
100
AcDbLine
 10
2675.23843898
 20
630.6143429291
 30
0.0
 11
2675.9384820634
 21
631.2976064393
 31
0.0
  0
LINE
  5
30C
330
1F
100
AcDbEntity
  8
0
  6
Continuous
 62
     7
370
    15
100
AcDbLine
 10
2149.8940747036
 20
773.3916843714
 30
0.0
 11
2150.594117787
 21
774.0749478816
 31
0.0
  0
LINE
  5
30D
330
1F
100
AcDbEntity
  8
0
  6
Continuous
 62
     7
370
    15
100
AcDbLine
 10
2675.9384820634
 20
631.2976064393
 30
0.0
 11
2150.594117787
 21
774.0749478816
 31
0.0
  0
LINE
  5
30E
330
1F
100
AcDbEntity
  8
0
  6
Continuous
 62
     7
370
    15
100
AcDbLine
 10
2675.23843898
 20
630.6143429291
 30
0.0
 11
2149.8940747036
 21
773.3916843714
 31
0.0
  0
LINE
  5
30F
330
1F
100
AcDbEntity
  8
0
  6
Continuous
 62
     7
370
    15
100
AcDbLine
 10
2149.8940747036
 20
766.5343459657
 30
0.0
 11
2149.8940747036
 21
773.3916843714
 31
0.0
  0
LINE
  5
310
330
1F
100
AcDbEntity
  8
0
  6
Continuous
 62
     7
370
    15
100
AcDbLine
 10
2669.742936746
 20
625.2505642763
 30
0.0
 11
2663.9621079286
 21
626.8216696807
 31
0.0
  0
LINE
  5
311
330
1F
100
AcDbEntity
  8
0
  6
Continuous
 62
     7
370
    15
100
AcDbLine
 10
2657.1399785121
 20
628.6757782756
 30
0.0
 11
2636.1029370958
 21
634.3931953632
 31
0.0
  0
LINE
  5
312
330
1F
100
AcDbEntity
  8
0
  6
Continuous
 62
     7
370
    15
100
AcDbLine
 10
2629.2808076793
 20
636.2473039581
 30
0.0
 11
2608.2437662629
 21
641.9647210458
 31
0.0
  0
LINE
  5
313
330
1F
100
AcDbEntity
  8
0
  6
Continuous
 62
     7
370
    15
100
AcDbLine
 10
2601.4216368464
 20
643.8188296406
 30
0.0
 11
2580.3845954301
 21
649.5362467283
 31
0.0
  0
LINE
  5
314
330
1F
100
AcDbEntity
  8
0
  6
Continuous
 62
     7
370
    15
100
AcDbLine
 10
2573.5624660136
 20
651.3903553232
 30
0.0
 11
2552.5254245973
 21
657.1077724109
 31
0.0
  0
LINE
  5
315
330
1F
100
AcDbEntity
  8
0
  6
Continuous
 62
     7
370
    15
100
AcDbLine
 10
2545.7032951807
 20
658.9618810057
 30
0.0
 11
2524.6662537644
 21
664.6792980934
 31
0.0
  0
LINE
  5
316
330
1F
100
AcDbEntity
  8
0
  6
Continuous
 62
     7
370
    15
100
AcDbLine
 10
2517.8441243479
 20
666.5334066883
 30
0.0
 11
2496.8070829316
 21
672.250823776
 31
0.0
  0
LINE
  5
317
330
1F
100
AcDbEntity
  8
0
  6
Continuous
 62
     7
370
    15
100
AcDbLine
 10
2489.9849535151
 20
674.1049323708
 30
0.0
 11
2468.9479120987
 21
679.8223494585
 31
0.0
  0
LINE
  5
318
330
1F
100
AcDbEntity
  8
0
  6
Continuous
 62
     7
370
    15
100
AcDbLine
 10
2462.1257826822
 20
681.6764580534
 30
0.0
 11
2441.0887412659
 21
687.3938751411
 31
0.0
  0
LINE
  5
319
330
1F
100
AcDbEntity
  8
0
  6
Continuous
 62
     7
370
    15
100
AcDbLine
 10
2434.2666118494
 20
689.2479837359
 30
0.0
 11
2413.2295704331
 21
694.9654008236
 31
0.0
  0
LINE
  5
31A
330
1F
100
AcDbEntity
  8
0
  6
Continuous
 62
     7
370
    15
100
AcDbLine
 10
2406.4074410166
 20
696.8195094185
 30
0.0
 11
2385.3703996002
 21
702.5369265061
 31
0.0
  0
LINE
  5
31B
330
1F
100
AcDbEntity
  8
0
  6
Continuous
 62
     7
370
    15
100
AcDbLine
 10
2378.5482701837
 20
704.391035101
 30
0.0
 11
2357.5112287674
 21
710.1084521887
 31
0.0
  0
LINE
  5
31C
330
1F
100
AcDbEntity
  8
0
  6
Continuous
 62
     7
370
    15
100
AcDbLine
 10
2350.6890993509
 20
711.9625607835
 30
0.0
 11
2329.6520579345
 21
717.6799778712
 31
0.0
  0
LINE
  5
31D
330
1F
100
AcDbEntity
  8
0
  6
Continuous
 62
     7
370
    15
100
AcDbLine
 10
2322.829928518
 20
719.5340864661
 30
0.0
 11
2301.7928871017
 21
725.2515035538
 31
0.0
  0
LINE
  5
31E
330
1F
100
AcDbEntity
  8
0
  6
Continuous
 62
     7
370
    15
100
AcDbLine
 10
2294.9707576852
 20
727.1056121486
 30
0.0
 11
2273.9337162689
 21
732.8230292363
 31
0.0
  0
LINE
  5
31F
330
1F
100
AcDbEntity
  8
0
  6
Continuous
 62
     7
370
    15
100
AcDbLine
 10
2267.1115868524
 20
734.6771378312
 30
0.0
 11
2246.074545436
 21
740.3945549189
 31
0.0
  0
LINE
  5
320
330
1F
100
AcDbEntity
  8
0
  6
Continuous
 62
     7
370
    15
100
AcDbLine
 10
2239.2524160195
 20
742.2486635137
 30
0.0
 11
2218.2153746032
 21
747.9660806014
 31
0.0
  0
LINE
  5
321
330
1F
100
AcDbEntity
  8
0
  6
Continuous
 62
     7
370
    15
100
AcDbLine
 10
2211.3932451867
 20
749.8201891963
 30
0.0
 11
2190.3562037704
 21
755.5376062839
 31
0.0
  0
LINE
  5
322
330
1F
100
AcDbEntity
  8
0
  6
Continuous
 62
     7
370
    15
100
AcDbLine
 10
2183.5340743538
 20
757.3917148788
 30
0.0
 11
2162.4970329375
 21
763.1091319665
 31
0.0
  0
LINE
  5
323
330
1F
100
AcDbEntity
  8
0
  6
Continuous
 62
     7
370
    15
100
AcDbLine
 10
2155.674903521
 20
764.9632405613
 30
0.0
 11
2149.8940747036
 21
766.5343459657
 31
0.0
  0
LINE
  5
324
330
1F
100
AcDbEntity
  8
0
  6
Continuous
 62
     7
370
    15
100
AcDbLine
 10
2213.9501995671
 20
820.1863383723
 30
0.0
 11
2120.8444694755
 21
729.3122915148
 31
0.0
  0
LINE
  5
325
330
1F
100
AcDbEntity
  8
0
  6
Continuous
 62
     7
370
    15
100
AcDbLine
 10
2213.9501995671
 20
818.4720037709
 30
0.0
 11
2213.9501995671
 21
820.1863383723
 31
0.0
  0
LINE
  5
326
330
1F
100
AcDbEntity
  8
0
  6
Continuous
 62
     7
370
    15
100
AcDbLine
 10
2217.917110373
 20
810.8097749243
 30
0.0
 11
2217.917110373
 21
817.3938824144
 31
0.0
  0
LINE
  5
327
330
1F
100
AcDbEntity
  8
0
  6
Continuous
 62
     7
370
    15
100
AcDbLine
 10
2134.5832250605
 20
725.5783921327
 30
0.0
 11
2141.3384767859
 21
732.1717249086
 31
0.0
  0
LINE
  5
328
330
1F
100
AcDbEntity
  8
0
  6
Continuous
 62
     7
370
    15
100
AcDbLine
 10
2147.5340221033
 20
738.2187670716
 30
0.0
 11
2156.0393815372
 21
746.5202586229
 31
0.0
  0
LINE
  5
329
330
1F
100
AcDbEntity
  8
0
  6
Continuous
 62
     7
370
    15
100
AcDbLine
 10
2162.2349268546
 20
752.5673007859
 30
0.0
 11
2170.7402862885
 21
760.8687923372
 31
0.0
  0
LINE
  5
32A
330
1F
100
AcDbEntity
  8
0
  6
Continuous
 62
     7
370
    15
100
AcDbLine
 10
2176.9358316059
 20
766.9158345002
 30
0.0
 11
2185.4411910398
 21
775.2173260516
 31
0.0
  0
LINE
  5
32B
330
1F
100
AcDbEntity
  8
0
  6
Continuous
 62
     7
370
    15
100
AcDbLine
 10
2191.6367363572
 20
781.2643682146
 30
0.0
 11
2200.1420957911
 21
789.5658597659
 31
0.0
  0
LINE
  5
32C
330
1F
100
AcDbEntity
  8
0
  6
Continuous
 62
     7
370
    15
100
AcDbLine
 10
2206.3376411085
 20
795.6129019289
 30
0.0
 11
2214.8430005424
 21
803.9143934802
 31
0.0
  0
LINE
  5
32D
330
1F
100
AcDbEntity
  8
0
  6
Continuous
 62
     7
370
    15
100
AcDbLine
 10
2213.9501995671
 20
820.1863383723
 30
0.0
 11
2212.6235723845
 21
820.5468872143
 31
0.0
  0
LINE
  5
32E
330
1F
100
AcDbEntity
  8
0
  6
Continuous
 62
     7
370
    15
100
AcDbLine
 10
2120.8444694755
 20
729.3122915148
 30
0.0
 11
2119.517842293
 21
729.6728403568
 31
0.0
  0
LINE
  5
32F
330
1F
100
AcDbEntity
  8
0
  6
Continuous
 62
     7
370
    15
100
AcDbLine
 10
2212.6235723845
 20
820.5468872143
 30
0.0
 11
2119.517842293
 21
729.6728403568
 31
0.0
  0
LINE
  5
330
330
1F
100
AcDbEntity
  8
0
  6
Continuous
 62
     7
370
    15
100
AcDbLine
 10
2241.8093703999
 20
812.6148126897
 30
0.0
 11
2148.7036403083
 21
721.7407658323
 31
0.0
  0
LINE
  5
331
330
1F
100
AcDbEntity
  8
0
  6
Continuous
 62
     7
370
    15
100
AcDbLine
 10
2241.8093703999
 20
810.9004780883
 30
0.0
 11
2241.8093703999
 21
812.6148126897
 31
0.0
  0
LINE
  5
332
330
1F
100
AcDbEntity
  8
0
  6
Continuous
 62
     7
370
    15
100
AcDbLine
 10
2245.7762812058
 20
803.2382492417
 30
0.0
 11
2245.7762812058
 21
809.8223567319
 31
0.0
  0
LINE
  5
333
330
1F
100
AcDbEntity
  8
0
  6
Continuous
 62
     7
370
    15
100
AcDbLine
 10
2162.4423958933
 20
718.0068664502
 30
0.0
 11
2169.1976476188
 21
724.600199226
 31
0.0
  0
LINE
  5
334
330
1F
100
AcDbEntity
  8
0
  6
Continuous
 62
     7
370
    15
100
AcDbLine
 10
2175.3931929361
 20
730.647241389
 30
0.0
 11
2183.89855237
 21
738.9487329404
 31
0.0
  0
LINE
  5
335
330
1F
100
AcDbEntity
  8
0
  6
Continuous
 62
     7
370
    15
100
AcDbLine
 10
2190.0940976874
 20
744.9957751034
 30
0.0
 11
2198.5994571213
 21
753.2972666547
 31
0.0
  0
LINE
  5
336
330
1F
100
AcDbEntity
  8
0
  6
Continuous
 62
     7
370
    15
100
AcDbLine
 10
2204.7950024387
 20
759.3443088177
 30
0.0
 11
2213.3003618726
 21
767.645800369
 31
0.0
  0
LINE
  5
337
330
1F
100
AcDbEntity
  8
0
  6
Continuous
 62
     7
370
    15
100
AcDbLine
 10
2219.49590719
 20
773.692842532
 30
0.0
 11
2228.0012666239
 21
781.9943340834
 31
0.0
  0
LINE
  5
338
330
1F
100
AcDbEntity
  8
0
  6
Continuous
 62
     7
370
    15
100
AcDbLine
 10
2234.1968119413
 20
788.0413762464
 30
0.0
 11
2242.7021713752
 21
796.3428677977
 31
0.0
  0
LINE
  5
339
330
1F
100
AcDbEntity
  8
0
  6
Continuous
 62
     7
370
    15
100
AcDbLine
 10
2148.7036403083
 20
721.7407658323
 30
0.0
 11
2147.3770131258
 21
722.1013146743
 31
0.0
  0
LINE
  5
33A
330
1F
100
AcDbEntity
  8
0
  6
Continuous
 62
     7
370
    15
100
AcDbLine
 10
2241.8093703999
 20
812.6148126897
 30
0.0
 11
2240.4827432174
 21
812.9753615318
 31
0.0
  0
LINE
  5
33B
330
1F
100
AcDbEntity
  8
0
  6
Continuous
 62
     7
370
    15
100
AcDbLine
 10
2240.4827432174
 20
812.9753615318
 30
0.0
 11
2147.3770131258
 21
722.1013146743
 31
0.0
  0
LINE
  5
33C
330
1F
100
AcDbEntity
  8
0
  6
Continuous
 62
     7
370
    15
100
AcDbLine
 10
2269.6685412327
 20
805.0432870072
 30
0.0
 11
2176.5628111412
 21
714.1692401497
 31
0.0
  0
LINE
  5
33D
330
1F
100
AcDbEntity
  8
0
  6
Continuous
 62
     7
370
    15
100
AcDbLine
 10
2269.6685412327
 20
803.3289524058
 30
0.0
 11
2269.6685412327
 21
805.0432870072
 31
0.0
  0
LINE
  5
33E
330
1F
100
AcDbEntity
  8
0
  6
Continuous
 62
     7
370
    15
100
AcDbLine
 10
2273.6354520386
 20
795.6667235592
 30
0.0
 11
2273.6354520386
 21
802.2508310494
 31
0.0
  0
LINE
  5
33F
330
1F
100
AcDbEntity
  8
0
  6
Continuous
 62
     7
370
    15
100
AcDbLine
 10
2190.3015667262
 20
710.4353407677
 30
0.0
 11
2197.0568184516
 21
717.0286735435
 31
0.0
  0
LINE
  5
340
330
1F
100
AcDbEntity
  8
0
  6
Continuous
 62
     7
370
    15
100
AcDbLine
 10
2203.252363769
 20
723.0757157065
 30
0.0
 11
2211.7577232029
 21
731.3772072578
 31
0.0
  0
LINE
  5
341
330
1F
100
AcDbEntity
  8
0
  6
Continuous
 62
     7
370
    15
100
AcDbLine
 10
2217.9532685203
 20
737.4242494208
 30
0.0
 11
2226.4586279542
 21
745.7257409722
 31
0.0
  0
LINE
  5
342
330
1F
100
AcDbEntity
  8
0
  6
Continuous
 62
     7
370
    15
100
AcDbLine
 10
2232.6541732716
 20
751.7727831351
 30
0.0
 11
2241.1595327055
 21
760.0742746865
 31
0.0
  0
LINE
  5
343
330
1F
100
AcDbEntity
  8
0
  6
Continuous
 62
     7
370
    15
100
AcDbLine
 10
2247.3550780229
 20
766.1213168495
 30
0.0
 11
2255.8604374568
 21
774.4228084008
 31
0.0
  0
LINE
  5
344
330
1F
100
AcDbEntity
  8
0
  6
Continuous
 62
     7
370
    15
100
AcDbLine
 10
2262.0559827742
 20
780.4698505638
 30
0.0
 11
2270.5613422081
 21
788.7713421152
 31
0.0
  0
LINE
  5
345
330
1F
100
AcDbEntity
  8
0
  6
Continuous
 62
     7
370
    15
100
AcDbLine
 10
2176.5628111412
 20
714.1692401497
 30
0.0
 11
2175.2361839587
 21
714.5297889918
 31
0.0
  0
LINE
  5
346
330
1F
100
AcDbEntity
  8
0
  6
Continuous
 62
     7
370
    15
100
AcDbLine
 10
2269.6685412327
 20
805.0432870072
 30
0.0
 11
2268.3419140502
 21
805.4038358492
 31
0.0
  0
LINE
  5
347
330
1F
100
AcDbEntity
  8
0
  6
Continuous
 62
     7
370
    15
100
AcDbLine
 10
2268.3419140502
 20
805.4038358492
 30
0.0
 11
2175.2361839587
 21
714.5297889918
 31
0.0
  0
LINE
  5
348
330
1F
100
AcDbEntity
  8
0
  6
Continuous
 62
     7
370
    15
100
AcDbLine
 10
2297.5277120656
 20
797.4717613246
 30
0.0
 11
2204.421981974
 21
706.5977144672
 31
0.0
  0
LINE
  5
349
330
1F
100
AcDbEntity
  8
0
  6
Continuous
 62
     7
370
    15
100
AcDbLine
 10
2297.5277120656
 20
795.7574267232
 30
0.0
 11
2297.5277120656
 21
797.4717613246
 31
0.0
  0
LINE
  5
34A
330
1F
100
AcDbEntity
  8
0
  6
Continuous
 62
     7
370
    15
100
AcDbLine
 10
2301.4946228715
 20
788.0951978767
 30
0.0
 11
2301.4946228715
 21
794.6793053668
 31
0.0
  0
LINE
  5
34B
330
1F
100
AcDbEntity
  8
0
  6
Continuous
 62
     7
370
    15
100
AcDbLine
 10
2218.160737559
 20
702.8638150851
 30
0.0
 11
2224.9159892844
 21
709.4571478609
 31
0.0
  0
LINE
  5
34C
330
1F
100
AcDbEntity
  8
0
  6
Continuous
 62
     7
370
    15
100
AcDbLine
 10
2231.1115346018
 20
715.5041900239
 30
0.0
 11
2239.6168940357
 21
723.8056815753
 31
0.0
  0
LINE
  5
34D
330
1F
100
AcDbEntity
  8
0
  6
Continuous
 62
     7
370
    15
100
AcDbLine
 10
2245.8124393531
 20
729.8527237383
 30
0.0
 11
2254.317798787
 21
738.1542152896
 31
0.0
  0
LINE
  5
34E
330
1F
100
AcDbEntity
  8
0
  6
Continuous
 62
     7
370
    15
100
AcDbLine
 10
2260.5133441044
 20
744.2012574526
 30
0.0
 11
2269.0187035383
 21
752.5027490039
 31
0.0
  0
LINE
  5
34F
330
1F
100
AcDbEntity
  8
0
  6
Continuous
 62
     7
370
    15
100
AcDbLine
 10
2275.2142488557
 20
758.5497911669
 30
0.0
 11
2283.7196082896
 21
766.8512827183
 31
0.0
  0
LINE
  5
350
330
1F
100
AcDbEntity
  8
0
  6
Continuous
 62
     7
370
    15
100
AcDbLine
 10
2289.915153607
 20
772.8983248813
 30
0.0
 11
2298.4205130409
 21
781.1998164326
 31
0.0
  0
LINE
  5
351
330
1F
100
AcDbEntity
  8
0
  6
Continuous
 62
     7
370
    15
100
AcDbLine
 10
2297.5277120656
 20
797.4717613246
 30
0.0
 11
2296.2010848831
 21
797.8323101667
 31
0.0
  0
LINE
  5
352
330
1F
100
AcDbEntity
  8
0
  6
Continuous
 62
     7
370
    15
100
AcDbLine
 10
2204.421981974
 20
706.5977144672
 30
0.0
 11
2203.0953547915
 21
706.9582633092
 31
0.0
  0
LINE
  5
353
330
1F
100
AcDbEntity
  8
0
  6
Continuous
 62
     7
370
    15
100
AcDbLine
 10
2296.2010848831
 20
797.8323101667
 30
0.0
 11
2203.0953547915
 21
706.9582633092
 31
0.0
  0
LINE
  5
354
330
1F
100
AcDbEntity
  8
0
  6
Continuous
 62
     7
370
    15
100
AcDbLine
 10
2325.3868828984
 20
789.9002356421
 30
0.0
 11
2232.2811528069
 21
699.0261887846
 31
0.0
  0
LINE
  5
355
330
1F
100
AcDbEntity
  8
0
  6
Continuous
 62
     7
370
    15
100
AcDbLine
 10
2325.3868828984
 20
788.1859010407
 30
0.0
 11
2325.3868828984
 21
789.9002356421
 31
0.0
  0
LINE
  5
356
330
1F
100
AcDbEntity
  8
0
  6
Continuous
 62
     7
370
    15
100
AcDbLine
 10
2329.3537937043
 20
780.5236721941
 30
0.0
 11
2329.3537937043
 21
787.1077796843
 31
0.0
  0
LINE
  5
357
330
1F
100
AcDbEntity
  8
0
  6
Continuous
 62
     7
370
    15
100
AcDbLine
 10
2246.0199083918
 20
695.2922894026
 30
0.0
 11
2252.7751601173
 21
701.8856221784
 31
0.0
  0
LINE
  5
358
330
1F
100
AcDbEntity
  8
0
  6
Continuous
 62
     7
370
    15
100
AcDbLine
 10
2258.9707054347
 20
707.9326643414
 30
0.0
 11
2267.4760648686
 21
716.2341558927
 31
0.0
  0
LINE
  5
359
330
1F
100
AcDbEntity
  8
0
  6
Continuous
 62
     7
370
    15
100
AcDbLine
 10
2273.671610186
 20
722.2811980557
 30
0.0
 11
2282.1769696199
 21
730.5826896071
 31
0.0
  0
LINE
  5
35A
330
1F
100
AcDbEntity
  8
0
  6
Continuous
 62
     7
370
    15
100
AcDbLine
 10
2288.3725149372
 20
736.6297317701
 30
0.0
 11
2296.8778743712
 21
744.9312233214
 31
0.0
  0
LINE
  5
35B
330
1F
100
AcDbEntity
  8
0
  6
Continuous
 62
     7
370
    15
100
AcDbLine
 10
2303.0734196885
 20
750.9782654844
 30
0.0
 11
2311.5787791225
 21
759.2797570357
 31
0.0
  0
LINE
  5
35C
330
1F
100
AcDbEntity
  8
0
  6
Continuous
 62
     7
370
    15
100
AcDbLine
 10
2317.7743244398
 20
765.3267991987
 30
0.0
 11
2326.2796838738
 21
773.6282907501
 31
0.0
  0
LINE
  5
35D
330
1F
100
AcDbEntity
  8
0
  6
Continuous
 62
     7
370
    15
100
AcDbLine
 10
2232.2811528069
 20
699.0261887846
 30
0.0
 11
2230.9545256243
 21
699.3867376267
 31
0.0
  0
LINE
  5
35E
330
1F
100
AcDbEntity
  8
0
  6
Continuous
 62
     7
370
    15
100
AcDbLine
 10
2325.3868828984
 20
789.9002356421
 30
0.0
 11
2324.0602557159
 21
790.2607844841
 31
0.0
  0
LINE
  5
35F
330
1F
100
AcDbEntity
  8
0
  6
Continuous
 62
     7
370
    15
100
AcDbLine
 10
2324.0602557159
 20
790.2607844841
 30
0.0
 11
2230.9545256243
 21
699.3867376267
 31
0.0
  0
LINE
  5
360
330
1F
100
AcDbEntity
  8
0
  6
Continuous
 62
     7
370
    15
100
AcDbLine
 10
2715.4152745582
 20
683.8988760865
 30
0.0
 11
2622.3095444666
 21
593.024829229
 31
0.0
  0
LINE
  5
361
330
1F
100
AcDbEntity
  8
0
  6
Continuous
 62
     7
370
    15
100
AcDbLine
 10
2715.4152745582
 20
682.1845414851
 30
0.0
 11
2715.4152745582
 21
683.8988760865
 31
0.0
  0
LINE
  5
362
330
1F
100
AcDbEntity
  8
0
  6
Continuous
 62
     7
370
    15
100
AcDbLine
 10
2719.3821853641
 20
674.5223126385
 30
0.0
 11
2719.3821853641
 21
681.1064201287
 31
0.0
  0
LINE
  5
363
330
1F
100
AcDbEntity
  8
0
  6
Continuous
 62
     7
370
    15
100
AcDbLine
 10
2715.4152745582
 20
683.8988760865
 30
0.0
 11
2714.0886473756
 21
684.2594249285
 31
0.0
  0
LINE
  5
364
330
1F
100
AcDbEntity
  8
0
  6
Continuous
 62
     7
370
    15
100
AcDbLine
 10
2622.3095444666
 20
593.024829229
 30
0.0
 11
2620.9829172841
 21
593.3853780711
 31
0.0
  0
LINE
  5
365
330
1F
100
AcDbEntity
  8
0
  6
Continuous
 62
     7
370
    15
100
AcDbLine
 10
2714.0886473756
 20
684.2594249285
 30
0.0
 11
2620.9829172841
 21
593.3853780711
 31
0.0
  0
LINE
  5
366
330
1F
100
AcDbEntity
  8
0
  6
Continuous
 62
     7
370
    15
100
AcDbLine
 10
2687.5561037253
 20
691.470401769
 30
0.0
 11
2594.4503736338
 21
600.5963549116
 31
0.0
  0
LINE
  5
367
330
1F
100
AcDbEntity
  8
0
  6
Continuous
 62
     7
370
    15
100
AcDbLine
 10
2687.5561037253
 20
689.7560671676
 30
0.0
 11
2687.5561037253
 21
691.470401769
 31
0.0
  0
LINE
  5
368
330
1F
100
AcDbEntity
  8
0
  6
Continuous
 62
     7
370
    15
100
AcDbLine
 10
2691.5230145312
 20
682.093838321
 30
0.0
 11
2691.5230145312
 21
688.6779458112
 31
0.0
  0
LINE
  5
369
330
1F
100
AcDbEntity
  8
0
  6
Continuous
 62
     7
370
    15
100
AcDbLine
 10
2608.1891292188
 20
596.8624555295
 30
0.0
 11
2614.9443809442
 21
603.4557883053
 31
0.0
  0
LINE
  5
36A
330
1F
100
AcDbEntity
  8
0
  6
Continuous
 62
     7
370
    15
100
AcDbLine
 10
2621.1399262616
 20
609.5028304683
 30
0.0
 11
2629.6452856955
 21
617.8043220197
 31
0.0
  0
LINE
  5
36B
330
1F
100
AcDbEntity
  8
0
  6
Continuous
 62
     7
370
    15
100
AcDbLine
 10
2635.8408310129
 20
623.8513641827
 30
0.0
 11
2644.3461904468
 21
632.152855734
 31
0.0
  0
LINE
  5
36C
330
1F
100
AcDbEntity
  8
0
  6
Continuous
 62
     7
370
    15
100
AcDbLine
 10
2650.5417357642
 20
638.199897897
 30
0.0
 11
2659.0470951981
 21
646.5013894483
 31
0.0
  0
LINE
  5
36D
330
1F
100
AcDbEntity
  8
0
  6
Continuous
 62
     7
370
    15
100
AcDbLine
 10
2665.2426405155
 20
652.5484316113
 30
0.0
 11
2673.7479999494
 21
660.8499231627
 31
0.0
  0
LINE
  5
36E
330
1F
100
AcDbEntity
  8
0
  6
Continuous
 62
     7
370
    15
100
AcDbLine
 10
2679.9435452667
 20
666.8969653257
 30
0.0
 11
2688.4489047007
 21
675.198456877
 31
0.0
  0
LINE
  5
36F
330
1F
100
AcDbEntity
  8
0
  6
Continuous
 62
     7
370
    15
100
AcDbLine
 10
2687.5561037253
 20
691.470401769
 30
0.0
 11
2686.2294765428
 21
691.8309506111
 31
0.0
  0
LINE
  5
370
330
1F
100
AcDbEntity
  8
0
  6
Continuous
 62
     7
370
    15
100
AcDbLine
 10
2594.4503736338
 20
600.5963549116
 30
0.0
 11
2593.1237464513
 21
600.9569037536
 31
0.0
  0
LINE
  5
371
330
1F
100
AcDbEntity
  8
0
  6
Continuous
 62
     7
370
    15
100
AcDbLine
 10
2686.2294765428
 20
691.8309506111
 30
0.0
 11
2593.1237464513
 21
600.9569037536
 31
0.0
  0
LINE
  5
372
330
1F
100
AcDbEntity
  8
0
  6
Continuous
 62
     7
370
    15
100
AcDbLine
 10
2659.6969328925
 20
699.0419274516
 30
0.0
 11
2566.5912028009
 21
608.1678805941
 31
0.0
  0
LINE
  5
373
330
1F
100
AcDbEntity
  8
0
  6
Continuous
 62
     7
370
    15
100
AcDbLine
 10
2659.6969328925
 20
697.3275928502
 30
0.0
 11
2659.6969328925
 21
699.0419274516
 31
0.0
  0
LINE
  5
374
330
1F
100
AcDbEntity
  8
0
  6
Continuous
 62
     7
370
    15
100
AcDbLine
 10
2663.6638436984
 20
689.6653640036
 30
0.0
 11
2663.6638436984
 21
696.2494714937
 31
0.0
  0
LINE
  5
375
330
1F
100
AcDbEntity
  8
0
  6
Continuous
 62
     7
370
    15
100
AcDbLine
 10
2580.3299583859
 20
604.4339812121
 30
0.0
 11
2587.0852101113
 21
611.0273139879
 31
0.0
  0
LINE
  5
376
330
1F
100
AcDbEntity
  8
0
  6
Continuous
 62
     7
370
    15
100
AcDbLine
 10
2593.2807554287
 20
617.0743561509
 30
0.0
 11
2601.7861148626
 21
625.3758477022
 31
0.0
  0
LINE
  5
377
330
1F
100
AcDbEntity
  8
0
  6
Continuous
 62
     7
370
    15
100
AcDbLine
 10
2607.98166018
 20
631.4228898652
 30
0.0
 11
2616.4870196139
 21
639.7243814165
 31
0.0
  0
LINE
  5
378
330
1F
100
AcDbEntity
  8
0
  6
Continuous
 62
     7
370
    15
100
AcDbLine
 10
2622.6825649313
 20
645.7714235795
 30
0.0
 11
2631.1879243652
 21
654.0729151309
 31
0.0
  0
LINE
  5
379
330
1F
100
AcDbEntity
  8
0
  6
Continuous
 62
     7
370
    15
100
AcDbLine
 10
2637.3834696826
 20
660.1199572939
 30
0.0
 11
2645.8888291165
 21
668.4214488452
 31
0.0
  0
LINE
  5
37A
330
1F
100
AcDbEntity
  8
0
  6
Continuous
 62
     7
370
    15
100
AcDbLine
 10
2652.0843744339
 20
674.4684910082
 30
0.0
 11
2660.5897338678
 21
682.7699825595
 31
0.0
  0
LINE
  5
37B
330
1F
100
AcDbEntity
  8
0
  6
Continuous
 62
     7
370
    15
100
AcDbLine
 10
2659.6969328925
 20
699.0419274516
 30
0.0
 11
2658.37030571
 21
699.4024762936
 31
0.0
  0
LINE
  5
37C
330
1F
100
AcDbEntity
  8
0
  6
Continuous
 62
     7
370
    15
100
AcDbLine
 10
2566.5912028009
 20
608.1678805941
 30
0.0
 11
2565.2645756184
 21
608.5284294362
 31
0.0
  0
LINE
  5
37D
330
1F
100
AcDbEntity
  8
0
  6
Continuous
 62
     7
370
    15
100
AcDbLine
 10
2658.37030571
 20
699.4024762936
 30
0.0
 11
2565.2645756184
 21
608.5284294362
 31
0.0
  0
LINE
  5
37E
330
1F
100
AcDbEntity
  8
0
  6
Continuous
 62
     7
370
    15
100
AcDbLine
 10
2631.8377620596
 20
706.6134531341
 30
0.0
 11
2538.7320319681
 21
615.7394062767
 31
0.0
  0
LINE
  5
37F
330
1F
100
AcDbEntity
  8
0
  6
Continuous
 62
     7
370
    15
100
AcDbLine
 10
2631.8377620596
 20
704.8991185327
 30
0.0
 11
2631.8377620596
 21
706.6134531341
 31
0.0
  0
LINE
  5
380
330
1F
100
AcDbEntity
  8
0
  6
Continuous
 62
     7
370
    15
100
AcDbLine
 10
2635.8046728655
 20
697.2368896861
 30
0.0
 11
2635.8046728655
 21
703.8209971763
 31
0.0
  0
LINE
  5
381
330
1F
100
AcDbEntity
  8
0
  6
Continuous
 62
     7
370
    15
100
AcDbLine
 10
2552.4707875531
 20
612.0055068946
 30
0.0
 11
2559.2260392785
 21
618.5988396704
 31
0.0
  0
LINE
  5
382
330
1F
100
AcDbEntity
  8
0
  6
Continuous
 62
     7
370
    15
100
AcDbLine
 10
2565.4215845959
 20
624.6458818334
 30
0.0
 11
2573.9269440298
 21
632.9473733848
 31
0.0
  0
LINE
  5
383
330
1F
100
AcDbEntity
  8
0
  6
Continuous
 62
     7
370
    15
100
AcDbLine
 10
2580.1224893472
 20
638.9944155477
 30
0.0
 11
2588.6278487811
 21
647.2959070991
 31
0.0
  0
LINE
  5
384
330
1F
100
AcDbEntity
  8
0
  6
Continuous
 62
     7
370
    15
100
AcDbLine
 10
2594.8233940985
 20
653.3429492621
 30
0.0
 11
2603.3287535324
 21
661.6444408134
 31
0.0
  0
LINE
  5
385
330
1F
100
AcDbEntity
  8
0
  6
Continuous
 62
     7
370
    15
100
AcDbLine
 10
2609.5242988498
 20
667.6914829764
 30
0.0
 11
2618.0296582837
 21
675.9929745278
 31
0.0
  0
LINE
  5
386
330
1F
100
AcDbEntity
  8
0
  6
Continuous
 62
     7
370
    15
100
AcDbLine
 10
2624.2252036011
 20
682.0400166908
 30
0.0
 11
2632.730563035
 21
690.3415082421
 31
0.0
  0
LINE
  5
387
330
1F
100
AcDbEntity
  8
0
  6
Continuous
 62
     7
370
    15
100
AcDbLine
 10
2631.8377620596
 20
706.6134531341
 30
0.0
 11
2630.5111348771
 21
706.9740019761
 31
0.0
  0
LINE
  5
388
330
1F
100
AcDbEntity
  8
0
  6
Continuous
 62
     7
370
    15
100
AcDbLine
 10
2538.7320319681
 20
615.7394062767
 30
0.0
 11
2537.4054047856
 21
616.0999551187
 31
0.0
  0
LINE
  5
389
330
1F
100
AcDbEntity
  8
0
  6
Continuous
 62
     7
370
    15
100
AcDbLine
 10
2630.5111348771
 20
706.9740019761
 30
0.0
 11
2537.4054047856
 21
616.0999551187
 31
0.0
  0
LINE
  5
38A
330
1F
100
AcDbEntity
  8
0
  6
Continuous
 62
     7
370
    15
100
AcDbLine
 10
2603.9785912268
 20
714.1849788167
 30
0.0
 11
2510.8728611353
 21
623.3109319592
 31
0.0
  0
LINE
  5
38B
330
1F
100
AcDbEntity
  8
0
  6
Continuous
 62
     7
370
    15
100
AcDbLine
 10
2603.9785912268
 20
712.4706442153
 30
0.0
 11
2603.9785912268
 21
714.1849788167
 31
0.0
  0
LINE
  5
38C
330
1F
100
AcDbEntity
  8
0
  6
Continuous
 62
     7
370
    15
100
AcDbLine
 10
2607.9455020327
 20
704.8084153687
 30
0.0
 11
2607.9455020327
 21
711.3925228588
 31
0.0
  0
LINE
  5
38D
330
1F
100
AcDbEntity
  8
0
  6
Continuous
 62
     7
370
    15
100
AcDbLine
 10
2524.6116167202
 20
619.5770325771
 30
0.0
 11
2531.3668684457
 21
626.170365353
 31
0.0
  0
LINE
  5
38E
330
1F
100
AcDbEntity
  8
0
  6
Continuous
 62
     7
370
    15
100
AcDbLine
 10
2537.562413763
 20
632.217407516
 30
0.0
 11
2546.067773197
 21
640.5188990673
 31
0.0
  0
LINE
  5
38F
330
1F
100
AcDbEntity
  8
0
  6
Continuous
 62
     7
370
    15
100
AcDbLine
 10
2552.2633185143
 20
646.5659412303
 30
0.0
 11
2560.7686779482
 21
654.8674327816
 31
0.0
  0
LINE
  5
390
330
1F
100
AcDbEntity
  8
0
  6
Continuous
 62
     7
370
    15
100
AcDbLine
 10
2566.9642232656
 20
660.9144749446
 30
0.0
 11
2575.4695826995
 21
669.215966496
 31
0.0
  0
LINE
  5
391
330
1F
100
AcDbEntity
  8
0
  6
Continuous
 62
     7
370
    15
100
AcDbLine
 10
2581.6651280169
 20
675.263008659
 30
0.0
 11
2590.1704874508
 21
683.5645002103
 31
0.0
  0
LINE
  5
392
330
1F
100
AcDbEntity
  8
0
  6
Continuous
 62
     7
370
    15
100
AcDbLine
 10
2596.3660327682
 20
689.6115423733
 30
0.0
 11
2604.8713922021
 21
697.9130339246
 31
0.0
  0
LINE
  5
393
330
1F
100
AcDbEntity
  8
0
  6
Continuous
 62
     7
370
    15
100
AcDbLine
 10
2603.9785912268
 20
714.1849788167
 30
0.0
 11
2602.6519640443
 21
714.5455276587
 31
0.0
  0
LINE
  5
394
330
1F
100
AcDbEntity
  8
0
  6
Continuous
 62
     7
370
    15
100
AcDbLine
 10
2510.8728611353
 20
623.3109319592
 30
0.0
 11
2509.5462339527
 21
623.6714808012
 31
0.0
  0
LINE
  5
395
330
1F
100
AcDbEntity
  8
0
  6
Continuous
 62
     7
370
    15
100
AcDbLine
 10
2602.6519640443
 20
714.5455276587
 30
0.0
 11
2509.5462339527
 21
623.6714808012
 31
0.0
  0
LWPOLYLINE
  5
396
330
1F
100
AcDbEntity
  8
0
  6
Continuous
 62
     7
370
    15
100
AcDbPolyline
 90
       18
 70
   128
 43
0.0
 10
2611.9294366525
 20
589.9608980583
 10
2611.5719510527
 20
589.5025301515
 10
2611.3301883031
 20
588.7831507274
 10
2611.4433785713
 20
588.0554058068
 10
2611.9044096965
 20
587.3650222796
 10
2612.6843133976
 20
586.7553794817
 10
2613.7340854567
 20
586.2647835124
 10
2614.9877648346
 20
585.9240603206
 10
2616.3665782452
 20
585.7546187976
 10
2617.7838897711
 20
585.7671055773
 10
2619.1506445165
 20
585.9607360697
 10
2620.3809642542
 20
586.3233437585
 10
2621.3975434704
 20
586.8321446693
 10
2622.1365067541
 20
587.4551689696
 10
2622.5514223245
 20
588.1532697511
 10
2622.6162195104
 20
588.8825827745
 10
2622.3268268662
 20
589.5972826201
 10
2622.0291173196
 20
589.9608980583
  0
LWPOLYLINE
  5
397
330
1F
100
AcDbEntity
  8
0
  6
Continuous
 62
     7
370
    15
100
AcDbPolyline
 90
       18
 70
   128
 43
0.0
 10
2558.8643493519
 20
604.3828517393
 10
2558.5068637521
 20
603.9244838325
 10
2558.2651010025
 20
603.2051044084
 10
2558.3782912707
 20
602.4773594879
 10
2558.8393223959
 20
601.7869759606
 10
2559.619226097
 20
601.1773331628
 10
2560.6689981561
 20
600.6867371934
 10
2561.9226775339
 20
600.3460140016
 10
2563.3014909446
 20
600.1765724786
 10
2564.7188024704
 20
600.1890592584
 10
2566.0855572158
 20
600.3826897507
 10
2567.3158769536
 20
600.7452974396
 10
2568.3324561697
 20
601.2540983504
 10
2569.0714194534
 20
601.8771226506
 10
2569.4863350238
 20
602.5752234322
 10
2569.5511322097
 20
603.3045364555
 10
2569.2617395656
 20
604.0192363012
 10
2568.9640300189
 20
604.3828517393
  0
LWPOLYLINE
  5
398
330
1F
100
AcDbEntity
  8
0
  6
Continuous
 62
     7
370
    15
100
AcDbPolyline
 90
       18
 70
   128
 43
0.0
 10
2505.7992620512
 20
618.8048054203
 10
2505.4417764515
 20
618.3464375135
 10
2505.2000137018
 20
617.6270580895
 10
2505.31320397
 20
616.8993131689
 10
2505.7742350952
 20
616.2089296416
 10
2506.5541387963
 20
615.5992868438
 10
2507.6039108554
 20
615.1086908745
 10
2508.8575902333
 20
614.7679676827
 10
2510.2364036439
 20
614.5985261596
 10
2511.6537151698
 20
614.6110129394
 10
2513.0204699152
 20
614.8046434317
 10
2514.2507896529
 20
615.1672511206
 10
2515.2673688691
 20
615.6760520314
 10
2516.0063321528
 20
616.2990763316
 10
2516.4212477232
 20
616.9971771132
 10
2516.4860449091
 20
617.7264901365
 10
2516.1966522649
 20
618.4411899822
 10
2515.8989427183
 20
618.8048054203
  0
LWPOLYLINE
  5
399
330
1F
100
AcDbEntity
  8
0
  6
Continuous
 62
     7
370
    15
100
AcDbPolyline
 90
       18
 70
   128
 43
0.0
 10
2452.7341747506
 20
633.2267591014
 10
2452.3766891508
 20
632.7683911946
 10
2452.1349264012
 20
632.0490117705
 10
2452.2481166694
 20
631.3212668499
 10
2452.7091477946
 20
630.6308833227
 10
2453.4890514957
 20
630.0212405248
 10
2454.5388235548
 20
629.5306445555
 10
2455.7925029326
 20
629.1899213637
 10
2457.1713163433
 20
629.0204798407
 10
2458.5886278691
 20
629.0329666204
 10
2459.9553826145
 20
629.2265971128
 10
2461.1857023523
 20
629.5892048016
 10
2462.2022815684
 20
630.0980057124
 10
2462.9412448521
 20
630.7210300127
 10
2463.3561604225
 20
631.4191307942
 10
2463.4209576084
 20
632.1484438176
 10
2463.1315649643
 20
632.8631436632
 10
2462.8338554176
 20
633.2267591014
  0
LWPOLYLINE
  5
39A
330
1F
100
AcDbEntity
  8
0
  6
Continuous
 62
     7
370
    15
100
AcDbPolyline
 90
       18
 70
   128
 43
0.0
 10
2399.6690874499
 20
647.6487127824
 10
2399.3116018502
 20
647.1903448756
 10
2399.0698391005
 20
646.4709654515
 10
2399.1830293687
 20
645.743220531
 10
2399.6440604939
 20
645.0528370037
 10
2400.423964195
 20
644.4431942059
 10
2401.4737362541
 20
643.9525982365
 10
2402.727415632
 20
643.6118750447
 10
2404.1062290426
 20
643.4424335217
 10
2405.5235405685
 20
643.4549203015
 10
2406.8902953139
 20
643.6485507938
 10
2408.1206150516
 20
644.0111584827
 10
2409.1371942678
 20
644.5199593935
 10
2409.8761575515
 20
645.1429836937
 10
2410.2910731219
 20
645.8410844753
 10
2410.3558703078
 20
646.5703974986
 10
2410.0664776636
 20
647.2850973443
 10
2409.768768117
 20
647.6487127824
  0
LWPOLYLINE
  5
39B
330
1F
100
AcDbEntity
  8
0
  6
Continuous
 62
     7
370
    15
100
AcDbPolyline
 90
       18
 70
   128
 43
0.0
 10
2134.3436509467
 20
719.7584811876
 10
2133.9861653469
 20
719.3001132808
 10
2133.7444025973
 20
718.5807338567
 10
2133.8575928655
 20
717.8529889361
 10
2134.3186239907
 20
717.1626054089
 10
2135.0985276918
 20
716.5529626111
 10
2136.1482997509
 20
716.0623666417
 10
2137.4019791288
 20
715.7216434499
 10
2138.7807925394
 20
715.5522019269
 10
2140.1981040652
 20
715.5646887067
 10
2141.5648588107
 20
715.758319199
 10
2142.7951785484
 20
716.1209268879
 10
2143.8117577646
 20
716.6297277986
 10
2144.5507210483
 20
717.2527520989
 10
2144.9656366187
 20
717.9508528804
 10
2145.0304338046
 20
718.6801659038
 10
2144.7410411604
 20
719.3948657494
 10
2144.4433316138
 20
719.7584811876
  0
LWPOLYLINE
  5
39C
330
1F
100
AcDbEntity
  8
0
  6
Continuous
 62
     7
370
    15
100
AcDbPolyline
 90
       18
 70
   128
 43
0.0
 10
2187.4087382474
 20
705.3365275065
 10
2187.0512526476
 20
704.8781595997
 10
2186.8094898979
 20
704.1587801757
 10
2186.9226801662
 20
703.4310352551
 10
2187.3837112914
 20
702.7406517279
 10
2188.1636149924
 20
702.13100893
 10
2189.2133870515
 20
701.6404129607
 10
2190.4670664294
 20
701.2996897689
 10
2191.84587984
 20
701.1302482458
 10
2193.2631913659
 20
701.1427350256
 10
2194.6299461113
 20
701.3363655179
 10
2195.8602658491
 20
701.6989732068
 10
2196.8768450652
 20
702.2077741176
 10
2197.6158083489
 20
702.8307984178
 10
2198.0307239193
 20
703.5288991994
 10
2198.0955211052
 20
704.2582122227
 10
2197.8061284611
 20
704.9729120684
 10
2197.5084189144
 20
705.3365275065
  0
LWPOLYLINE
  5
39D
330
1F
100
AcDbEntity
  8
0
  6
Continuous
 62
     7
370
    15
100
AcDbPolyline
 90
       18
 70
   128
 43
0.0
 10
2240.473825548
 20
690.9145738255
 10
2240.1163399482
 20
690.4562059187
 10
2239.8745771986
 20
689.7368264946
 10
2239.9877674668
 20
689.0090815741
 10
2240.448798592
 20
688.3186980468
 10
2241.2287022931
 20
687.709055249
 10
2242.2784743522
 20
687.2184592796
 10
2243.5321537301
 20
686.8777360878
 10
2244.9109671407
 20
686.7082945648
 10
2246.3282786665
 20
686.7207813446
 10
2247.695033412
 20
686.9144118369
 10
2248.9253531497
 20
687.2770195258
 10
2249.9419323659
 20
687.7858204366
 10
2250.6808956496
 20
688.4088447368
 10
2251.09581122
 20
689.1069455184
 10
2251.1606084058
 20
689.8362585417
 10
2250.8712157617
 20
690.5509583874
 10
2250.5735062151
 20
690.9145738255
  0
LWPOLYLINE
  5
39E
330
1F
100
AcDbEntity
  8
0
  6
Continuous
 62
     7
370
    15
100
AcDbPolyline
 90
       18
 70
   128
 43
0.0
 10
2293.5389128486
 20
676.4926201445
 10
2293.1814272489
 20
676.0342522377
 10
2292.9396644992
 20
675.3148728136
 10
2293.0528547674
 20
674.587127893
 10
2293.5138858927
 20
673.8967443658
 10
2294.2937895937
 20
673.2871015679
 10
2295.3435616528
 20
672.7965055986
 10
2296.5972410307
 20
672.4557824068
 10
2297.9760544413
 20
672.2863408838
 10
2299.3933659672
 20
672.2988276636
 10
2300.7601207126
 20
672.4924581559
 10
2301.9904404503
 20
672.8550658448
 10
2303.0070196665
 20
673.3638667555
 10
2303.7459829502
 20
673.9868910558
 10
2304.1608985206
 20
674.6849918373
 10
2304.2256957065
 20
675.4143048607
 10
2303.9363030623
 20
676.1290047063
 10
2303.6385935157
 20
676.4926201445
  0
LWPOLYLINE
  5
39F
330
1F
100
AcDbEntity
  8
0
  6
Continuous
 62
     7
370
    15
100
AcDbPolyline
 90
       18
 70
   128
 43
0.0
 10
2346.6040001493
 20
662.0706664634
 10
2346.2465145495
 20
661.6122985566
 10
2346.0047517999
 20
660.8929191326
 10
2346.1179420681
 20
660.165174212
 10
2346.5789731933
 20
659.4747906848
 10
2347.3588768944
 20
658.8651478869
 10
2348.4086489535
 20
658.3745519176
 10
2349.6623283314
 20
658.0338287258
 10
2351.041141742
 20
657.8643872027
 10
2352.4584532678
 20
657.8768739825
 10
2353.8252080132
 20
658.0705044748
 10
2355.055527751
 20
658.4331121637
 10
2356.0721069671
 20
658.9419130745
 10
2356.8110702508
 20
659.5649373747
 10
2357.2259858213
 20
660.2630381563
 10
2357.2907830071
 20
660.9923511796
 10
2357.001390363
 20
661.7070510253
 10
2356.7036808163
 20
662.0706664634
  0
LWPOLYLINE
  5
3A0
330
1F
100
AcDbEntity
  8
0
  6
Continuous
 62
     7
370
    15
100
AcDbPolyline
 90
       18
 70
   128
 43
0.0
 10
2605.4225187876
 20
588.6507475684
 10
2605.7202283343
 20
588.2871321303
 10
2606.0096209784
 20
587.5724322847
 10
2605.9448237925
 20
586.8431192613
 10
2605.5299082221
 20
586.1450184797
 10
2604.7909449384
 20
585.5219941795
 10
2603.7743657223
 20
585.0131932687
 10
2602.5440459845
 20
584.6505855798
 10
2601.1772912391
 20
584.4569550875
 10
2599.7599797133
 20
584.4444683077
 10
2598.3811663026
 20
584.6139098308
 10
2597.1274869248
 20
584.9546330226
 10
2596.0777148657
 20
585.4452289919
 10
2595.2978111646
 20
586.0548717898
 10
2594.8367800394
 20
586.745255317
 10
2594.7235897712
 20
587.4730002376
 10
2594.9653525208
 20
588.1923796617
 10
2595.3228381206
 20
588.6507475684
  0
LWPOLYLINE
  5
3A1
330
1F
100
AcDbEntity
  8
0
  6
Continuous
 62
     7
370
    15
100
AcDbPolyline
 90
       18
 70
   128
 43
0.0
 10
2552.357431487
 20
603.0727012495
 10
2552.6551410336
 20
602.7090858114
 10
2552.9445336778
 20
601.9943859657
 10
2552.8797364919
 20
601.2650729423
 10
2552.4648209215
 20
600.5669721608
 10
2551.7258576378
 20
599.9439478606
 10
2550.7092784216
 20
599.4351469498
 10
2549.4789586839
 20
599.0725392609
 10
2548.1122039385
 20
598.8789087686
 10
2546.6948924126
 20
598.8664219888
 10
2545.316079002
 20
599.0358635118
 10
2544.0623996241
 20
599.3765867036
 10
2543.012627565
 20
599.867182673
 10
2542.2327238639
 20
600.4768254708
 10
2541.7716927387
 20
601.167208998
 10
2541.6585024705
 20
601.8949539186
 10
2541.9002652202
 20
602.6143333427
 10
2542.2577508199
 20
603.0727012495
  0
LWPOLYLINE
  5
3A2
330
1F
100
AcDbEntity
  8
0
  6
Continuous
 62
     7
370
    15
100
AcDbPolyline
 90
       18
 70
   128
 43
0.0
 10
2499.2923441863
 20
617.4946549305
 10
2499.590053733
 20
617.1310394924
 10
2499.8794463771
 20
616.4163396467
 10
2499.8146491912
 20
615.6870266234
 10
2499.3997336208
 20
614.9889258418
 10
2498.6607703371
 20
614.3659015416
 10
2497.644191121
 20
613.8571006308
 10
2496.4138713832
 20
613.4944929419
 10
2495.0471166378
 20
613.3008624496
 10
2493.629805112
 20
613.2883756698
 10
2492.2509917013
 20
613.4578171928
 10
2490.9973123235
 20
613.7985403847
 10
2489.9475402644
 20
614.289136354
 10
2489.1676365633
 20
614.8987791518
 10
2488.7066054381
 20
615.5891626791
 10
2488.5934151699
 20
616.3169075996
 10
2488.8351779195
 20
617.0362870237
 10
2489.1926635193
 20
617.4946549305
  0
LWPOLYLINE
  5
3A3
330
1F
100
AcDbEntity
  8
0
  6
Continuous
 62
     7
370
    15
100
AcDbPolyline
 90
       18
 70
   128
 43
0.0
 10
2446.2272568857
 20
631.9166086115
 10
2446.5249664323
 20
631.5529931734
 10
2446.8143590765
 20
630.8382933278
 10
2446.7495618906
 20
630.1089803044
 10
2446.3346463202
 20
629.4108795229
 10
2445.5956830365
 20
628.7878552226
 10
2444.5791038203
 20
628.2790543118
 10
2443.3487840826
 20
627.916446623
 10
2441.9820293372
 20
627.7228161306
 10
2440.5647178113
 20
627.7103293508
 10
2439.1859044007
 20
627.8797708739
 10
2437.9322250228
 20
628.2204940657
 10
2436.8824529637
 20
628.711090035
 10
2436.1025492626
 20
629.3207328329
 10
2435.6415181374
 20
630.0111163601
 10
2435.5283278692
 20
630.7388612807
 10
2435.7700906189
 20
631.4582407048
 10
2436.1275762186
 20
631.9166086115
  0
LINE
  5
3A4
330
1F
100
AcDbEntity
  8
0
  6
Continuous
 62
     7
370
    15
100
AcDbLine
 10
2520.4010787283
 20
736.8995558643
 30
0.0
 11
2427.2953486367
 21
646.0255090068
 31
0.0
  0
LINE
  5
3A5
330
1F
100
AcDbEntity
  8
0
  6
Continuous
 62
     7
370
    15
100
AcDbLine
 10
2427.2953486367
 20
646.0255090068
 30
0.0
 11
2453.8278922871
 21
638.8145321663
 31
0.0
  0
LINE
  5
3A6
330
1F
100
AcDbEntity
  8
0
  6
Continuous
 62
     7
370
    15
100
AcDbLine
 10
2546.9336223786
 20
729.6885790238
 30
0.0
 11
2453.8278922871
 21
638.8145321663
 31
0.0
  0
LINE
  5
3A7
330
1F
100
AcDbEntity
  8
0
  6
Continuous
 62
     7
370
    15
100
AcDbLine
 10
2520.4010787283
 20
736.8995558643
 30
0.0
 11
2546.9336223786
 21
729.6885790238
 31
0.0
  0
LWPOLYLINE
  5
3A8
330
1F
100
AcDbEntity
  8
0
  6
Continuous
 62
     7
370
    15
100
AcDbPolyline
 90
       18
 70
   128
 43
0.0
 10
2393.162169585
 20
646.3385622926
 10
2393.4598791317
 20
645.9749468545
 10
2393.7492717758
 20
645.2602470088
 10
2393.68447459
 20
644.5309339854
 10
2393.2695590195
 20
643.8328332039
 10
2392.5305957358
 20
643.2098089037
 10
2391.5140165197
 20
642.7010079929
 10
2390.2836967819
 20
642.338400304
 10
2388.9169420365
 20
642.1447698117
 10
2387.4996305107
 20
642.1322830319
 10
2386.1208171001
 20
642.3017245549
 10
2384.8671377222
 20
642.6424477467
 10
2383.8173656631
 20
643.1330437161
 10
2383.037461962
 20
643.7426865139
 10
2382.5764308368
 20
644.4330700411
 10
2382.4632405686
 20
645.1608149617
 10
2382.7050033182
 20
645.8801943858
 10
2383.062488918
 20
646.3385622926
  0
LINE
  5
3A9
330
1F
100
AcDbEntity
  8
0
  6
Continuous
 62
     7
370
    15
100
AcDbLine
 10
2464.6827370626
 20
752.0426072294
 30
0.0
 11
2371.5770069711
 21
661.1685603719
 31
0.0
  0
LINE
  5
3AA
330
1F
100
AcDbEntity
  8
0
  6
Continuous
 62
     7
370
    15
100
AcDbLine
 10
2371.5770069711
 20
661.1685603719
 30
0.0
 11
2398.1095506214
 21
653.9575835314
 31
0.0
  0
LINE
  5
3AB
330
1F
100
AcDbEntity
  8
0
  6
Continuous
 62
     7
370
    15
100
AcDbLine
 10
2491.2152807129
 20
744.8316303889
 30
0.0
 11
2398.1095506214
 21
653.9575835314
 31
0.0
  0
LINE
  5
3AC
330
1F
100
AcDbEntity
  8
0
  6
Continuous
 62
     7
370
    15
100
AcDbLine
 10
2464.6827370626
 20
752.0426072294
 30
0.0
 11
2491.2152807129
 21
744.8316303889
 31
0.0
  0
LWPOLYLINE
  5
3AD
330
1F
100
AcDbEntity
  8
0
  6
Continuous
 62
     7
370
    15
100
AcDbPolyline
 90
       18
 70
   128
 43
0.0
 10
2154.3692767321
 20
711.2373538572
 10
2154.6669862788
 20
710.8737384191
 10
2154.9563789229
 20
710.1590385735
 10
2154.8915817371
 20
709.4297255501
 10
2154.4766661666
 20
708.7316247685
 10
2153.7377028829
 20
708.1086004683
 10
2152.7211236668
 20
707.5997995575
 10
2151.490803929
 20
707.2371918686
 10
2150.1240491836
 20
707.0435613763
 10
2148.7067376578
 20
707.0310745965
 10
2147.3279242471
 20
707.2005161196
 10
2146.0742448693
 20
707.5412393114
 10
2145.0244728102
 20
708.0318352807
 10
2144.2445691091
 20
708.6414780786
 10
2143.7835379839
 20
709.3318616058
 10
2143.6703477157
 20
710.0596065264
 10
2143.9121104653
 20
710.7789859505
 10
2144.2695960651
 20
711.2373538572
  0
LWPOLYLINE
  5
3AE
330
1F
100
AcDbEntity
  8
0
  6
Continuous
 62
     7
370
    15
100
AcDbPolyline
 90
       18
 70
   128
 43
0.0
 10
2207.4343640328
 20
696.8154001762
 10
2207.7320735794
 20
696.4517847381
 10
2208.0214662236
 20
695.7370848924
 10
2207.9566690377
 20
695.0077718691
 10
2207.5417534673
 20
694.3096710875
 10
2206.8027901836
 20
693.6866467873
 10
2205.7862109674
 20
693.1778458765
 10
2204.5558912297
 20
692.8152381876
 10
2203.1891364843
 20
692.6216076953
 10
2201.7718249584
 20
692.6091209155
 10
2200.3930115478
 20
692.7785624385
 10
2199.1393321699
 20
693.1192856303
 10
2198.0895601108
 20
693.6098815997
 10
2197.3096564097
 20
694.2195243975
 10
2196.8486252845
 20
694.9099079248
 10
2196.7354350163
 20
695.6376528453
 10
2196.977197766
 20
696.3570322694
 10
2197.3346833657
 20
696.8154001762
  0
LWPOLYLINE
  5
3AF
330
1F
100
AcDbEntity
  8
0
  6
Continuous
 62
     7
370
    15
100
AcDbPolyline
 90
       18
 70
   128
 43
0.0
 10
2260.4994513334
 20
682.3934464952
 10
2260.7971608801
 20
682.029831057
 10
2261.0865535242
 20
681.3151312114
 10
2261.0217563383
 20
680.585818188
 10
2260.6068407679
 20
679.8877174065
 10
2259.8678774842
 20
679.2646931063
 10
2258.8512982681
 20
678.7558921955
 10
2257.6209785303
 20
678.3932845066
 10
2256.2542237849
 20
678.1996540143
 10
2254.8369122591
 20
678.1871672345
 10
2253.4580988484
 20
678.3566087575
 10
2252.2044194706
 20
678.6973319493
 10
2251.1546474115
 20
679.1879279187
 10
2250.3747437104
 20
679.7975707165
 10
2249.9137125852
 20
680.4879542437
 10
2249.800522317
 20
681.2156991643
 10
2250.0422850666
 20
681.9350785884
 10
2250.3997706664
 20
682.3934464952
  0
LINE
  5
3B0
330
1F
100
AcDbEntity
  8
0
  6
Continuous
 62
     7
370
    15
100
AcDbLine
 10
2201.3472413332
 20
823.6115523715
 30
0.0
 11
2108.2415112416
 21
732.7375055141
 31
0.0
  0
LINE
  5
3B1
330
1F
100
AcDbEntity
  8
0
  6
Continuous
 62
     7
370
    15
100
AcDbLine
 10
2108.2415112416
 20
732.7375055141
 30
0.0
 11
2258.8136964572
 21
691.8152119441
 31
0.0
  0
LINE
  5
3B2
330
1F
100
AcDbEntity
  8
0
  6
Continuous
 62
     7
370
    15
100
AcDbLine
 10
2351.9194265487
 20
782.6892588016
 30
0.0
 11
2258.8136964572
 21
691.8152119441
 31
0.0
  0
LINE
  5
3B3
330
1F
100
AcDbEntity
  8
0
  6
Continuous
 62
     7
370
    15
100
AcDbLine
 10
2201.3472413332
 20
823.6115523715
 30
0.0
 11
2351.9194265487
 21
782.6892588016
 31
0.0
  0
LINE
  5
3B4
330
1F
100
AcDbEntity
  8
0
  6
Continuous
 62
     7
370
    15
100
AcDbLine
 10
2260.1403236397
 20
691.4546631021
 30
0.0
 11
2286.67286729
 21
684.2436862616
 31
0.0
  0
LINE
  5
3B5
330
1F
100
AcDbEntity
  8
0
  6
Continuous
 62
     7
370
    15
100
AcDbLine
 10
2379.7785973816
 20
775.117733119
 30
0.0
 11
2286.67286729
 21
684.2436862616
 31
0.0
  0
LINE
  5
3B6
330
1F
100
AcDbEntity
  8
0
  6
Continuous
 62
     7
370
    15
100
AcDbLine
 10
2353.2460537312
 20
782.3287099596
 30
0.0
 11
2379.7785973816
 21
775.117733119
 31
0.0
  0
LINE
  5
3B7
330
1F
100
AcDbEntity
  8
0
  6
Continuous
 62
     7
370
    15
100
AcDbLine
 10
2353.2460537312
 20
782.3287099596
 30
0.0
 11
2260.1403236397
 21
691.4546631021
 31
0.0
  0
LWPOLYLINE
  5
3B8
330
1F
100
AcDbEntity
  8
0
  6
Continuous
 62
     7
370
    15
100
AcDbPolyline
 90
       18
 70
   128
 43
0.0
 10
2313.5645386341
 20
667.9714928141
 10
2313.8622481807
 20
667.607877376
 10
2314.1516408249
 20
666.8931775304
 10
2314.086843639
 20
666.163864507
 10
2313.6719280686
 20
665.4657637254
 10
2312.9329647849
 20
664.8427394252
 10
2311.9163855687
 20
664.3339385144
 10
2310.686065831
 20
663.9713308255
 10
2309.3193110856
 20
663.7777003332
 10
2307.9019995597
 20
663.7652135534
 10
2306.5231861491
 20
663.9346550765
 10
2305.2695067712
 20
664.2753782683
 10
2304.2197347121
 20
664.7659742376
 10
2303.439831011
 20
665.3756170355
 10
2302.9787998858
 20
666.0660005627
 10
2302.8656096176
 20
666.7937454833
 10
2303.1073723672
 20
667.5131249074
 10
2303.464857967
 20
667.9714928141
  0
LINE
  5
3B9
330
1F
100
AcDbEntity
  8
0
  6
Continuous
 62
     7
370
    15
100
AcDbLine
 10
2315.8586653054
 20
676.311611737
 30
0.0
 11
2342.3912089557
 21
669.1006348965
 31
0.0
  0
LINE
  5
3BA
330
1F
100
AcDbEntity
  8
0
  6
Continuous
 62
     7
370
    15
100
AcDbLine
 10
2435.4969390472
 20
759.974681754
 30
0.0
 11
2342.3912089557
 21
669.1006348965
 31
0.0
  0
LINE
  5
3BB
330
1F
100
AcDbEntity
  8
0
  6
Continuous
 62
     7
370
    15
100
AcDbLine
 10
2408.9643953969
 20
767.1856585945
 30
0.0
 11
2435.4969390472
 21
759.974681754
 31
0.0
  0
LINE
  5
3BC
330
1F
100
AcDbEntity
  8
0
  6
Continuous
 62
     7
370
    15
100
AcDbLine
 10
2408.9643953969
 20
767.1856585945
 30
0.0
 11
2315.8586653054
 21
676.311611737
 31
0.0
  0
LWPOLYLINE
  5
3BD
330
1F
100
AcDbEntity
  8
0
  6
Continuous
 62
     7
370
    15
100
AcDbPolyline
 90
       12
 70
   128
 43
0.0
 10
2358.9406231768
 20
649.6627512234
 10
2360.267331059
 20
649.4056414788
 10
2361.6765052869
 20
649.3265403713
 10
2363.0796022613
 20
649.4304181144
 10
2364.3884602389
 20
649.7107476874
 10
2365.5208388595
 20
650.1499149523
 10
2366.4055866097
 20
650.7203254147
 10
2366.9871115345
 20
651.3861380874
 10
2367.2288742841
 20
652.1055175115
 10
2367.1156840159
 20
652.8332624321
 10
2366.6546528907
 20
653.5236459593
 10
2366.6296259347
 20
653.5495391331
  0
LWPOLYLINE
  5
3BE
330
1F
100
AcDbEntity
  8
0
  6
Continuous
 62
     7
370
    15
100
AcDbPolyline
 90
        8
 70
   128
 43
0.0
 10
2356.5299452677
 20
653.5495391331
 10
2356.4225558332
 20
653.4334992693
 10
2356.0076402628
 20
652.7353984878
 10
2355.9428430769
 20
652.0060854644
 10
2356.232235721
 20
651.2913856187
 10
2356.8576345911
 20
650.6362061706
 10
2357.7797435759
 20
650.0817144542
 10
2358.9406231768
 20
649.6627512234
  0
LINE
  5
3BF
330
1F
100
AcDbEntity
  8
0
  6
Continuous
 62
     7
370
    15
100
AcDbLine
 10
2091.5873952087
 20
719.793332994
 30
0.0
 11
2622.2382682151
 21
575.5737961836
 31
0.0
  0
LINE
  5
3C0
330
1F
100
AcDbEntity
  8
0
  6
Continuous
 62
     7
370
    15
100
AcDbLine
 10
2203.5942885519
 20
829.115494627
 30
0.0
 11
2091.5873952087
 21
719.793332994
 31
0.0
  0
LINE
  5
3C1
330
1F
100
AcDbEntity
  8
0
  6
Continuous
 62
     7
370
    15
100
AcDbLine
 10
2203.5942885519
 20
829.115494627
 30
0.0
 11
2734.2451615583
 21
684.8959578167
 31
0.0
  0
LINE
  5
3C2
330
1F
100
AcDbEntity
  8
0
  6
Continuous
 62
     7
370
    15
100
AcDbLine
 10
2734.2451615583
 20
684.8959578167
 30
0.0
 11
2622.2382682151
 21
575.5737961836
 31
0.0
  0
LINE
  5
3C3
330
1F
100
AcDbEntity
  8
0
  6
Continuous
 62
     7
370
    15
100
AcDbLine
 10
2343.7178361382
 20
668.7400860545
 30
0.0
 11
2370.2503797885
 21
661.529109214
 31
0.0
  0
LINE
  5
3C4
330
1F
100
AcDbEntity
  8
0
  6
Continuous
 62
     7
370
    15
100
AcDbLine
 10
2463.3561098801
 20
752.4031560714
 30
0.0
 11
2370.2503797885
 21
661.529109214
 31
0.0
  0
LINE
  5
3C5
330
1F
100
AcDbEntity
  8
0
  6
Continuous
 62
     7
370
    15
100
AcDbLine
 10
2436.8235662298
 20
759.6141329119
 30
0.0
 11
2463.3561098801
 21
752.4031560714
 31
0.0
  0
LINE
  5
3C6
330
1F
100
AcDbEntity
  8
0
  6
Continuous
 62
     7
370
    15
100
AcDbLine
 10
2436.8235662298
 20
759.6141329119
 30
0.0
 11
2343.7178361382
 21
668.7400860545
 31
0.0
  0
LWPOLYLINE
  5
3C7
330
1F
100
AcDbEntity
  8
0
  6
Continuous
 62
     7
370
    15
100
AcDbPolyline
 90
       18
 70
   128
 43
0.0
 10
2340.0970822844
 20
660.7605159736
 10
2340.394791831
 20
660.3969005355
 10
2340.6841844752
 20
659.6822006898
 10
2340.6193872893
 20
658.9528876665
 10
2340.2044717189
 20
658.2547868849
 10
2339.4655084352
 20
657.6317625847
 10
2338.448929219
 20
657.1229616739
 10
2337.2186094813
 20
656.760353985
 10
2335.8518547359
 20
656.5667234927
 10
2334.43454321
 20
656.5542367129
 10
2333.0557297994
 20
656.723678236
 10
2331.8020504215
 20
657.0644014278
 10
2330.7522783624
 20
657.5549973971
 10
2329.9723746614
 20
658.1646401949
 10
2329.5113435361
 20
658.8550237222
 10
2329.3981532679
 20
659.5827686428
 10
2329.6399160176
 20
660.3021480668
 10
2329.9974016173
 20
660.7605159736
  0
LINE
  5
3C8
330
1F
100
AcDbEntity
  8
0
  6
Continuous
 62
     7
370
    15
100
AcDbLine
 10
2287.9994944725
 20
683.8831374196
 30
0.0
 11
2314.5320381229
 21
676.672160579
 31
0.0
  0
LINE
  5
3C9
330
1F
100
AcDbEntity
  8
0
  6
Continuous
 62
     7
370
    15
100
AcDbLine
 10
2407.6377682144
 20
767.5462074365
 30
0.0
 11
2314.5320381229
 21
676.672160579
 31
0.0
  0
LINE
  5
3CA
330
1F
100
AcDbEntity
  8
0
  6
Continuous
 62
     7
370
    15
100
AcDbLine
 10
2381.1052245641
 20
774.757184277
 30
0.0
 11
2407.6377682144
 21
767.5462074365
 31
0.0
  0
LINE
  5
3CB
330
1F
100
AcDbEntity
  8
0
  6
Continuous
 62
     7
370
    15
100
AcDbLine
 10
2381.1052245641
 20
774.757184277
 30
0.0
 11
2287.9994944725
 21
683.8831374196
 31
0.0
  0
LWPOLYLINE
  5
3CC
330
1F
100
AcDbEntity
  8
0
  6
Continuous
 62
     7
370
    15
100
AcDbPolyline
 90
       18
 70
   128
 43
0.0
 10
2287.0319949838
 20
675.1824696547
 10
2287.3297045304
 20
674.8188542165
 10
2287.6190971745
 20
674.1041543709
 10
2287.5542999887
 20
673.3748413475
 10
2287.1393844183
 20
672.676740566
 10
2286.4004211346
 20
672.0537162657
 10
2285.3838419184
 20
671.5449153549
 10
2284.1535221807
 20
671.1823076661
 10
2282.7867674352
 20
670.9886771737
 10
2281.3694559094
 20
670.976190394
 10
2279.9906424988
 20
671.145631917
 10
2278.7369631209
 20
671.4863551088
 10
2277.6871910618
 20
671.9769510781
 10
2276.9072873607
 20
672.586593876
 10
2276.4462562355
 20
673.2769774032
 10
2276.3330659673
 20
674.0047223238
 10
2276.5748287169
 20
674.7241017479
 10
2276.9323143167
 20
675.1824696547
  0
LWPOLYLINE
  5
3CD
330
1F
100
AcDbEntity
  8
0
  6
Continuous
 62
     7
370
    15
100
AcDbPolyline
 90
       18
 70
   128
 43
0.0
 10
2233.9669076831
 20
689.6044233357
 10
2234.2646172298
 20
689.2408078976
 10
2234.5540098739
 20
688.5261080519
 10
2234.489212688
 20
687.7967950286
 10
2234.0742971176
 20
687.098694247
 10
2233.3353338339
 20
686.4756699468
 10
2232.3187546178
 20
685.966869036
 10
2231.08843488
 20
685.6042613471
 10
2229.7216801346
 20
685.4106308548
 10
2228.3043686087
 20
685.398144075
 10
2226.9255551981
 20
685.567585598
 10
2225.6718758202
 20
685.9083087898
 10
2224.6221037611
 20
686.3989047592
 10
2223.8422000601
 20
687.008547557
 10
2223.3811689349
 20
687.6989310843
 10
2223.2679786666
 20
688.4266760048
 10
2223.5097414163
 20
689.1460554289
 10
2223.8672270161
 20
689.6044233357
  0
LWPOLYLINE
  5
3CE
330
1F
100
AcDbEntity
  8
0
  6
Continuous
 62
     7
370
    15
100
AcDbPolyline
 90
       18
 70
   128
 43
0.0
 10
2180.9018203825
 20
704.0263770167
 10
2181.1995299291
 20
703.6627615786
 10
2181.4889225733
 20
702.9480617329
 10
2181.4241253874
 20
702.2187487096
 10
2181.009209817
 20
701.520647928
 10
2180.2702465333
 20
700.8976236278
 10
2179.2536673171
 20
700.388822717
 10
2178.0233475794
 20
700.0262150281
 10
2176.6565928339
 20
699.8325845358
 10
2175.2392813081
 20
699.820097756
 10
2173.8604678975
 20
699.9895392791
 10
2172.6067885196
 20
700.3302624709
 10
2171.5570164605
 20
700.8208584402
 10
2170.7771127594
 20
701.430501238
 10
2170.3160816342
 20
702.1208847653
 10
2170.202891366
 20
702.8486296859
 10
2170.4446541156
 20
703.5680091099
 10
2170.8021397154
 20
704.0263770167
  0
LWPOLYLINE
  5
3CF
330
1F
100
AcDbEntity
  8
0
  6
Continuous
 62
     7
370
    15
100
AcDbPolyline
 90
       18
 70
   128
 43
0.0
 10
2127.8367330818
 20
718.4483306978
 10
2128.1344426285
 20
718.0847152596
 10
2128.4238352726
 20
717.370015414
 10
2128.3590380867
 20
716.6407023906
 10
2127.9441225163
 20
715.9426016091
 10
2127.2051592326
 20
715.3195773088
 10
2126.1885800165
 20
714.8107763981
 10
2124.9582602787
 20
714.4481687092
 10
2123.5915055333
 20
714.2545382168
 10
2122.1741940074
 20
714.2420514371
 10
2120.7953805968
 20
714.4114929601
 10
2119.541701219
 20
714.7522161519
 10
2118.4919291598
 20
715.2428121212
 10
2117.7120254588
 20
715.8524549191
 10
2117.2509943336
 20
716.5428384463
 10
2117.1378040654
 20
717.2705833669
 10
2117.379566815
 20
717.989962791
 10
2117.7370524148
 20
718.4483306978
  0
LINE
  5
3D0
330
1F
100
AcDbEntity
  8
0
  6
Continuous
 62
     7
370
    15
100
AcDbLine
 10
2492.5419078954
 20
744.4710815468
 30
0.0
 11
2399.4361778039
 21
653.5970346894
 31
0.0
  0
LINE
  5
3D1
330
1F
100
AcDbEntity
  8
0
  6
Continuous
 62
     7
370
    15
100
AcDbLine
 10
2399.4361778039
 20
653.5970346894
 30
0.0
 11
2425.9687214542
 21
646.3860578489
 31
0.0
  0
LINE
  5
3D2
330
1F
100
AcDbEntity
  8
0
  6
Continuous
 62
     7
370
    15
100
AcDbLine
 10
2519.0744515458
 20
737.2601047063
 30
0.0
 11
2425.9687214542
 21
646.3860578489
 31
0.0
  0
LINE
  5
3D3
330
1F
100
AcDbEntity
  8
0
  6
Continuous
 62
     7
370
    15
100
AcDbLine
 10
2492.5419078954
 20
744.4710815468
 30
0.0
 11
2519.0744515458
 21
737.2601047063
 31
0.0
  0
LWPOLYLINE
  5
3D4
330
1F
100
AcDbEntity
  8
0
  6
Continuous
 62
     7
370
    15
100
AcDbPolyline
 90
       18
 70
   128
 43
0.0
 10
2419.6947132354
 20
639.1275854521
 10
2419.992422782
 20
638.7639700139
 10
2420.2818154262
 20
638.0492701683
 10
2420.2170182403
 20
637.3199571449
 10
2419.8021026699
 20
636.6218563634
 10
2419.0631393862
 20
635.9988320631
 10
2418.04656017
 20
635.4900311524
 10
2416.8162404323
 20
635.1274234635
 10
2415.4494856869
 20
634.9337929712
 10
2414.032174161
 20
634.9213061914
 10
2412.6533607504
 20
635.0907477144
 10
2411.3996813725
 20
635.4314709062
 10
2410.3499093134
 20
635.9220668755
 10
2409.5700056123
 20
636.5317096734
 10
2409.1089744871
 20
637.2220932006
 10
2408.9957842189
 20
637.9498381212
 10
2409.2375469685
 20
638.6692175453
 10
2409.5950325683
 20
639.1275854521
  0
LINE
  5
3D5
330
1F
100
AcDbEntity
  8
0
  6
Continuous
 62
     7
370
    15
100
AcDbLine
 10
2483.0136903024
 20
630.8824576418
 30
0.0
 11
2633.585875518
 21
589.9601640718
 31
0.0
  0
LINE
  5
3D6
330
1F
100
AcDbEntity
  8
0
  6
Continuous
 62
     7
370
    15
100
AcDbLine
 10
2726.6916056095
 20
680.8342109293
 30
0.0
 11
2633.585875518
 21
589.9601640718
 31
0.0
  0
LINE
  5
3D7
330
1F
100
AcDbEntity
  8
0
  6
Continuous
 62
     7
370
    15
100
AcDbLine
 10
2576.119420394
 20
721.7565044992
 30
0.0
 11
2726.6916056095
 21
680.8342109293
 31
0.0
  0
LINE
  5
3D8
330
1F
100
AcDbEntity
  8
0
  6
Continuous
 62
     7
370
    15
100
AcDbLine
 10
2576.119420394
 20
721.7565044992
 30
0.0
 11
2483.0136903024
 21
630.8824576418
 31
0.0
  0
LINE
  5
3D9
330
1F
100
AcDbEntity
  8
0
  6
Continuous
 62
     7
370
    15
100
AcDbLine
 10
2548.2602495611
 20
729.3280301818
 30
0.0
 11
2455.1545194696
 21
638.4539833243
 31
0.0
  0
LINE
  5
3DA
330
1F
100
AcDbEntity
  8
0
  6
Continuous
 62
     7
370
    15
100
AcDbLine
 10
2455.1545194696
 20
638.4539833243
 30
0.0
 11
2481.6870631199
 21
631.2430064838
 31
0.0
  0
LINE
  5
3DB
330
1F
100
AcDbEntity
  8
0
  6
Continuous
 62
     7
370
    15
100
AcDbLine
 10
2574.7927932114
 20
722.1170533412
 30
0.0
 11
2481.6870631199
 21
631.2430064838
 31
0.0
  0
LINE
  5
3DC
330
1F
100
AcDbEntity
  8
0
  6
Continuous
 62
     7
370
    15
100
AcDbLine
 10
2548.2602495611
 20
729.3280301818
 30
0.0
 11
2574.7927932114
 21
722.1170533412
 31
0.0
  0
LWPOLYLINE
  5
3DD
330
1F
100
AcDbEntity
  8
0
  6
Continuous
 62
     7
370
    15
100
AcDbPolyline
 90
       18
 70
   128
 43
0.0
 10
2472.759800536
 20
624.705631771
 10
2473.0575100827
 20
624.3420163329
 10
2473.3469027268
 20
623.6273164872
 10
2473.2821055409
 20
622.8980034639
 10
2472.8671899705
 20
622.1999026823
 10
2472.1282266868
 20
621.5768783821
 10
2471.1116474707
 20
621.0680774713
 10
2469.8813277329
 20
620.7054697824
 10
2468.5145729875
 20
620.5118392901
 10
2467.0972614616
 20
620.4993525103
 10
2465.718448051
 20
620.6687940334
 10
2464.4647686731
 20
621.0095172252
 10
2463.414996614
 20
621.5001131945
 10
2462.635092913
 20
622.1097559924
 10
2462.1740617878
 20
622.8001395196
 10
2462.0608715195
 20
623.5278844402
 10
2462.3026342692
 20
624.2472638642
 10
2462.660119869
 20
624.705631771
  0
LWPOLYLINE
  5
3DE
330
1F
100
AcDbEntity
  8
0
  6
Continuous
 62
     7
370
    15
100
AcDbPolyline
 90
       18
 70
   128
 43
0.0
 10
2525.8248878367
 20
610.28367809
 10
2526.1225973833
 20
609.9200626519
 10
2526.4119900274
 20
609.2053628062
 10
2526.3471928416
 20
608.4760497829
 10
2525.9322772712
 20
607.7779490013
 10
2525.1933139875
 20
607.1549247011
 10
2524.1767347713
 20
606.6461237903
 10
2522.9464150336
 20
606.2835161014
 10
2521.5796602881
 20
606.0898856091
 10
2520.1623487623
 20
606.0773988293
 10
2518.7835353517
 20
606.2468403523
 10
2517.5298559738
 20
606.5875635441
 10
2516.4800839147
 20
607.0781595135
 10
2515.7001802136
 20
607.6878023113
 10
2515.2391490884
 20
608.3781858386
 10
2515.1259588202
 20
609.1059307591
 10
2515.3677215698
 20
609.8253101832
 10
2515.7252071696
 20
610.28367809
  0
LWPOLYLINE
  5
3DF
330
1F
100
AcDbEntity
  8
0
  6
Continuous
 62
     7
370
    15
100
AcDbPolyline
 90
       18
 70
   128
 43
0.0
 10
2578.8899751373
 20
595.861724409
 10
2579.1876846839
 20
595.4981089708
 10
2579.4770773281
 20
594.7834091252
 10
2579.4122801422
 20
594.0540961018
 10
2578.9973645718
 20
593.3559953203
 10
2578.2584012881
 20
592.73297102
 10
2577.2418220719
 20
592.2241701093
 10
2576.0115023342
 20
591.8615624204
 10
2574.6447475888
 20
591.667931928
 10
2573.2274360629
 20
591.6554451483
 10
2571.8486226523
 20
591.8248866713
 10
2570.5949432744
 20
592.1656098631
 10
2569.5451712153
 20
592.6562058324
 10
2568.7652675143
 20
593.2658486303
 10
2568.304236389
 20
593.9562321575
 10
2568.1910461208
 20
594.6839770781
 10
2568.4328088705
 20
595.4033565022
 10
2568.7902944703
 20
595.861724409
  0
LWPOLYLINE
  5
3E0
330
1F
100
AcDbEntity
  8
0
  6
Continuous
 62
     7
370
    15
100
AcDbPolyline
 90
       18
 70
   128
 43
0.0
 10
2373.1365437996
 20
654.8596896229
 10
2372.7790581998
 20
654.4013217161
 10
2372.5372954502
 20
653.681942292
 10
2372.6504857184
 20
652.9541973715
 10
2373.1115168436
 20
652.2638138442
 10
2373.8914205447
 20
651.6541710464
 10
2374.9411926038
 20
651.1635750771
 10
2376.1948719817
 20
650.8228518852
 10
2377.5736853923
 20
650.6534103622
 10
2378.9909969182
 20
650.665897142
 10
2380.3577516636
 20
650.8595276343
 10
2381.5880714013
 20
651.2221353232
 10
2382.6046506175
 20
651.730936234
 10
2383.3436139012
 20
652.3539605342
 10
2383.7585294716
 20
653.0520613158
 10
2383.8233266575
 20
653.7813743391
 10
2383.5339340133
 20
654.4960741848
 10
2383.2362244667
 20
654.8596896229
  0
LWPOLYLINE
  5
3E1
330
1F
100
AcDbEntity
  8
0
  6
Continuous
 62
     7
370
    15
100
AcDbPolyline
 90
       18
 70
   128
 43
0.0
 10
2320.071456499
 20
669.2816433039
 10
2319.7139708992
 20
668.8232753972
 10
2319.4722081496
 20
668.1038959731
 10
2319.5853984178
 20
667.3761510525
 10
2320.046429543
 20
666.6857675253
 10
2320.8263332441
 20
666.0761247274
 10
2321.8761053032
 20
665.5855287581
 10
2323.129784681
 20
665.2448055663
 10
2324.5085980917
 20
665.0753640432
 10
2325.9259096175
 20
665.087850823
 10
2327.2926643629
 20
665.2814813153
 10
2328.5229841007
 20
665.6440890042
 10
2329.5395633168
 20
666.152889915
 10
2330.2785266005
 20
666.7759142153
 10
2330.6934421709
 20
667.4740149968
 10
2330.7582393568
 20
668.2033280202
 10
2330.4688467127
 20
668.9180278658
 10
2330.171137166
 20
669.2816433039
  0
LWPOLYLINE
  5
3E2
330
1F
100
AcDbEntity
  8
0
  6
Continuous
 62
     7
370
    15
100
AcDbPolyline
 90
       18
 70
   128
 43
0.0
 10
2267.0063691983
 20
683.703596985
 10
2266.6488835985
 20
683.2452290782
 10
2266.4071208489
 20
682.5258496541
 10
2266.5203111171
 20
681.7981047335
 10
2266.9813422423
 20
681.1077212063
 10
2267.7612459434
 20
680.4980784085
 10
2268.8110180025
 20
680.0074824391
 10
2270.0646973804
 20
679.6667592473
 10
2271.443510791
 20
679.4973177243
 10
2272.8608223169
 20
679.5098045041
 10
2274.2275770623
 20
679.7034349964
 10
2275.4578968
 20
680.0660426853
 10
2276.4744760162
 20
680.5748435961
 10
2277.2134392999
 20
681.1978678963
 10
2277.6283548703
 20
681.8959686778
 10
2277.6931520562
 20
682.6252817012
 10
2277.403759412
 20
683.3399815469
 10
2277.1060498654
 20
683.703596985
  0
LWPOLYLINE
  5
3E3
330
1F
100
AcDbEntity
  8
0
  6
Continuous
 62
     7
370
    15
100
AcDbPolyline
 90
       18
 70
   128
 43
0.0
 10
2213.9412818977
 20
698.125550666
 10
2213.5837962979
 20
697.6671827592
 10
2213.3420335483
 20
696.9478033351
 10
2213.4552238165
 20
696.2200584146
 10
2213.9162549417
 20
695.5296748873
 10
2214.6961586428
 20
694.9200320895
 10
2215.7459307019
 20
694.4294361202
 10
2216.9996100797
 20
694.0887129284
 10
2218.3784234904
 20
693.9192714053
 10
2219.7957350162
 20
693.9317581851
 10
2221.1624897616
 20
694.1253886774
 10
2222.3928094994
 20
694.4879963663
 10
2223.4093887155
 20
694.9967972771
 10
2224.1483519992
 20
695.6198215773
 10
2224.5632675696
 20
696.3179223589
 10
2224.6280647555
 20
697.0472353822
 10
2224.3386721114
 20
697.7619352279
 10
2224.0409625647
 20
698.125550666
  0
LWPOLYLINE
  5
3E4
330
1F
100
AcDbEntity
  8
0
  6
Continuous
 62
     7
370
    15
100
AcDbPolyline
 90
       18
 70
   128
 43
0.0
 10
2160.876194597
 20
712.5475043471
 10
2160.5187089973
 20
712.0891364403
 10
2160.2769462476
 20
711.3697570162
 10
2160.3901365158
 20
710.6420120956
 10
2160.851167641
 20
709.9516285684
 10
2161.6310713421
 20
709.3419857705
 10
2162.6808434012
 20
708.8513898012
 10
2163.9345227791
 20
708.5106666094
 10
2165.3133361897
 20
708.3412250864
 10
2166.7306477156
 20
708.3537118661
 10
2168.097402461
 20
708.5473423585
 10
2169.3277221987
 20
708.9099500473
 10
2170.3443014149
 20
709.4187509581
 10
2171.0832646986
 20
710.0417752584
 10
2171.498180269
 20
710.7398760399
 10
2171.5629774549
 20
711.4691890633
 10
2171.2735848107
 20
712.1838889089
 10
2170.9758752641
 20
712.5475043471
  0
LWPOLYLINE
  5
3E5
330
1F
100
AcDbEntity
  8
0
  6
Continuous
 62
     7
370
    15
100
AcDbPolyline
 90
       18
 70
   128
 43
0.0
 10
2107.8111072964
 20
726.9694580281
 10
2107.4536216966
 20
726.5110901213
 10
2107.211858947
 20
725.7917106972
 10
2107.3250492152
 20
725.0639657767
 10
2107.7860803404
 20
724.3735822494
 10
2108.5659840415
 20
723.7639394516
 10
2109.6157561006
 20
723.2733434822
 10
2110.8694354785
 20
722.9326202904
 10
2112.2482488891
 20
722.7631787674
 10
2113.6655604149
 20
722.7756655472
 10
2115.0323151603
 20
722.9692960395
 10
2116.2626348981
 20
723.3319037284
 10
2117.2792141142
 20
723.8407046392
 10
2118.0181773979
 20
724.4637289394
 10
2118.4330929684
 20
725.161829721
 10
2118.4978901542
 20
725.8911427443
 10
2118.2084975101
 20
726.60584259
 10
2117.9107879634
 20
726.9694580281
  0
LWPOLYLINE
  5
3E6
330
1F
100
AcDbEntity
  8
0
  6
Continuous
 62
     7
370
    15
100
AcDbPolyline
 90
       18
 70
   128
 43
0.0
 10
2426.2016311003
 20
640.4377359419
 10
2425.8441455005
 20
639.9793680351
 10
2425.6023827508
 20
639.259988611
 10
2425.7155730191
 20
638.5322436904
 10
2426.1766041443
 20
637.8418601632
 10
2426.9565078453
 20
637.2322173654
 10
2428.0062799044
 20
636.741621396
 10
2429.2599592823
 20
636.4008982042
 10
2430.6387726929
 20
636.2314566812
 10
2432.0560842188
 20
636.243943461
 10
2433.4228389642
 20
636.4375739533
 10
2434.653158702
 20
636.8001816422
 10
2435.6697379181
 20
637.308982553
 10
2436.4087012018
 20
637.9320068532
 10
2436.8236167722
 20
638.6301076347
 10
2436.8884139581
 20
639.3594206581
 10
2436.599021314
 20
640.0741205037
 10
2436.3013117673
 20
640.4377359419
  0
LWPOLYLINE
  5
3E7
330
1F
100
AcDbEntity
  8
0
  6
Continuous
 62
     7
370
    15
100
AcDbPolyline
 90
       18
 70
   128
 43
0.0
 10
2479.2667184009
 20
626.0157822608
 10
2478.9092328011
 20
625.5574143541
 10
2478.6674700515
 20
624.83803493
 10
2478.7806603197
 20
624.1102900094
 10
2479.2416914449
 20
623.4199064822
 10
2480.021595146
 20
622.8102636843
 10
2481.0713672051
 20
622.319667715
 10
2482.325046583
 20
621.9789445232
 10
2483.7038599936
 20
621.8095030001
 10
2485.1211715194
 20
621.8219897799
 10
2486.4879262649
 20
622.0156202722
 10
2487.7182460026
 20
622.3782279611
 10
2488.7348252188
 20
622.8870288719
 10
2489.4737885025
 20
623.5100531721
 10
2489.8887040729
 20
624.2081539537
 10
2489.9535012587
 20
624.9374669771
 10
2489.6641086146
 20
625.6521668227
 10
2489.366399068
 20
626.0157822608
  0
LWPOLYLINE
  5
3E8
330
1F
100
AcDbEntity
  8
0
  6
Continuous
 62
     7
370
    15
100
AcDbPolyline
 90
       18
 70
   128
 43
0.0
 10
2532.3318057016
 20
611.5938285798
 10
2531.9743201018
 20
611.135460673
 10
2531.7325573521
 20
610.4160812489
 10
2531.8457476203
 20
609.6883363284
 10
2532.3067787456
 20
608.9979528011
 10
2533.0866824466
 20
608.3883100033
 10
2534.1364545057
 20
607.8977140339
 10
2535.3901338836
 20
607.5569908421
 10
2536.7689472942
 20
607.3875493191
 10
2538.1862588201
 20
607.4000360989
 10
2539.5530135655
 20
607.5936665912
 10
2540.7833333032
 20
607.9562742801
 10
2541.7999125194
 20
608.4650751909
 10
2542.5388758031
 20
609.0880994911
 10
2542.9537913735
 20
609.7862002727
 10
2543.0185885594
 20
610.515513296
 10
2542.7291959152
 20
611.2302131417
 10
2542.4314863686
 20
611.5938285798
  0
LWPOLYLINE
  5
3E9
330
1F
100
AcDbEntity
  8
0
  6
Continuous
 62
     7
370
    15
100
AcDbPolyline
 90
       18
 70
   128
 43
0.0
 10
2585.3968930022
 20
597.1718748988
 10
2585.0394074024
 20
596.713506992
 10
2584.7976446528
 20
595.9941275679
 10
2584.910834921
 20
595.2663826473
 10
2585.3718660462
 20
594.5759991201
 10
2586.1517697473
 20
593.9663563223
 10
2587.2015418064
 20
593.4757603529
 10
2588.4552211843
 20
593.1350371611
 10
2589.8340345949
 20
592.9655956381
 10
2591.2513461207
 20
592.9780824179
 10
2592.6181008661
 20
593.1717129102
 10
2593.8484206039
 20
593.5343205991
 10
2594.8649998201
 20
594.0431215098
 10
2595.6039631038
 20
594.6661458101
 10
2596.0188786742
 20
595.3642465916
 10
2596.08367586
 20
596.093559615
 10
2595.7942832159
 20
596.8082594606
 10
2595.4965736693
 20
597.1718748988
  0
LINE
  5
3EA
330
1F
100
AcDbEntity
  8
0
  6
Continuous
 62
     7
370
    15
100
AcDbLine
 10
2619.5850138501
 20
516.2931828185
 30
0.0
 11
2622.2382682151
 21
515.5720851345
 31
0.0
  0
LINE
  5
3EB
330
1F
100
AcDbEntity
  8
0
  6
Continuous
 62
     7
370
    15
100
AcDbLine
 10
2619.5850138501
 20
557.4372132522
 30
0.0
 11
2619.5850138501
 21
516.2931828185
 31
0.0
  0
LINE
  5
3EC
330
1F
100
AcDbEntity
  8
0
  6
Continuous
 62
     7
370
    15
100
AcDbLine
 10
2094.2406495737
 20
700.2145546945
 30
0.0
 11
2619.5850138501
 21
557.4372132522
 31
0.0
  0
LINE
  5
3ED
330
1F
100
AcDbEntity
  8
0
  6
Continuous
 62
     7
370
    15
100
AcDbLine
 10
2094.2406495737
 20
700.2145546945
 30
0.0
 11
2094.2406495737
 21
659.0705242608
 31
0.0
  0
LINE
  5
3EE
330
1F
100
AcDbEntity
  8
0
  6
Continuous
 62
     7
370
    15
100
AcDbLine
 10
2094.2406495737
 20
659.0705242608
 30
0.0
 11
2091.5873952087
 21
659.7916219448
 31
0.0
  0
LINE
  5
3EF
330
1F
100
AcDbEntity
  8
0
  6
Continuous
 62
     7
370
    15
100
AcDbLine
 10
2091.5873952087
 20
719.793332994
 30
0.0
 11
2091.5873952087
 21
659.7916219448
 31
0.0
  0
LINE
  5
3F0
330
1F
100
AcDbEntity
  8
0
  6
Continuous
 62
     7
370
    15
100
AcDbLine
 10
2622.2382682151
 20
575.5737961836
 30
0.0
 11
2622.2382682151
 21
515.5720851345
 31
0.0
  0
LINE
  5
3F1
330
1F
100
AcDbEntity
  8
0
  6
Continuous
 62
     7
370
    15
100
AcDbLine
 10
2734.2451615583
 20
650.6092657886
 30
0.0
 11
2734.2451615583
 21
684.8959578167
 31
0.0
  0
LINE
  5
3F2
330
1F
100
AcDbEntity
  8
0
  6
Continuous
 62
     7
370
    15
100
AcDbLine
 10
2720.2442998904
 20
611.2289765634
 30
0.0
 11
2734.2451615583
 21
650.6092657886
 31
0.0
  0
LINE
  5
3F3
330
1F
100
AcDbEntity
  8
0
  6
Continuous
 62
     7
370
    15
100
AcDbLine
 10
2622.2382682151
 20
515.5720851345
 30
0.0
 11
2720.2442998904
 21
611.2289765634
 31
0.0
  0
LWPOLYLINE
  5
3F4
330
1F
100
AcDbEntity
  8
0
  6
Continuous
 62
     7
370
    15
100
AcDbPolyline
 90
       28
 70
   128
 43
0.0
 10
2641.6061268557
 20
547.3332184274
 10
2641.5243579308
 20
548.5383059422
 10
2641.2834593398
 20
549.5188089221
 10
2640.8964179883
 20
550.2218681977
 10
2640.3840993755
 20
550.6095816615
 10
2639.7741227307
 20
550.6610475803
 10
2639.0993720525
 20
550.3734914131
 10
2638.3962233246
 20
549.7624153873
 10
2637.7025834771
 20
548.8607627697
 10
2637.0558468137
 20
547.7171418861
 10
2636.4908790751
 20
546.3932056345
 10
2636.0381378186
 20
544.9603277609
 10
2635.7220304423
 20
543.4957550824
 10
2635.5595983768
 20
542.078443091
 10
2635.5595983768
 20
540.7847994432
 10
2635.7220304423
 20
539.6845648028
 10
2636.0381378186
 20
538.8370531042
 10
2636.4908790751
 20
538.2879539222
 10
2637.0558468137
 20
538.066869336
 10
2637.7025834771
 20
538.1857180728
 10
2638.3962233246
 20
538.6380929665
 10
2639.0993720525
 20
539.3996063695
 10
2639.7741227307
 20
540.429204897
 10
2640.3840993755
 20
541.671382626
 10
2640.8964179883
 20
543.0591734335
 10
2641.2834593398
 20
544.517761158
 10
2641.5243579308
 20
545.9685129576
 10
2641.6061268557
 20
547.3332184274
  0
LWPOLYLINE
  5
3F5
330
1F
100
AcDbEntity
  8
0
  6
Continuous
 62
     7
370
    15
100
AcDbPolyline
 90
       14
 70
   128
 43
0.0
 10
2703.2099181945
 20
601.888819871
 10
2703.9358870551
 20
602.7592879401
 10
2704.6196652444
 20
603.90296798
 10
2705.2215140593
 20
605.2533934638
 10
2705.7064562344
 20
606.7320825712
 10
2706.0463086932
 20
608.2530992659
 10
2706.2213204461
 20
609.7280475864
 10
2706.2213204461
 20
611.0712088974
 10
2706.0463086932
 20
612.2045235459
 10
2705.7064562344
 20
613.0621274037
 10
2705.2215140593
 20
613.5941796521
 10
2704.6196652444
 20
613.7697593481
 10
2703.9358870551
 20
613.5786624382
 10
2703.2099181945
 20
613.0319947801
  0
LINE
  5
3F6
330
1F
100
AcDbEntity
  8
0
  6
Continuous
 62
     7
370
    15
100
AcDbLine
 10
2703.2099181945
 20
613.0319947801
 30
0.0
 11
2685.9421888041
 21
596.1781615284
 31
0.0
  0
LWPOLYLINE
  5
3F7
330
1F
100
AcDbEntity
  8
0
  6
Continuous
 62
     7
370
    15
100
AcDbPolyline
 90
       14
 70
   128
 43
0.0
 10
2685.9421888041
 20
596.1781615284
 10
2685.2162199434
 20
595.3076934593
 10
2684.5324417542
 20
594.1640134194
 10
2683.9305929393
 20
592.8135879355
 10
2683.4456507641
 20
591.3348988282
 10
2683.1057983053
 20
589.8138821334
 10
2682.9307865525
 20
588.338933813
 10
2682.9307865525
 20
586.9957725019
 10
2683.1057983053
 20
585.8624578535
 10
2683.4456507641
 20
585.0048539956
 10
2683.9305929393
 20
584.4728017473
 10
2684.5324417542
 20
584.2972220512
 10
2685.2162199434
 20
584.4883189611
 10
2685.9421888041
 20
585.0349866192
  0
LINE
  5
3F8
330
1F
100
AcDbEntity
  8
0
  6
Continuous
 62
     7
370
    15
100
AcDbLine
 10
2685.9421888041
 20
585.0349866192
 30
0.0
 11
2703.2099181945
 21
601.888819871
 31
0.0
  0
LWPOLYLINE
  5
3F9
330
1F
100
AcDbEntity
  8
0
  6
Continuous
 62
     7
370
    15
100
AcDbPolyline
 90
       21
 70
   128
 43
0.0
 10
2602.0784501006
 20
591.2933852049
 10
2602.9938760335
 20
590.9404169427
 10
2603.6527208844
 20
590.4590290884
 10
2603.9904923287
 20
589.8963432393
 10
2603.9741269443
 20
589.3074390067
 10
2603.6052266888
 20
588.74996244
 10
2602.9199020897
 20
588.2784832298
 10
2601.9852374935
 20
587.9391530462
 10
2600.8927243832
 20
587.7651878917
 10
2599.749305554
 20
587.7736166878
 10
2598.6669068076
 20
587.9636143652
 10
2597.7514808747
 20
588.3165826274
 10
2597.0926360238
 20
588.7979704817
 10
2596.7548645795
 20
589.3606563309
 10
2596.7712299639
 20
589.9495605635
 10
2597.1401302194
 20
590.5070371301
 10
2597.8254548185
 20
590.9785163403
 10
2598.7601194147
 20
591.317846524
 10
2599.852632525
 20
591.4918116785
 10
2600.9960513542
 20
591.4833828823
 10
2602.0784501006
 20
591.2933852049
  0
LWPOLYLINE
  5
3FA
330
1F
100
AcDbEntity
  8
0
  6
Continuous
 62
     7
370
    15
100
AcDbPolyline
 90
       21
 70
   128
 43
0.0
 10
2615.2735053395
 20
589.273764855
 10
2616.355904086
 20
589.0837671776
 10
2617.4993229152
 20
589.0753383815
 10
2618.5918360255
 20
589.249303536
 10
2619.5265006216
 20
589.5886337196
 10
2620.2118252208
 20
590.0601129298
 10
2620.5807254762
 20
590.6175894965
 10
2620.5970908607
 20
591.2064937291
 10
2620.2593194163
 20
591.7691795782
 10
2619.6004745655
 20
592.2505674325
 10
2618.6850486326
 20
592.6035356948
 10
2617.6026498861
 20
592.7935333722
 10
2616.4592310569
 20
592.8019621683
 10
2615.3667179466
 20
592.6279970138
 10
2614.4320533505
 20
592.2886668301
 10
2613.7467287513
 20
591.81718762
 10
2613.3778284959
 20
591.2597110533
 10
2613.3614631114
 20
590.6708068207
 10
2613.6992345558
 20
590.1081209715
 10
2614.3580794066
 20
589.6267331173
 10
2615.2735053395
 20
589.273764855
  0
LWPOLYLINE
  5
3FB
330
1F
100
AcDbEntity
  8
0
  6
Continuous
 62
     7
370
    15
100
AcDbPolyline
 90
       20
 70
   128
 43
0.0
 10
2602.0061123154
 20
591.2227813089
 10
2602.9227036946
 20
590.863235364
 10
2603.5629602713
 20
590.3698866602
 10
2603.8575003108
 20
589.7961971846
 10
2603.7744058295
 20
589.2043350938
 10
2603.3226814039
 20
588.6584378288
 10
2602.5512783846
 20
588.2176618289
 10
2601.5437902584
 20
587.9297720129
 10
2600.4093939966
 20
587.8259657095
 10
2599.271019036
 20
587.9174919424
 10
2598.2520259674
 20
588.1944324241
 10
2597.462838501
 20
588.6267763562
 10
2596.9889773444
 20
589.1676725651
 10
2596.8817927065
 20
589.7585065538
 10
2597.1528997061
 20
590.3352522919
 10
2597.772919693
 20
590.8354104294
 10
2598.6746638811
 20
591.2047810715
 10
2599.7604142956
 20
591.4033371776
 10
2600.9125130319
 20
591.4095621129
 10
2602.0061123154
 20
591.2227813089
  0
LWPOLYLINE
  5
3FC
330
1F
100
AcDbEntity
  8
0
  6
Continuous
 62
     7
370
    15
100
AcDbPolyline
 90
       20
 70
   128
 43
0.0
 10
2615.3458431248
 20
589.3443687511
 10
2616.4394424082
 20
589.1575879471
 10
2617.5915411445
 20
589.1638128823
 10
2618.677291559
 20
589.3623689885
 10
2619.5790357471
 20
589.7317396306
 10
2620.1990557341
 20
590.2318977681
 10
2620.4701627336
 20
590.8086435061
 10
2620.3629780958
 20
591.3994774948
 10
2619.8891169391
 20
591.9403737038
 10
2619.0999294728
 20
592.3727176359
 10
2618.0809364041
 20
592.6496581175
 10
2616.9425614436
 20
592.7411843504
 10
2615.8081651817
 20
592.6373780471
 10
2614.8006770555
 20
592.3494882311
 10
2614.0292740363
 20
591.9087122311
 10
2613.5775496107
 20
591.3628149662
 10
2613.4944551294
 20
590.7709528753
 10
2613.7889951689
 20
590.1972633998
 10
2614.4292517456
 20
589.703914696
 10
2615.3458431248
 20
589.3443687511
  0
LINE
  5
3FD
330
1F
100
AcDbEntity
  8
0
  6
Continuous
 62
     7
370
    15
100
AcDbLine
 10
2100.3076896298
 20
664.9921413492
 30
0.0
 11
2619.5850138501
 21
523.8636913933
 31
0.0
  0
LINE
  5
3FE
330
1F
100
AcDbEntity
  8
0
  6
Continuous
 62
     7
370
    15
100
AcDbLine
 10
2100.3076896298
 20
698.5656632082
 30
0.0
 11
2100.3076896298
 21
664.9921413492
 31
0.0
  0
LWPOLYLINE
  5
3FF
330
1F
100
AcDbEntity
  8
0
  6
Continuous
 62
     7
370
    15
100
AcDbPolyline
 90
       21
 70
   128
 43
0.0
 10
2575.5459064503
 20
598.5043620455
 10
2576.4613323832
 20
598.1513937832
 10
2577.1201772341
 20
597.6700059289
 10
2577.4579486784
 20
597.1073200798
 10
2577.441583294
 20
596.5184158472
 10
2577.0726830385
 20
595.9609392805
 10
2576.3873584394
 20
595.4894600703
 10
2575.4526938432
 20
595.1501298867
 10
2574.3601807329
 20
594.9761647322
 10
2573.2167619037
 20
594.9845935283
 10
2572.1343631572
 20
595.1745912057
 10
2571.2189372244
 20
595.527559468
 10
2570.5600923735
 20
596.0089473223
 10
2570.2223209291
 20
596.5716331714
 10
2570.2386863136
 20
597.160537404
 10
2570.607586569
 20
597.7180139707
 10
2571.2929111682
 20
598.1894931809
 10
2572.2275757644
 20
598.5288233645
 10
2573.3200888747
 20
598.702788519
 10
2574.4635077039
 20
598.6943597229
 10
2575.5459064503
 20
598.5043620455
  0
LWPOLYLINE
  5
400
330
1F
100
AcDbEntity
  8
0
  6
Continuous
 62
     7
370
    15
100
AcDbPolyline
 90
       21
 70
   128
 43
0.0
 10
2588.7409616892
 20
596.4847416955
 10
2589.8233604356
 20
596.2947440181
 10
2590.9667792649
 20
596.286315222
 10
2592.0592923751
 20
596.4602803765
 10
2592.9939569713
 20
596.7996105601
 10
2593.6792815705
 20
597.2710897703
 10
2594.0481818259
 20
597.828566337
 10
2594.0645472104
 20
598.4174705696
 10
2593.726775766
 20
598.9801564187
 10
2593.0679309151
 20
599.461544273
 10
2592.1525049823
 20
599.8145125353
 10
2591.0701062358
 20
600.0045102127
 10
2589.9266874066
 20
600.0129390088
 10
2588.8341742963
 20
599.8389738543
 10
2587.8995097001
 20
599.4996436707
 10
2587.214185101
 20
599.0281644605
 10
2586.8452848455
 20
598.4706878938
 10
2586.8289194611
 20
597.8817836612
 10
2587.1666909055
 20
597.3190978121
 10
2587.8255357563
 20
596.8377099578
 10
2588.7409616892
 20
596.4847416955
  0
LWPOLYLINE
  5
401
330
1F
100
AcDbEntity
  8
0
  6
Continuous
 62
     7
370
    15
100
AcDbPolyline
 90
       20
 70
   128
 43
0.0
 10
2575.473568665
 20
598.4337581494
 10
2576.3901600443
 20
598.0742122045
 10
2577.030416621
 20
597.5808635007
 10
2577.3249566604
 20
597.0071740252
 10
2577.2418621792
 20
596.4153119343
 10
2576.7901377535
 20
595.8694146693
 10
2576.0187347343
 20
595.4286386694
 10
2575.0112466081
 20
595.1407488534
 10
2573.8768503463
 20
595.03694255
 10
2572.7384753857
 20
595.1284687829
 10
2571.7194823171
 20
595.4054092646
 10
2570.9302948507
 20
595.8377531967
 10
2570.4564336941
 20
596.3786494056
 10
2570.3492490562
 20
596.9694833943
 10
2570.6203560558
 20
597.5462291324
 10
2571.2403760427
 20
598.0463872699
 10
2572.1421202308
 20
598.415757912
 10
2573.2278706453
 20
598.6143140182
 10
2574.3799693816
 20
598.6205389534
 10
2575.473568665
 20
598.4337581494
  0
LWPOLYLINE
  5
402
330
1F
100
AcDbEntity
  8
0
  6
Continuous
 62
     7
370
    15
100
AcDbPolyline
 90
       20
 70
   128
 43
0.0
 10
2588.8132994745
 20
596.5553455916
 10
2589.9068987579
 20
596.3685647876
 10
2591.0589974942
 20
596.3747897228
 10
2592.1447479087
 20
596.573345829
 10
2593.0464920968
 20
596.9427164711
 10
2593.6665120838
 20
597.4428746086
 10
2593.9376190833
 20
598.0196203467
 10
2593.8304344455
 20
598.6104543354
 10
2593.3565732888
 20
599.1513505443
 10
2592.5673858224
 20
599.5836944764
 10
2591.5483927538
 20
599.8606349581
 10
2590.4100177932
 20
599.952161191
 10
2589.2756215314
 20
599.8483548876
 10
2588.2681334052
 20
599.5604650716
 10
2587.496730386
 20
599.1196890717
 10
2587.0450059603
 20
598.5737918067
 10
2586.9619114791
 20
597.9819297158
 10
2587.2564515186
 20
597.4082402403
 10
2587.8967080952
 20
596.9148915365
 10
2588.8132994745
 20
596.5553455916
  0
LWPOLYLINE
  5
403
330
1F
100
AcDbEntity
  8
0
  6
Continuous
 62
     7
370
    15
100
AcDbPolyline
 90
       21
 70
   128
 43
0.0
 10
2549.0133628
 20
605.715338886
 10
2549.9287887329
 20
605.3623706237
 10
2550.5876335837
 20
604.8809827695
 10
2550.9254050281
 20
604.3182969203
 10
2550.9090396436
 20
603.7293926877
 10
2550.5401393882
 20
603.171916121
 10
2549.854814789
 20
602.7004369108
 10
2548.9201501929
 20
602.3611067272
 10
2547.8276370826
 20
602.1871415727
 10
2546.6842182534
 20
602.1955703688
 10
2545.6018195069
 20
602.3855680462
 10
2544.686393574
 20
602.7385363085
 10
2544.0275487232
 20
603.2199241628
 10
2543.6897772788
 20
603.7826100119
 10
2543.7061426633
 20
604.3715142445
 10
2544.0750429187
 20
604.9289908112
 10
2544.7603675179
 20
605.4004700214
 10
2545.695032114
 20
605.739800205
 10
2546.7875452243
 20
605.9137653595
 10
2547.9309640535
 20
605.9053365634
 10
2549.0133628
 20
605.715338886
  0
LWPOLYLINE
  5
404
330
1F
100
AcDbEntity
  8
0
  6
Continuous
 62
     7
370
    15
100
AcDbPolyline
 90
       21
 70
   128
 43
0.0
 10
2562.2084180389
 20
603.6957185361
 10
2563.2908167853
 20
603.5057208586
 10
2564.4342356145
 20
603.4972920625
 10
2565.5267487248
 20
603.671257217
 10
2566.461413321
 20
604.0105874007
 10
2567.1467379201
 20
604.4820666109
 10
2567.5156381756
 20
605.0395431775
 10
2567.5320035601
 20
605.6284474101
 10
2567.1942321157
 20
606.1911332593
 10
2566.5353872648
 20
606.6725211136
 10
2565.6199613319
 20
607.0254893758
 10
2564.5375625855
 20
607.2154870532
 10
2563.3941437563
 20
607.2239158493
 10
2562.301630646
 20
607.0499506948
 10
2561.3669660498
 20
606.7106205112
 10
2560.6816414507
 20
606.239141301
 10
2560.3127411952
 20
605.6816647343
 10
2560.2963758108
 20
605.0927605017
 10
2560.6341472551
 20
604.5300746526
 10
2561.292992106
 20
604.0486867983
 10
2562.2084180389
 20
603.6957185361
  0
LWPOLYLINE
  5
405
330
1F
100
AcDbEntity
  8
0
  6
Continuous
 62
     7
370
    15
100
AcDbPolyline
 90
       20
 70
   128
 43
0.0
 10
2548.9410250147
 20
605.6447349899
 10
2549.8576163939
 20
605.285189045
 10
2550.4978729706
 20
604.7918403412
 10
2550.7924130101
 20
604.2181508657
 10
2550.7093185288
 20
603.6262887748
 10
2550.2575941032
 20
603.0803915099
 10
2549.486191084
 20
602.6396155099
 10
2548.4787029578
 20
602.3517256939
 10
2547.3443066959
 20
602.2479193906
 10
2546.2059317354
 20
602.3394456235
 10
2545.1869386667
 20
602.6163861051
 10
2544.3977512004
 20
603.0487300372
 10
2543.9238900437
 20
603.5896262461
 10
2543.8167054059
 20
604.1804602348
 10
2544.0878124054
 20
604.7572059729
 10
2544.7078323924
 20
605.2573641104
 10
2545.6095765805
 20
605.6267347525
 10
2546.695326995
 20
605.8252908587
 10
2547.8474257313
 20
605.8315157939
 10
2548.9410250147
 20
605.6447349899
  0
LWPOLYLINE
  5
406
330
1F
100
AcDbEntity
  8
0
  6
Continuous
 62
     7
370
    15
100
AcDbPolyline
 90
       20
 70
   128
 43
0.0
 10
2562.2807558241
 20
603.7663224321
 10
2563.3743551076
 20
603.5795416281
 10
2564.5264538439
 20
603.5857665634
 10
2565.6122042584
 20
603.7843226695
 10
2566.5139484465
 20
604.1536933116
 10
2567.1339684334
 20
604.6538514491
 10
2567.405075433
 20
605.2305971872
 10
2567.2978907951
 20
605.8214311759
 10
2566.8240296385
 20
606.3623273848
 10
2566.0348421721
 20
606.7946713169
 10
2565.0158491035
 20
607.0716117986
 10
2563.8774741429
 20
607.1631380315
 10
2562.7430778811
 20
607.0593317281
 10
2561.7355897549
 20
606.7714419121
 10
2560.9641867356
 20
606.3306659122
 10
2560.51246231
 20
605.7847686472
 10
2560.4293678287
 20
605.1929065564
 10
2560.7239078682
 20
604.6192170808
 10
2561.3641644449
 20
604.125868377
 10
2562.2807558241
 20
603.7663224321
  0
LWPOLYLINE
  5
407
330
1F
100
AcDbEntity
  8
0
  6
Continuous
 62
     7
370
    15
100
AcDbPolyline
 90
        3
 70
   128
 43
0.0
 10
2638.9528724907
 20
548.0543161115
 10
2638.8711035657
 20
549.2594036262
 10
2638.6929619228
 20
550.0570807259
  0
ARC
  5
408
330
1F
100
AcDbEntity
  8
0
  6
Continuous
 62
     7
370
    15
100
AcDbCircle
 10
2625.782667095
 20
547.9608062133
 30
0.0
 40
13.17053735679957
100
AcDbArc
 50
319.5092118892
 51
0.4067994627
  0
LWPOLYLINE
  5
409
330
1F
100
AcDbEntity
  8
0
  6
Continuous
 62
     7
370
    15
100
AcDbPolyline
 90
       21
 70
   128
 43
0.0
 10
2522.4808191497
 20
612.9263157265
 10
2523.3962450826
 20
612.5733474643
 10
2524.0550899334
 20
612.09195961
 10
2524.3928613778
 20
611.5292737608
 10
2524.3764959933
 20
610.9403695282
 10
2524.0075957379
 20
610.3828929616
 10
2523.3222711387
 20
609.9114137514
 10
2522.3876065426
 20
609.5720835677
 10
2521.2950934323
 20
609.3981184132
 10
2520.151674603
 20
609.4065472094
 10
2519.0692758566
 20
609.5965448868
 10
2518.1538499237
 20
609.949513149
 10
2517.4950050729
 20
610.4309010033
 10
2517.1572336285
 20
610.9935868524
 10
2517.173599013
 20
611.582491085
 10
2517.5424992684
 20
612.1399676517
 10
2518.2278238676
 20
612.6114468619
 10
2519.1624884637
 20
612.9507770455
 10
2520.255001574
 20
613.1247422
 10
2521.3984204032
 20
613.1163134039
 10
2522.4808191497
 20
612.9263157265
  0
LWPOLYLINE
  5
40A
330
1F
100
AcDbEntity
  8
0
  6
Continuous
 62
     7
370
    15
100
AcDbPolyline
 90
       21
 70
   128
 43
0.0
 10
2535.6758743885
 20
610.9066953766
 10
2536.758273135
 20
610.7166976992
 10
2537.9016919642
 20
610.7082689031
 10
2538.9942050745
 20
610.8822340575
 10
2539.9288696707
 20
611.2215642412
 10
2540.6141942698
 20
611.6930434514
 10
2540.9830945253
 20
612.250520018
 10
2540.9994599097
 20
612.8394242506
 10
2540.6616884654
 20
613.4021100998
 10
2540.0028436145
 20
613.8834979541
 10
2539.0874176816
 20
614.2364662163
 10
2538.0050189352
 20
614.4264638937
 10
2536.861600106
 20
614.4348926898
 10
2535.7690869957
 20
614.2609275353
 10
2534.8344223995
 20
613.9215973517
 10
2534.1490978003
 20
613.4501181415
 10
2533.7801975449
 20
612.8926415748
 10
2533.7638321604
 20
612.3037373422
 10
2534.1016036048
 20
611.7410514931
 10
2534.7604484557
 20
611.2596636388
 10
2535.6758743885
 20
610.9066953766
  0
LWPOLYLINE
  5
40B
330
1F
100
AcDbEntity
  8
0
  6
Continuous
 62
     7
370
    15
100
AcDbPolyline
 90
       20
 70
   128
 43
0.0
 10
2522.4084813644
 20
612.8557118304
 10
2523.3250727436
 20
612.4961658855
 10
2523.9653293203
 20
612.0028171817
 10
2524.2598693598
 20
611.4291277062
 10
2524.1767748785
 20
610.8372656153
 10
2523.7250504529
 20
610.2913683504
 10
2522.9536474336
 20
609.8505923504
 10
2521.9461593075
 20
609.5627025345
 10
2520.8117630456
 20
609.4588962311
 10
2519.673388085
 20
609.550422464
 10
2518.6543950164
 20
609.8273629456
 10
2517.86520755
 20
610.2597068777
 10
2517.3913463934
 20
610.8006030867
 10
2517.2841617555
 20
611.3914370754
 10
2517.5552687551
 20
611.9681828134
 10
2518.175288742
 20
612.4683409509
 10
2519.0770329301
 20
612.837711593
 10
2520.1627833446
 20
613.0362676992
 10
2521.314882081
 20
613.0424926344
 10
2522.4084813644
 20
612.8557118304
  0
LWPOLYLINE
  5
40C
330
1F
100
AcDbEntity
  8
0
  6
Continuous
 62
     7
370
    15
100
AcDbPolyline
 90
       20
 70
   128
 43
0.0
 10
2535.7482121738
 20
610.9772992726
 10
2536.8418114572
 20
610.7905184686
 10
2537.9939101936
 20
610.7967434039
 10
2539.0796606081
 20
610.99529951
 10
2539.9814047962
 20
611.3646701521
 10
2540.6014247831
 20
611.8648282897
 10
2540.8725317827
 20
612.4415740277
 10
2540.7653471448
 20
613.0324080164
 10
2540.2914859882
 20
613.5733042253
 10
2539.5022985218
 20
614.0056481574
 10
2538.4833054532
 20
614.2825886391
 10
2537.3449304926
 20
614.374114872
 10
2536.2105342307
 20
614.2703085686
 10
2535.2030461046
 20
613.9824187526
 10
2534.4316430853
 20
613.5416427527
 10
2533.9799186597
 20
612.9957454877
 10
2533.8968241784
 20
612.4038833969
 10
2534.1913642179
 20
611.8301939214
 10
2534.8316207946
 20
611.3368452176
 10
2535.7482121738
 20
610.9772992726
  0
LWPOLYLINE
  5
40D
330
1F
100
AcDbEntity
  8
0
  6
Continuous
 62
     7
370
    15
100
AcDbPolyline
 90
       21
 70
   128
 43
0.0
 10
2495.9482754994
 20
620.137292567
 10
2496.8637014322
 20
619.7843243048
 10
2497.5225462831
 20
619.3029364505
 10
2497.8603177275
 20
618.7402506013
 10
2497.843952343
 20
618.1513463687
 10
2497.4750520875
 20
617.5938698021
 10
2496.7897274884
 20
617.1223905919
 10
2495.8550628922
 20
616.7830604082
 10
2494.7625497819
 20
616.6090952538
 10
2493.6191309527
 20
616.6175240499
 10
2492.5367322063
 20
616.8075217273
 10
2491.6213062734
 20
617.1604899895
 10
2490.9624614225
 20
617.6418778438
 10
2490.6246899782
 20
618.2045636929
 10
2490.6410553626
 20
618.7934679256
 10
2491.0099556181
 20
619.3509444922
 10
2491.6952802172
 20
619.8224237024
 10
2492.6299448134
 20
620.1617538861
 10
2493.7224579237
 20
620.3357190405
 10
2494.8658767529
 20
620.3272902444
 10
2495.9482754994
 20
620.137292567
  0
LWPOLYLINE
  5
40E
330
1F
100
AcDbEntity
  8
0
  6
Continuous
 62
     7
370
    15
100
AcDbPolyline
 90
       21
 70
   128
 43
0.0
 10
2509.1433307382
 20
618.1176722171
 10
2510.2257294847
 20
617.9276745397
 10
2511.3691483139
 20
617.9192457436
 10
2512.4616614242
 20
618.093210898
 10
2513.3963260203
 20
618.4325410817
 10
2514.0816506195
 20
618.9040202919
 10
2514.4505508749
 20
619.4614968585
 10
2514.4669162594
 20
620.0504010912
 10
2514.129144815
 20
620.6130869403
 10
2513.4702999642
 20
621.0944747946
 10
2512.5548740313
 20
621.4474430568
 10
2511.4724752848
 20
621.6374407342
 10
2510.3290564556
 20
621.6458695303
 10
2509.2365433453
 20
621.4719043759
 10
2508.3018787492
 20
621.1325741922
 10
2507.61655415
 20
620.661094982
 10
2507.2476538946
 20
620.1036184154
 10
2507.2312885101
 20
619.5147141828
 10
2507.5690599545
 20
618.9520283336
 10
2508.2279048053
 20
618.4706404793
 10
2509.1433307382
 20
618.1176722171
  0
LWPOLYLINE
  5
40F
330
1F
100
AcDbEntity
  8
0
  6
Continuous
 62
     7
370
    15
100
AcDbPolyline
 90
       20
 70
   128
 43
0.0
 10
2495.8759377141
 20
620.066688671
 10
2496.7925290933
 20
619.707142726
 10
2497.43278567
 20
619.2137940222
 10
2497.7273257095
 20
618.6401045467
 10
2497.6442312282
 20
618.0482424559
 10
2497.1925068026
 20
617.5023451909
 10
2496.4211037833
 20
617.061569191
 10
2495.4136156571
 20
616.773679375
 10
2494.2792193953
 20
616.6698730716
 10
2493.1408444347
 20
616.7613993045
 10
2492.1218513661
 20
617.0383397862
 10
2491.3326638997
 20
617.4706837182
 10
2490.8588027431
 20
618.0115799272
 10
2490.7516181052
 20
618.6024139159
 10
2491.0227251048
 20
619.1791596539
 10
2491.6427450917
 20
619.6793177915
 10
2492.5444892798
 20
620.0486884335
 10
2493.6302396943
 20
620.2472445397
 10
2494.7823384306
 20
620.253469475
 10
2495.8759377141
 20
620.066688671
  0
LWPOLYLINE
  5
410
330
1F
100
AcDbEntity
  8
0
  6
Continuous
 62
     7
370
    15
100
AcDbPolyline
 90
       20
 70
   128
 43
0.0
 10
2509.2156685235
 20
618.1882761131
 10
2510.3092678069
 20
618.0014953091
 10
2511.4613665433
 20
618.0077202444
 10
2512.5471169578
 20
618.2062763506
 10
2513.4488611459
 20
618.5756469926
 10
2514.0688811328
 20
619.0758051302
 10
2514.3399881323
 20
619.6525508682
 10
2514.2328034945
 20
620.2433848569
 10
2513.7589423378
 20
620.7842810659
 10
2512.9697548715
 20
621.2166249979
 10
2511.9507618029
 20
621.4935654796
 10
2510.8123868423
 20
621.5850917125
 10
2509.6779905804
 20
621.4812854091
 10
2508.6705024542
 20
621.1933955931
 10
2507.899099435
 20
620.7526195932
 10
2507.4473750094
 20
620.2067223282
 10
2507.3642805281
 20
619.6148602374
 10
2507.6588205676
 20
619.0411707619
 10
2508.2990771443
 20
618.5478220581
 10
2509.2156685235
 20
618.1882761131
  0
LINE
  5
411
330
1F
100
AcDbEntity
  8
0
  6
Continuous
 62
     7
370
    15
100
AcDbLine
 10
2576.119420394
 20
720.0421698978
 30
0.0
 11
2576.119420394
 21
721.7565044992
 31
0.0
  0
LINE
  5
412
330
1F
100
AcDbEntity
  8
0
  6
Continuous
 62
     7
370
    15
100
AcDbLine
 10
2580.0863311999
 20
712.3799410512
 30
0.0
 11
2580.0863311999
 21
718.9640485414
 31
0.0
  0
LINE
  5
413
330
1F
100
AcDbEntity
  8
0
  6
Continuous
 62
     7
370
    15
100
AcDbLine
 10
2577.0122213693
 20
705.4845596072
 30
0.0
 11
2576.119420394
 21
704.6131584852
 31
0.0
  0
LINE
  5
414
330
1F
100
AcDbEntity
  8
0
  6
Continuous
 62
     7
370
    15
100
AcDbLine
 10
2496.7524458874
 20
627.1485582597
 30
0.0
 11
2503.5076976128
 21
633.7418910355
 31
0.0
  0
LINE
  5
415
330
1F
100
AcDbEntity
  8
0
  6
Continuous
 62
     7
370
    15
100
AcDbLine
 10
2509.7032429302
 20
639.7889331985
 30
0.0
 11
2518.2086023641
 21
648.0904247498
 31
0.0
  0
LINE
  5
416
330
1F
100
AcDbEntity
  8
0
  6
Continuous
 62
     7
370
    15
100
AcDbLine
 10
2524.4041476815
 20
654.1374669128
 30
0.0
 11
2532.9095071154
 21
662.4389584642
 31
0.0
  0
LINE
  5
417
330
1F
100
AcDbEntity
  8
0
  6
Continuous
 62
     7
370
    15
100
AcDbLine
 10
2539.1050524328
 20
668.4860006272
 30
0.0
 11
2547.6104118667
 21
676.7874921785
 31
0.0
  0
LINE
  5
418
330
1F
100
AcDbEntity
  8
0
  6
Continuous
 62
     7
370
    15
100
AcDbLine
 10
2553.8059571841
 20
682.8345343415
 30
0.0
 11
2562.311316618
 21
691.1360258928
 31
0.0
  0
LINE
  5
419
330
1F
100
AcDbEntity
  8
0
  6
Continuous
 62
     7
370
    15
100
AcDbLine
 10
2568.5068619354
 20
697.1830680558
 30
0.0
 11
2576.119420394
 21
704.6131584852
 31
0.0
  0
LWPOLYLINE
  5
41A
330
1F
100
AcDbEntity
  8
0
  6
Continuous
 62
     7
370
    15
100
AcDbPolyline
 90
       21
 70
   128
 43
0.0
 10
2469.415731849
 20
627.3482694075
 10
2470.3311577819
 20
626.9953011453
 10
2470.9900026328
 20
626.513913291
 10
2471.3277740771
 20
625.9512274419
 10
2471.3114086927
 20
625.3623232093
 10
2470.9425084372
 20
624.8048466426
 10
2470.2571838381
 20
624.3333674324
 10
2469.3225192419
 20
623.9940372488
 10
2468.2300061316
 20
623.8200720943
 10
2467.0865873024
 20
623.8285008904
 10
2466.0041885559
 20
624.0184985678
 10
2465.0887626231
 20
624.37146683
 10
2464.4299177722
 20
624.8528546843
 10
2464.0921463278
 20
625.4155405335
 10
2464.1085117123
 20
626.0044447661
 10
2464.4774119678
 20
626.5619213327
 10
2465.1627365669
 20
627.0334005429
 10
2466.0974011631
 20
627.3727307266
 10
2467.1899142734
 20
627.546695881
 10
2468.3333331026
 20
627.5382670849
 10
2469.415731849
 20
627.3482694075
  0
LWPOLYLINE
  5
41B
330
1F
100
AcDbEntity
  8
0
  6
Continuous
 62
     7
370
    15
100
AcDbPolyline
 90
       21
 70
   128
 43
0.0
 10
2482.6107870879
 20
625.3286490576
 10
2483.6931858343
 20
625.1386513802
 10
2484.8366046636
 20
625.1302225841
 10
2485.9291177739
 20
625.3041877386
 10
2486.86378237
 20
625.6435179222
 10
2487.5491069692
 20
626.1149971324
 10
2487.9180072246
 20
626.6724736991
 10
2487.9343726091
 20
627.2613779317
 10
2487.5966011647
 20
627.8240637808
 10
2486.9377563139
 20
628.3054516351
 10
2486.022330381
 20
628.6584198973
 10
2484.9399316345
 20
628.8484175747
 10
2483.7965128053
 20
628.8568463709
 10
2482.703999695
 20
628.6828812164
 10
2481.7693350989
 20
628.3435510327
 10
2481.0840104997
 20
627.8720718225
 10
2480.7151102443
 20
627.3145952559
 10
2480.6987448598
 20
626.7256910233
 10
2481.0365163042
 20
626.1630051741
 10
2481.695361155
 20
625.6816173198
 10
2482.6107870879
 20
625.3286490576
  0
LWPOLYLINE
  5
41C
330
1F
100
AcDbEntity
  8
0
  6
Continuous
 62
     7
370
    15
100
AcDbPolyline
 90
       20
 70
   128
 43
0.0
 10
2469.3433940637
 20
627.2776655115
 10
2470.259985443
 20
626.9181195665
 10
2470.9002420197
 20
626.4247708627
 10
2471.1947820591
 20
625.8510813872
 10
2471.1116875779
 20
625.2592192964
 10
2470.6599631522
 20
624.7133220314
 10
2469.888560133
 20
624.2725460315
 10
2468.8810720068
 20
623.9846562155
 10
2467.746675745
 20
623.8808499121
 10
2466.6083007844
 20
623.972376145
 10
2465.5893077158
 20
624.2493166267
 10
2464.8001202494
 20
624.6816605588
 10
2464.3262590928
 20
625.2225567677
 10
2464.2190744549
 20
625.8133907564
 10
2464.4901814545
 20
626.3901364944
 10
2465.1102014414
 20
626.890294632
 10
2466.0119456295
 20
627.2596652741
 10
2467.097696044
 20
627.4582213802
 10
2468.2497947803
 20
627.4644463155
 10
2469.3433940637
 20
627.2776655115
  0
LWPOLYLINE
  5
41D
330
1F
100
AcDbEntity
  8
0
  6
Continuous
 62
     7
370
    15
100
AcDbPolyline
 90
       20
 70
   128
 43
0.0
 10
2482.6831248732
 20
625.3992529537
 10
2483.7767241566
 20
625.2124721497
 10
2484.9288228929
 20
625.2186970849
 10
2486.0145733074
 20
625.4172531911
 10
2486.9163174955
 20
625.7866238332
 10
2487.5363374825
 20
626.2867819707
 10
2487.807444482
 20
626.8635277087
 10
2487.7002598442
 20
627.4543616974
 10
2487.2263986875
 20
627.9952579064
 10
2486.4372112212
 20
628.4276018385
 10
2485.4182181525
 20
628.7045423201
 10
2484.279843192
 20
628.796068553
 10
2483.1454469301
 20
628.6922622496
 10
2482.1379588039
 20
628.4043724337
 10
2481.3665557847
 20
627.9635964337
 10
2480.914831359
 20
627.4176991688
 10
2480.8317368778
 20
626.8258370779
 10
2481.1262769173
 20
626.2521476024
 10
2481.766533494
 20
625.7587988986
 10
2482.6831248732
 20
625.3992529537
  0
LINE
  5
41E
330
1F
100
AcDbEntity
  8
0
  6
Continuous
 62
     7
370
    15
100
AcDbLine
 10
2548.2602495611
 20
727.6136955803
 30
0.0
 11
2548.2602495611
 21
729.3280301818
 31
0.0
  0
LINE
  5
41F
330
1F
100
AcDbEntity
  8
0
  6
Continuous
 62
     7
370
    15
100
AcDbLine
 10
2552.227160367
 20
719.9514667338
 30
0.0
 11
2552.227160367
 21
726.5355742239
 31
0.0
  0
LINE
  5
420
330
1F
100
AcDbEntity
  8
0
  6
Continuous
 62
     7
370
    15
100
AcDbLine
 10
2549.1530505365
 20
713.0560852897
 30
0.0
 11
2548.2602495611
 21
712.1846841677
 31
0.0
  0
LINE
  5
421
330
1F
100
AcDbEntity
  8
0
  6
Continuous
 62
     7
370
    15
100
AcDbLine
 10
2468.8932750546
 20
634.7200839422
 30
0.0
 11
2475.64852678
 21
641.3134167181
 31
0.0
  0
LINE
  5
422
330
1F
100
AcDbEntity
  8
0
  6
Continuous
 62
     7
370
    15
100
AcDbLine
 10
2481.8440720974
 20
647.360458881
 30
0.0
 11
2490.3494315313
 21
655.6619504324
 31
0.0
  0
LINE
  5
423
330
1F
100
AcDbEntity
  8
0
  6
Continuous
 62
     7
370
    15
100
AcDbLine
 10
2496.5449768487
 20
661.7089925954
 30
0.0
 11
2505.0503362826
 21
670.0104841467
 31
0.0
  0
LINE
  5
424
330
1F
100
AcDbEntity
  8
0
  6
Continuous
 62
     7
370
    15
100
AcDbLine
 10
2511.2458816
 20
676.0575263097
 30
0.0
 11
2519.7512410339
 21
684.3590178611
 31
0.0
  0
LINE
  5
425
330
1F
100
AcDbEntity
  8
0
  6
Continuous
 62
     7
370
    15
100
AcDbLine
 10
2525.9467863513
 20
690.406060024
 30
0.0
 11
2534.4521457852
 21
698.7075515754
 31
0.0
  0
LINE
  5
426
330
1F
100
AcDbEntity
  8
0
  6
Continuous
 62
     7
370
    15
100
AcDbLine
 10
2540.6476911026
 20
704.7545937384
 30
0.0
 11
2548.2602495611
 21
712.1846841677
 31
0.0
  0
LWPOLYLINE
  5
427
330
1F
100
AcDbEntity
  8
0
  6
Continuous
 62
     7
370
    15
100
AcDbPolyline
 90
       21
 70
   128
 43
0.0
 10
2442.8831881987
 20
634.5592462481
 10
2443.7986141316
 20
634.2062779858
 10
2444.4574589824
 20
633.7248901315
 10
2444.7952304268
 20
633.1622042824
 10
2444.7788650423
 20
632.5733000498
 10
2444.4099647869
 20
632.0158234831
 10
2443.7246401877
 20
631.5443442729
 10
2442.7899755916
 20
631.2050140893
 10
2441.6974624813
 20
631.0310489348
 10
2440.5540436521
 20
631.0394777309
 10
2439.4716449056
 20
631.2294754083
 10
2438.5562189727
 20
631.5824436705
 10
2437.8973741219
 20
632.0638315248
 10
2437.5596026775
 20
632.626517374
 10
2437.575968062
 20
633.2154216066
 10
2437.9448683174
 20
633.7728981733
 10
2438.6301929166
 20
634.2443773834
 10
2439.5648575127
 20
634.5837075671
 10
2440.657370623
 20
634.7576727216
 10
2441.8007894522
 20
634.7492439255
 10
2442.8831881987
 20
634.5592462481
  0
LWPOLYLINE
  5
428
330
1F
100
AcDbEntity
  8
0
  6
Continuous
 62
     7
370
    15
100
AcDbPolyline
 90
       21
 70
   128
 43
0.0
 10
2456.0782434376
 20
632.5396258981
 10
2457.160642184
 20
632.3496282207
 10
2458.3040610132
 20
632.3411994246
 10
2459.3965741235
 20
632.5151645791
 10
2460.3312387197
 20
632.8544947627
 10
2461.0165633188
 20
633.3259739729
 10
2461.3854635743
 20
633.8834505396
 10
2461.4018289588
 20
634.4723547722
 10
2461.0640575144
 20
635.0350406213
 10
2460.4052126635
 20
635.5164284756
 10
2459.4897867307
 20
635.8693967379
 10
2458.4073879842
 20
636.0593944153
 10
2457.263969155
 20
636.0678232114
 10
2456.1714560447
 20
635.8938580569
 10
2455.2367914485
 20
635.5545278733
 10
2454.5514668494
 20
635.0830486631
 10
2454.1825665939
 20
634.5255720964
 10
2454.1662012095
 20
633.9366678638
 10
2454.5039726538
 20
633.3739820146
 10
2455.1628175047
 20
632.8925941604
 10
2456.0782434376
 20
632.5396258981
  0
LWPOLYLINE
  5
429
330
1F
100
AcDbEntity
  8
0
  6
Continuous
 62
     7
370
    15
100
AcDbPolyline
 90
       20
 70
   128
 43
0.0
 10
2442.8108504134
 20
634.488642352
 10
2443.7274417926
 20
634.1290964071
 10
2444.3676983693
 20
633.6357477033
 10
2444.6622384088
 20
633.0620582277
 10
2444.5791439276
 20
632.4701961369
 10
2444.1274195019
 20
631.9242988719
 10
2443.3560164827
 20
631.483522872
 10
2442.3485283565
 20
631.195633056
 10
2441.2141320946
 20
631.0918267526
 10
2440.0757571341
 20
631.1833529855
 10
2439.0567640654
 20
631.4602934672
 10
2438.2675765991
 20
631.8926373993
 10
2437.7937154424
 20
632.4335336082
 10
2437.6865308046
 20
633.0243675969
 10
2437.9576378041
 20
633.601113335
 10
2438.5776577911
 20
634.1012714725
 10
2439.4794019792
 20
634.4706421146
 10
2440.5651523937
 20
634.6691982207
 10
2441.71725113
 20
634.675423156
 10
2442.8108504134
 20
634.488642352
  0
LWPOLYLINE
  5
42A
330
1F
100
AcDbEntity
  8
0
  6
Continuous
 62
     7
370
    15
100
AcDbPolyline
 90
       20
 70
   128
 43
0.0
 10
2456.1505812229
 20
632.6102297942
 10
2457.2441805063
 20
632.4234489902
 10
2458.3962792426
 20
632.4296739254
 10
2459.4820296571
 20
632.6282300316
 10
2460.3837738452
 20
632.9976006737
 10
2461.0037938321
 20
633.4977588112
 10
2461.2749008317
 20
634.0745045493
 10
2461.1677161938
 20
634.665338538
 10
2460.6938550372
 20
635.2062347469
 10
2459.9046675708
 20
635.638578679
 10
2458.8856745022
 20
635.9155191606
 10
2457.7472995416
 20
636.0070453935
 10
2456.6129032798
 20
635.9032390902
 10
2455.6054151536
 20
635.6153492742
 10
2454.8340121344
 20
635.1745732742
 10
2454.3822877087
 20
634.6286760093
 10
2454.2991932275
 20
634.0368139184
 10
2454.5937332669
 20
633.4631244429
 10
2455.2339898436
 20
632.9697757391
 10
2456.1505812229
 20
632.6102297942
  0
LWPOLYLINE
  5
42B
330
1F
100
AcDbEntity
  8
0
  6
Continuous
 62
     7
370
    15
100
AcDbPolyline
 90
       21
 70
   128
 43
0.0
 10
2416.3506445484
 20
641.7702230886
 10
2417.2660704813
 20
641.4172548263
 10
2417.9249153321
 20
640.935866972
 10
2418.2626867765
 20
640.3731811229
 10
2418.246321392
 20
639.7842768903
 10
2417.8774211366
 20
639.2268003236
 10
2417.1920965374
 20
638.7553211134
 10
2416.2574319413
 20
638.4159909298
 10
2415.164918831
 20
638.2420257753
 10
2414.0215000018
 20
638.2504545714
 10
2412.9391012553
 20
638.4404522488
 10
2412.0236753224
 20
638.7934205111
 10
2411.3648304716
 20
639.2748083654
 10
2411.0270590272
 20
639.8374942145
 10
2411.0434244117
 20
640.4263984471
 10
2411.4123246671
 20
640.9838750138
 10
2412.0976492663
 20
641.455354224
 10
2413.0323138624
 20
641.7946844076
 10
2414.1248269727
 20
641.9686495621
 10
2415.2682458019
 20
641.960220766
 10
2416.3506445484
 20
641.7702230886
  0
LINE
  5
42C
330
1F
100
AcDbEntity
  8
0
  6
Continuous
 62
     7
370
    15
100
AcDbLine
 10
2520.4010787283
 20
735.1852212629
 30
0.0
 11
2520.4010787283
 21
736.8995558643
 31
0.0
  0
LINE
  5
42D
330
1F
100
AcDbEntity
  8
0
  6
Continuous
 62
     7
370
    15
100
AcDbLine
 10
2524.3679895342
 20
727.5229924163
 30
0.0
 11
2524.3679895342
 21
734.1070999065
 31
0.0
  0
LINE
  5
42E
330
1F
100
AcDbEntity
  8
0
  6
Continuous
 62
     7
370
    15
100
AcDbLine
 10
2521.2938797036
 20
720.6276109723
 30
0.0
 11
2520.4010787283
 21
719.7562098503
 31
0.0
  0
LINE
  5
42F
330
1F
100
AcDbEntity
  8
0
  6
Continuous
 62
     7
370
    15
100
AcDbLine
 10
2441.0341042217
 20
642.2916096248
 30
0.0
 11
2447.7893559471
 21
648.8849424006
 31
0.0
  0
LINE
  5
430
330
1F
100
AcDbEntity
  8
0
  6
Continuous
 62
     7
370
    15
100
AcDbLine
 10
2453.9849012645
 20
654.9319845636
 30
0.0
 11
2462.4902606984
 21
663.2334761149
 31
0.0
  0
LINE
  5
431
330
1F
100
AcDbEntity
  8
0
  6
Continuous
 62
     7
370
    15
100
AcDbLine
 10
2468.6858060158
 20
669.2805182779
 30
0.0
 11
2477.1911654497
 21
677.5820098293
 31
0.0
  0
LINE
  5
432
330
1F
100
AcDbEntity
  8
0
  6
Continuous
 62
     7
370
    15
100
AcDbLine
 10
2483.3867107671
 20
683.6290519923
 30
0.0
 11
2491.892070201
 21
691.9305435436
 31
0.0
  0
LINE
  5
433
330
1F
100
AcDbEntity
  8
0
  6
Continuous
 62
     7
370
    15
100
AcDbLine
 10
2498.0876155184
 20
697.9775857066
 30
0.0
 11
2506.5929749523
 21
706.2790772579
 31
0.0
  0
LINE
  5
434
330
1F
100
AcDbEntity
  8
0
  6
Continuous
 62
     7
370
    15
100
AcDbLine
 10
2512.7885202697
 20
712.3261194209
 30
0.0
 11
2520.4010787283
 21
719.7562098503
 31
0.0
  0
LWPOLYLINE
  5
435
330
1F
100
AcDbEntity
  8
0
  6
Continuous
 62
     7
370
    15
100
AcDbPolyline
 90
       21
 70
   128
 43
0.0
 10
2429.5456997872
 20
639.7506027386
 10
2430.6280985337
 20
639.5606050612
 10
2431.7715173629
 20
639.5521762651
 10
2432.8640304732
 20
639.7261414196
 10
2433.7986950694
 20
640.0654716032
 10
2434.4840196685
 20
640.5369508134
 10
2434.852919924
 20
641.0944273801
 10
2434.8692853084
 20
641.6833316127
 10
2434.5315138641
 20
642.2460174618
 10
2433.8726690132
 20
642.7274053161
 10
2432.9572430803
 20
643.0803735784
 10
2431.8748443339
 20
643.2703712558
 10
2430.7314255047
 20
643.2788000519
 10
2429.6389123944
 20
643.1048348974
 10
2428.7042477982
 20
642.7655047138
 10
2428.0189231991
 20
642.2940255036
 10
2427.6500229436
 20
641.7365489369
 10
2427.6336575591
 20
641.1476447043
 10
2427.9714290035
 20
640.5849588552
 10
2428.6302738544
 20
640.1035710009
 10
2429.5456997872
 20
639.7506027386
  0
LWPOLYLINE
  5
436
330
1F
100
AcDbEntity
  8
0
  6
Continuous
 62
     7
370
    15
100
AcDbPolyline
 90
       20
 70
   128
 43
0.0
 10
2416.2783067631
 20
641.6996191925
 10
2417.1948981423
 20
641.3400732476
 10
2417.835154719
 20
640.8467245438
 10
2418.1296947585
 20
640.2730350683
 10
2418.0466002772
 20
639.6811729774
 10
2417.5948758516
 20
639.1352757124
 10
2416.8234728324
 20
638.6944997125
 10
2415.8159847062
 20
638.4066098965
 10
2414.6815884443
 20
638.3028035931
 10
2413.5432134837
 20
638.394329826
 10
2412.5242204151
 20
638.6712703077
 10
2411.7350329488
 20
639.1036142398
 10
2411.2611717921
 20
639.6445104487
 10
2411.1539871543
 20
640.2353444374
 10
2411.4250941538
 20
640.8120901755
 10
2412.0451141407
 20
641.312248313
 10
2412.9468583288
 20
641.6816189551
 10
2414.0326087433
 20
641.8801750613
 10
2415.1847074797
 20
641.8863999965
 10
2416.2783067631
 20
641.6996191925
  0
LWPOLYLINE
  5
437
330
1F
100
AcDbEntity
  8
0
  6
Continuous
 62
     7
370
    15
100
AcDbPolyline
 90
       20
 70
   128
 43
0.0
 10
2429.6180375725
 20
639.8212066347
 10
2430.711636856
 20
639.6344258307
 10
2431.8637355923
 20
639.6406507659
 10
2432.9494860068
 20
639.8392068721
 10
2433.8512301949
 20
640.2085775142
 10
2434.4712501818
 20
640.7087356517
 10
2434.7423571814
 20
641.2854813898
 10
2434.6351725435
 20
641.8763153785
 10
2434.1613113869
 20
642.4172115874
 10
2433.3721239205
 20
642.8495555195
 10
2432.3531308519
 20
643.1264960012
 10
2431.2147558913
 20
643.2180222341
 10
2430.0803596295
 20
643.1142159307
 10
2429.0728715033
 20
642.8263261147
 10
2428.301468484
 20
642.3855501148
 10
2427.8497440584
 20
641.8396528498
 10
2427.7666495771
 20
641.2477907589
 10
2428.0611896166
 20
640.6741012834
 10
2428.7014461933
 20
640.1807525796
 10
2429.6180375725
 20
639.8212066347
  0
LWPOLYLINE
  5
438
330
1F
100
AcDbEntity
  8
0
  6
Continuous
 62
     7
370
    15
100
AcDbPolyline
 90
       21
 70
   128
 43
0.0
 10
2389.8181008981
 20
648.9811999291
 10
2390.7335268309
 20
648.6282316668
 10
2391.3923716818
 20
648.1468438126
 10
2391.7301431262
 20
647.5841579634
 10
2391.7137777417
 20
646.9952537308
 10
2391.3448774863
 20
646.4377771641
 10
2390.6595528871
 20
645.966297954
 10
2389.7248882909
 20
645.6269677703
 10
2388.6323751806
 20
645.4530026158
 10
2387.4889563514
 20
645.4614314119
 10
2386.406557605
 20
645.6514290893
 10
2385.4911316721
 20
646.0043973516
 10
2384.8322868212
 20
646.4857852059
 10
2384.4945153769
 20
647.048471055
 10
2384.5108807613
 20
647.6373752876
 10
2384.8797810168
 20
648.1948518543
 10
2385.5651056159
 20
648.6663310645
 10
2386.4997702121
 20
649.0056612481
 10
2387.5922833224
 20
649.1796264026
 10
2388.7357021516
 20
649.1711976065
 10
2389.8181008981
 20
648.9811999291
  0
LINE
  5
439
330
1F
100
AcDbEntity
  8
0
  6
Continuous
 62
     7
370
    15
100
AcDbLine
 10
2492.5419078954
 20
742.7567469454
 30
0.0
 11
2492.5419078954
 21
744.4710815468
 31
0.0
  0
LINE
  5
43A
330
1F
100
AcDbEntity
  8
0
  6
Continuous
 62
     7
370
    15
100
AcDbLine
 10
2496.5088187013
 20
735.0945180989
 30
0.0
 11
2496.5088187013
 21
741.678625589
 31
0.0
  0
LINE
  5
43B
330
1F
100
AcDbEntity
  8
0
  6
Continuous
 62
     7
370
    15
100
AcDbLine
 10
2493.4347088708
 20
728.1991366548
 30
0.0
 11
2492.5419078954
 21
727.3277355328
 31
0.0
  0
LINE
  5
43C
330
1F
100
AcDbEntity
  8
0
  6
Continuous
 62
     7
370
    15
100
AcDbLine
 10
2413.1749333889
 20
649.8631353073
 30
0.0
 11
2419.9301851143
 21
656.4564680831
 31
0.0
  0
LINE
  5
43D
330
1F
100
AcDbEntity
  8
0
  6
Continuous
 62
     7
370
    15
100
AcDbLine
 10
2426.1257304317
 20
662.5035102461
 30
0.0
 11
2434.6310898656
 21
670.8050017975
 31
0.0
  0
LINE
  5
43E
330
1F
100
AcDbEntity
  8
0
  6
Continuous
 62
     7
370
    15
100
AcDbLine
 10
2440.826635183
 20
676.8520439605
 30
0.0
 11
2449.3319946169
 21
685.1535355118
 31
0.0
  0
LINE
  5
43F
330
1F
100
AcDbEntity
  8
0
  6
Continuous
 62
     7
370
    15
100
AcDbLine
 10
2455.5275399343
 20
691.2005776748
 30
0.0
 11
2464.0328993682
 21
699.5020692261
 31
0.0
  0
LINE
  5
440
330
1F
100
AcDbEntity
  8
0
  6
Continuous
 62
     7
370
    15
100
AcDbLine
 10
2470.2284446856
 20
705.5491113891
 30
0.0
 11
2478.7338041195
 21
713.8506029405
 31
0.0
  0
LINE
  5
441
330
1F
100
AcDbEntity
  8
0
  6
Continuous
 62
     7
370
    15
100
AcDbLine
 10
2484.9293494369
 20
719.8976451035
 30
0.0
 11
2492.5419078954
 21
727.3277355328
 31
0.0
  0
LWPOLYLINE
  5
442
330
1F
100
AcDbEntity
  8
0
  6
Continuous
 62
     7
370
    15
100
AcDbPolyline
 90
       21
 70
   128
 43
0.0
 10
2403.0131561369
 20
646.9615795792
 10
2404.0955548834
 20
646.7715819018
 10
2405.2389737126
 20
646.7631531056
 10
2406.3314868229
 20
646.9371182601
 10
2407.266151419
 20
647.2764484438
 10
2407.9514760182
 20
647.747927654
 10
2408.3203762736
 20
648.3054042206
 10
2408.3367416581
 20
648.8943084532
 10
2407.9989702137
 20
649.4569943024
 10
2407.3401253629
 20
649.9383821567
 10
2406.42469943
 20
650.2913504189
 10
2405.3423006836
 20
650.4813480963
 10
2404.1988818543
 20
650.4897768924
 10
2403.106368744
 20
650.3158117379
 10
2402.1717041479
 20
649.9764815543
 10
2401.4863795487
 20
649.5050023441
 10
2401.1174792933
 20
648.9475257774
 10
2401.1011139088
 20
648.3586215448
 10
2401.4388853532
 20
647.7959356957
 10
2402.097730204
 20
647.3145478414
 10
2403.0131561369
 20
646.9615795792
  0
LWPOLYLINE
  5
443
330
1F
100
AcDbEntity
  8
0
  6
Continuous
 62
     7
370
    15
100
AcDbPolyline
 90
       20
 70
   128
 43
0.0
 10
2389.7457631128
 20
648.910596033
 10
2390.662354492
 20
648.5510500881
 10
2391.3026110687
 20
648.0577013843
 10
2391.5971511082
 20
647.4840119088
 10
2391.5140566269
 20
646.8921498179
 10
2391.0623322013
 20
646.346252553
 10
2390.290929182
 20
645.905476553
 10
2389.2834410558
 20
645.6175867371
 10
2388.149044794
 20
645.5137804337
 10
2387.0106698334
 20
645.6053066666
 10
2385.9916767648
 20
645.8822471482
 10
2385.2024892984
 20
646.3145910803
 10
2384.7286281418
 20
646.8554872893
 10
2384.6214435039
 20
647.446321278
 10
2384.8925505035
 20
648.023067016
 10
2385.5125704904
 20
648.5232251535
 10
2386.4143146785
 20
648.8925957956
 10
2387.500065093
 20
649.0911519018
 10
2388.6521638294
 20
649.097376837
 10
2389.7457631128
 20
648.910596033
  0
LWPOLYLINE
  5
444
330
1F
100
AcDbEntity
  8
0
  6
Continuous
 62
     7
370
    15
100
AcDbPolyline
 90
       20
 70
   128
 43
0.0
 10
2403.0854939222
 20
647.0321834752
 10
2404.1790932056
 20
646.8454026712
 10
2405.331191942
 20
646.8516276065
 10
2406.4169423565
 20
647.0501837126
 10
2407.3186865446
 20
647.4195543547
 10
2407.9387065315
 20
647.9197124922
 10
2408.2098135311
 20
648.4964582303
 10
2408.1026288932
 20
649.087292219
 10
2407.6287677366
 20
649.6281884279
 10
2406.8395802702
 20
650.06053236
 10
2405.8205872016
 20
650.3374728417
 10
2404.682212241
 20
650.4289990746
 10
2403.5478159791
 20
650.3251927712
 10
2402.540327853
 20
650.0373029552
 10
2401.7689248337
 20
649.5965269553
 10
2401.3172004081
 20
649.0506296903
 10
2401.2341059268
 20
648.4587675995
 10
2401.5286459663
 20
647.8850781239
 10
2402.168902543
 20
647.3917294201
 10
2403.0854939222
 20
647.0321834752
  0
LWPOLYLINE
  5
445
330
1F
100
AcDbEntity
  8
0
  6
Continuous
 62
     7
370
    15
100
AcDbPolyline
 90
       21
 70
   128
 43
0.0
 10
2363.2855572477
 20
656.1921767696
 10
2364.2009831806
 20
655.8392085074
 10
2364.8598280315
 20
655.3578206531
 10
2365.1975994758
 20
654.7951348039
 10
2365.1812340914
 20
654.2062305713
 10
2364.8123338359
 20
653.6487540047
 10
2364.1270092368
 20
653.1772747945
 10
2363.1923446406
 20
652.8379446108
 10
2362.0998315303
 20
652.6639794564
 10
2360.9564127011
 20
652.6724082525
 10
2359.8740139547
 20
652.8624059299
 10
2358.9585880218
 20
653.2153741921
 10
2358.2997431709
 20
653.6967620464
 10
2357.9619717265
 20
654.2594478955
 10
2357.978337111
 20
654.8483521281
 10
2358.3472373665
 20
655.4058286948
 10
2359.0325619656
 20
655.877307905
 10
2359.9672265618
 20
656.2166380886
 10
2361.0597396721
 20
656.3906032431
 10
2362.2031585013
 20
656.382174447
 10
2363.2855572477
 20
656.1921767696
  0
LINE
  5
446
330
1F
100
AcDbEntity
  8
0
  6
Continuous
 62
     7
370
    15
100
AcDbLine
 10
2464.6827370626
 20
750.328272628
 30
0.0
 11
2464.6827370626
 21
752.0426072294
 31
0.0
  0
LINE
  5
447
330
1F
100
AcDbEntity
  8
0
  6
Continuous
 62
     7
370
    15
100
AcDbLine
 10
2468.6496478685
 20
742.6660437814
 30
0.0
 11
2468.6496478685
 21
749.2501512716
 31
0.0
  0
LINE
  5
448
330
1F
100
AcDbEntity
  8
0
  6
Continuous
 62
     7
370
    15
100
AcDbLine
 10
2464.6827370626
 20
734.8992612153
 30
0.0
 11
2465.5755380379
 21
735.7706623374
 31
0.0
  0
LINE
  5
449
330
1F
100
AcDbEntity
  8
0
  6
Continuous
 62
     7
370
    15
100
AcDbLine
 10
2385.315762556
 20
657.4346609899
 30
0.0
 11
2392.0710142815
 21
664.0279937657
 31
0.0
  0
LINE
  5
44A
330
1F
100
AcDbEntity
  8
0
  6
Continuous
 62
     7
370
    15
100
AcDbLine
 10
2398.2665595988
 20
670.0750359287
 30
0.0
 11
2406.7719190328
 21
678.37652748
 31
0.0
  0
LINE
  5
44B
330
1F
100
AcDbEntity
  8
0
  6
Continuous
 62
     7
370
    15
100
AcDbLine
 10
2412.9674643501
 20
684.423569643
 30
0.0
 11
2421.4728237841
 21
692.7250611944
 31
0.0
  0
LINE
  5
44C
330
1F
100
AcDbEntity
  8
0
  6
Continuous
 62
     7
370
    15
100
AcDbLine
 10
2427.6683691014
 20
698.7721033573
 30
0.0
 11
2436.1737285354
 21
707.0735949087
 31
0.0
  0
LINE
  5
44D
330
1F
100
AcDbEntity
  8
0
  6
Continuous
 62
     7
370
    15
100
AcDbLine
 10
2442.3692738527
 20
713.1206370717
 30
0.0
 11
2450.8746332866
 21
721.422128623
 31
0.0
  0
LINE
  5
44E
330
1F
100
AcDbEntity
  8
0
  6
Continuous
 62
     7
370
    15
100
AcDbLine
 10
2457.070178604
 20
727.469170786
 30
0.0
 11
2464.6827370626
 21
734.8992612153
 31
0.0
  0
LWPOLYLINE
  5
44F
330
1F
100
AcDbEntity
  8
0
  6
Continuous
 62
     7
370
    15
100
AcDbPolyline
 90
       21
 70
   128
 43
0.0
 10
2376.4806124866
 20
654.1725564197
 10
2377.5630112331
 20
653.9825587423
 10
2378.7064300623
 20
653.9741299462
 10
2379.7989431726
 20
654.1480951006
 10
2380.7336077687
 20
654.4874252843
 10
2381.4189323679
 20
654.9589044945
 10
2381.7878326233
 20
655.5163810611
 10
2381.8041980078
 20
656.1052852937
 10
2381.4664265634
 20
656.6679711429
 10
2380.8075817126
 20
657.1493589972
 10
2379.8921557797
 20
657.5023272594
 10
2378.8097570332
 20
657.6923249368
 10
2377.666338204
 20
657.7007537329
 10
2376.5738250937
 20
657.5267885785
 10
2375.6391604976
 20
657.1874583948
 10
2374.9538358984
 20
656.7159791846
 10
2374.584935643
 20
656.158502618
 10
2374.5685702585
 20
655.5695983853
 10
2374.9063417029
 20
655.0069125362
 10
2375.5651865537
 20
654.5255246819
 10
2376.4806124866
 20
654.1725564197
  0
LWPOLYLINE
  5
450
330
1F
100
AcDbEntity
  8
0
  6
Continuous
 62
     7
370
    15
100
AcDbPolyline
 90
       20
 70
   128
 43
0.0
 10
2363.2132194625
 20
656.1215728735
 10
2364.1298108417
 20
655.7620269286
 10
2364.7700674184
 20
655.2686782248
 10
2365.0646074579
 20
654.6949887493
 10
2364.9815129766
 20
654.1031266584
 10
2364.529788551
 20
653.5572293935
 10
2363.7583855317
 20
653.1164533935
 10
2362.7508974055
 20
652.8285635776
 10
2361.6165011437
 20
652.7247572742
 10
2360.4781261831
 20
652.8162835071
 10
2359.4591331145
 20
653.0932239887
 10
2358.6699456481
 20
653.5255679208
 10
2358.1960844915
 20
654.0664641298
 10
2358.0888998536
 20
654.6572981185
 10
2358.3600068532
 20
655.2340438565
 10
2358.9800268401
 20
655.734201994
 10
2359.8817710282
 20
656.1035726361
 10
2360.9675214427
 20
656.3021287423
 10
2362.119620179
 20
656.3083536775
 10
2363.2132194625
 20
656.1215728735
  0
LINE
  5
451
330
1F
100
AcDbEntity
  8
0
  6
Continuous
 62
     7
370
    15
100
AcDbLine
 10
2683.288934439
 20
585.7560843033
 30
0.0
 11
2685.9421888041
 21
585.0349866192
 31
0.0
  0
LINE
  5
452
330
1F
100
AcDbEntity
  8
0
  6
Continuous
 62
     7
370
    15
100
AcDbLine
 10
2683.1685793439
 20
585.6430009151
 30
0.0
 11
2683.288934439
 21
585.7560843033
 31
0.0
  0
LWPOLYLINE
  5
453
330
1F
100
AcDbEntity
  8
0
  6
Continuous
 62
     7
370
    15
100
AcDbPolyline
 90
       20
 70
   128
 43
0.0
 10
2376.5529502719
 20
654.2431603157
 10
2377.6465495553
 20
654.0563795117
 10
2378.7986482916
 20
654.062604447
 10
2379.8843987061
 20
654.2611605531
 10
2380.7861428942
 20
654.6305311952
 10
2381.4061628812
 20
655.1306893328
 10
2381.6772698807
 20
655.7074350708
 10
2381.5700852429
 20
656.2982690595
 10
2381.0962240862
 20
656.8391652684
 10
2380.3070366199
 20
657.2715092005
 10
2379.2880435512
 20
657.5484496822
 10
2378.1496685907
 20
657.6399759151
 10
2377.0152723288
 20
657.5361696117
 10
2376.0077842026
 20
657.2482797957
 10
2375.2363811834
 20
656.8075037958
 10
2374.7846567578
 20
656.2616065308
 10
2374.7015622765
 20
655.66974444
 10
2374.996102316
 20
655.0960549645
 10
2375.6363588927
 20
654.6027062607
 10
2376.5529502719
 20
654.2431603157
  0
LWPOLYLINE
  5
454
330
1F
100
AcDbEntity
  8
0
  6
Continuous
 62
     7
370
    15
100
AcDbPolyline
 90
       21
 70
   128
 43
0.0
 10
2336.7530135974
 20
663.4031536101
 10
2337.6684395303
 20
663.0501853479
 10
2338.3272843811
 20
662.5687974936
 10
2338.6650558255
 20
662.0061116445
 10
2338.6486904411
 20
661.4172074118
 10
2338.2797901856
 20
660.8597308452
 10
2337.5944655865
 20
660.388251635
 10
2336.6598009903
 20
660.0489214513
 10
2335.56728788
 20
659.8749562969
 10
2334.4238690508
 20
659.883385093
 10
2333.3414703043
 20
660.0733827704
 10
2332.4260443715
 20
660.4263510326
 10
2331.7671995206
 20
660.9077388869
 10
2331.4294280762
 20
661.470424736
 10
2331.4457934607
 20
662.0593289687
 10
2331.8146937161
 20
662.6168055353
 10
2332.5000183153
 20
663.0882847455
 10
2333.4346829115
 20
663.4276149292
 10
2334.5271960217
 20
663.6015800836
 10
2335.670614851
 20
663.5931512875
 10
2336.7530135974
 20
663.4031536101
  0
LINE
  5
455
330
1F
100
AcDbEntity
  8
0
  6
Continuous
 62
     7
370
    15
100
AcDbLine
 10
2436.8235662298
 20
757.8997983105
 30
0.0
 11
2436.8235662298
 21
759.6141329119
 31
0.0
  0
LINE
  5
456
330
1F
100
AcDbEntity
  8
0
  6
Continuous
 62
     7
370
    15
100
AcDbLine
 10
2440.7904770357
 20
750.2375694639
 30
0.0
 11
2440.7904770357
 21
756.8216769541
 31
0.0
  0
LINE
  5
457
330
1F
100
AcDbEntity
  8
0
  6
Continuous
 62
     7
370
    15
100
AcDbLine
 10
2437.7163672051
 20
743.3421880199
 30
0.0
 11
2436.8235662298
 21
742.4707868979
 31
0.0
  0
LINE
  5
458
330
1F
100
AcDbEntity
  8
0
  6
Continuous
 62
     7
370
    15
100
AcDbLine
 10
2357.4565917232
 20
665.0061866724
 30
0.0
 11
2364.2118434486
 21
671.5995194482
 31
0.0
  0
LINE
  5
459
330
1F
100
AcDbEntity
  8
0
  6
Continuous
 62
     7
370
    15
100
AcDbLine
 10
2370.407388766
 20
677.6465616112
 30
0.0
 11
2378.9127481999
 21
685.9480531626
 31
0.0
  0
LINE
  5
45A
330
1F
100
AcDbEntity
  8
0
  6
Continuous
 62
     7
370
    15
100
AcDbLine
 10
2385.1082935173
 20
691.9950953256
 30
0.0
 11
2393.6136529512
 21
700.2965868769
 31
0.0
  0
LINE
  5
45B
330
1F
100
AcDbEntity
  8
0
  6
Continuous
 62
     7
370
    15
100
AcDbLine
 10
2399.8091982686
 20
706.3436290399
 30
0.0
 11
2408.3145577025
 21
714.6451205912
 31
0.0
  0
LINE
  5
45C
330
1F
100
AcDbEntity
  8
0
  6
Continuous
 62
     7
370
    15
100
AcDbLine
 10
2414.5101030199
 20
720.6921627542
 30
0.0
 11
2423.0154624538
 21
728.9936543056
 31
0.0
  0
LINE
  5
45D
330
1F
100
AcDbEntity
  8
0
  6
Continuous
 62
     7
370
    15
100
AcDbLine
 10
2429.2110077712
 20
735.0406964686
 30
0.0
 11
2436.8235662298
 21
742.4707868979
 31
0.0
  0
LWPOLYLINE
  5
45E
330
1F
100
AcDbEntity
  8
0
  6
Continuous
 62
     7
370
    15
100
AcDbPolyline
 90
       21
 70
   128
 43
0.0
 10
2349.9480688363
 20
661.3835332602
 10
2351.0304675827
 20
661.1935355828
 10
2352.1738864119
 20
661.1851067867
 10
2353.2663995222
 20
661.3590719412
 10
2354.2010641184
 20
661.6984021248
 10
2354.8863887176
 20
662.169881335
 10
2355.255288973
 20
662.7273579017
 10
2355.2716543575
 20
663.3162621343
 10
2354.9338829131
 20
663.8789479834
 10
2354.2750380622
 20
664.3603358377
 10
2353.3596121294
 20
664.7133040999
 10
2352.2772133829
 20
664.9033017773
 10
2351.1337945537
 20
664.9117305734
 10
2350.0412814434
 20
664.737765419
 10
2349.1066168472
 20
664.3984352353
 10
2348.4212922481
 20
663.9269560251
 10
2348.0523919926
 20
663.3694794585
 10
2348.0360266082
 20
662.7805752259
 10
2348.3737980525
 20
662.2178893767
 10
2349.0326429034
 20
661.7365015224
 10
2349.9480688363
 20
661.3835332602
  0
LWPOLYLINE
  5
45F
330
1F
100
AcDbEntity
  8
0
  6
Continuous
 62
     7
370
    15
100
AcDbPolyline
 90
       20
 70
   128
 43
0.0
 10
2336.6806758121
 20
663.3325497141
 10
2337.5972671914
 20
662.9730037691
 10
2338.237523768
 20
662.4796550653
 10
2338.5320638075
 20
661.9059655898
 10
2338.4489693263
 20
661.314103499
 10
2337.9972449006
 20
660.768206234
 10
2337.2258418814
 20
660.3274302341
 10
2336.2183537552
 20
660.0395404181
 10
2335.0839574934
 20
659.9357341147
 10
2333.9455825328
 20
660.0272603476
 10
2332.9265894642
 20
660.3042008293
 10
2332.1374019978
 20
660.7365447613
 10
2331.6635408411
 20
661.2774409703
 10
2331.5563562033
 20
661.868274959
 10
2331.8274632028
 20
662.445020697
 10
2332.4474831898
 20
662.9451788346
 10
2333.3492273779
 20
663.3145494766
 10
2334.4349777924
 20
663.5131055828
 10
2335.5870765287
 20
663.5193305181
 10
2336.6806758121
 20
663.3325497141
  0
LINE
  5
460
330
1F
100
AcDbEntity
  8
0
  6
Continuous
 62
     7
370
    15
100
AcDbLine
 10
2700.5566638295
 20
602.6099175551
 30
0.0
 11
2703.2099181945
 21
601.888819871
 31
0.0
  0
LINE
  5
461
330
1F
100
AcDbEntity
  8
0
  6
Continuous
 62
     7
370
    15
100
AcDbLine
 10
2683.288934439
 20
585.7560843033
 30
0.0
 11
2700.5566638295
 21
602.6099175551
 31
0.0
  0
LWPOLYLINE
  5
462
330
1F
100
AcDbEntity
  8
0
  6
Continuous
 62
     7
370
    15
100
AcDbPolyline
 90
       20
 70
   128
 43
0.0
 10
2350.0204066216
 20
661.4541371562
 10
2351.114005905
 20
661.2673563522
 10
2352.2661046413
 20
661.2735812875
 10
2353.3518550558
 20
661.4721373937
 10
2354.2535992439
 20
661.8415080357
 10
2354.8736192308
 20
662.3416661733
 10
2355.1447262304
 20
662.9184119113
 10
2355.0375415925
 20
663.5092459
 10
2354.5636804359
 20
664.050142109
 10
2353.7744929695
 20
664.482486041
 10
2352.7554999009
 20
664.7594265227
 10
2351.6171249403
 20
664.8509527556
 10
2350.4827286785
 20
664.7471464522
 10
2349.4752405523
 20
664.4592566362
 10
2348.7038375331
 20
664.0184806363
 10
2348.2521131074
 20
663.4725833714
 10
2348.1690186262
 20
662.8807212805
 10
2348.4635586656
 20
662.307031805
 10
2349.1038152423
 20
661.8136831012
 10
2350.0204066216
 20
661.4541371562
  0
LWPOLYLINE
  5
463
330
1F
100
AcDbEntity
  8
0
  6
Continuous
 62
     7
370
    15
100
AcDbPolyline
 90
       21
 70
   128
 43
0.0
 10
2310.2204699471
 20
670.6141304506
 10
2311.13589588
 20
670.2611621884
 10
2311.7947407308
 20
669.7797743341
 10
2312.1325121752
 20
669.217088485
 10
2312.1161467907
 20
668.6281842524
 10
2311.7472465353
 20
668.0707076857
 10
2311.0619219361
 20
667.5992284755
 10
2310.12725734
 20
667.2598982919
 10
2309.0347442297
 20
667.0859331374
 10
2307.8913254005
 20
667.0943619335
 10
2306.808926654
 20
667.2843596109
 10
2305.8935007211
 20
667.6373278731
 10
2305.2346558703
 20
668.1187157274
 10
2304.8968844259
 20
668.6814015766
 10
2304.9132498104
 20
669.2703058092
 10
2305.2821500658
 20
669.8277823758
 10
2305.967474665
 20
670.299261586
 10
2306.9021392611
 20
670.6385917697
 10
2307.9946523714
 20
670.8125569242
 10
2309.1380712006
 20
670.804128128
 10
2310.2204699471
 20
670.6141304506
  0
LWPOLYLINE
  5
464
330
1F
100
AcDbEntity
  8
0
  6
Continuous
 62
     7
370
    15
100
AcDbPolyline
 90
       21
 70
   128
 43
0.0
 10
2323.415525186
 20
668.5945101007
 10
2324.4979239324
 20
668.4045124233
 10
2325.6413427616
 20
668.3960836272
 10
2326.7338558719
 20
668.5700487817
 10
2327.6685204681
 20
668.9093789653
 10
2328.3538450672
 20
669.3808581755
 10
2328.7227453227
 20
669.9383347422
 10
2328.7391107071
 20
670.5272389748
 10
2328.4013392628
 20
671.0899248239
 10
2327.7424944119
 20
671.5713126782
 10
2326.827068479
 20
671.9242809404
 10
2325.7446697326
 20
672.1142786179
 10
2324.6012509034
 20
672.122707414
 10
2323.5087377931
 20
671.9487422595
 10
2322.5740731969
 20
671.6094120758
 10
2321.8887485978
 20
671.1379328656
 10
2321.5198483423
 20
670.580456299
 10
2321.5034829578
 20
669.9915520664
 10
2321.8412544022
 20
669.4288662172
 10
2322.5000992531
 20
668.9474783629
 10
2323.415525186
 20
668.5945101007
  0
LWPOLYLINE
  5
465
330
1F
100
AcDbEntity
  8
0
  6
Continuous
 62
     7
370
    15
100
AcDbPolyline
 90
       20
 70
   128
 43
0.0
 10
2310.1481321618
 20
670.5435265546
 10
2311.064723541
 20
670.1839806097
 10
2311.7049801177
 20
669.6906319059
 10
2311.9995201572
 20
669.1169424303
 10
2311.9164256759
 20
668.5250803395
 10
2311.4647012503
 20
667.9791830745
 10
2310.6932982311
 20
667.5384070746
 10
2309.6858101049
 20
667.2505172586
 10
2308.551413843
 20
667.1467109552
 10
2307.4130388825
 20
667.2382371881
 10
2306.3940458138
 20
667.5151776698
 10
2305.6048583475
 20
667.9475216019
 10
2305.1309971908
 20
668.4884178108
 10
2305.023812553
 20
669.0792517995
 10
2305.2949195525
 20
669.6559975375
 10
2305.9149395395
 20
670.1561556751
 10
2306.8166837276
 20
670.5255263172
 10
2307.9024341421
 20
670.7240824233
 10
2309.0545328784
 20
670.7303073586
 10
2310.1481321618
 20
670.5435265546
  0
LINE
  5
466
330
1F
100
AcDbEntity
  8
0
  6
Continuous
 62
     7
370
    15
100
AcDbLine
 10
2408.9643953969
 20
765.4713239931
 30
0.0
 11
2408.9643953969
 21
767.1856585945
 31
0.0
  0
LINE
  5
467
330
1F
100
AcDbEntity
  8
0
  6
Continuous
 62
     7
370
    15
100
AcDbLine
 10
2412.9313062028
 20
757.8090951465
 30
0.0
 11
2412.9313062028
 21
764.3932026366
 31
0.0
  0
LINE
  5
468
330
1F
100
AcDbEntity
  8
0
  6
Continuous
 62
     7
370
    15
100
AcDbLine
 10
2409.8571963723
 20
750.9137137024
 30
0.0
 11
2408.9643953969
 21
750.0423125804
 31
0.0
  0
LINE
  5
469
330
1F
100
AcDbEntity
  8
0
  6
Continuous
 62
     7
370
    15
100
AcDbLine
 10
2329.5974208904
 20
672.5777123549
 30
0.0
 11
2336.3526726158
 21
679.1710451308
 31
0.0
  0
LINE
  5
46A
330
1F
100
AcDbEntity
  8
0
  6
Continuous
 62
     7
370
    15
100
AcDbLine
 10
2342.5482179332
 20
685.2180872938
 30
0.0
 11
2351.0535773671
 21
693.5195788451
 31
0.0
  0
LINE
  5
46B
330
1F
100
AcDbEntity
  8
0
  6
Continuous
 62
     7
370
    15
100
AcDbLine
 10
2357.2491226845
 20
699.5666210081
 30
0.0
 11
2365.7544821184
 21
707.8681125594
 31
0.0
  0
LINE
  5
46C
330
1F
100
AcDbEntity
  8
0
  6
Continuous
 62
     7
370
    15
100
AcDbLine
 10
2371.9500274358
 20
713.9151547224
 30
0.0
 11
2380.4553868697
 21
722.2166462738
 31
0.0
  0
LINE
  5
46D
330
1F
100
AcDbEntity
  8
0
  6
Continuous
 62
     7
370
    15
100
AcDbLine
 10
2386.6509321871
 20
728.2636884368
 30
0.0
 11
2395.156291621
 21
736.5651799881
 31
0.0
  0
LINE
  5
46E
330
1F
100
AcDbEntity
  8
0
  6
Continuous
 62
     7
370
    15
100
AcDbLine
 10
2401.3518369384
 20
742.6122221511
 30
0.0
 11
2408.9643953969
 21
750.0423125804
 31
0.0
  0
LWPOLYLINE
  5
46F
330
1F
100
AcDbEntity
  8
0
  6
Continuous
 62
     7
370
    15
100
AcDbPolyline
 90
       20
 70
   128
 43
0.0
 10
2323.4878629712
 20
668.6651139968
 10
2324.5814622547
 20
668.4783331928
 10
2325.733560991
 20
668.484558128
 10
2326.8193114055
 20
668.6831142342
 10
2327.7210555936
 20
669.0524848763
 10
2328.3410755805
 20
669.5526430138
 10
2328.6121825801
 20
670.1293887518
 10
2328.5049979422
 20
670.7202227405
 10
2328.0311367856
 20
671.2611189495
 10
2327.2419493192
 20
671.6934628816
 10
2326.2229562506
 20
671.9704033632
 10
2325.08458129
 20
672.0619295961
 10
2323.9501850282
 20
671.9581232927
 10
2322.942696902
 20
671.6702334768
 10
2322.1712938827
 20
671.2294574768
 10
2321.7195694571
 20
670.6835602119
 10
2321.6364749758
 20
670.091698121
 10
2321.9310150153
 20
669.5180086455
 10
2322.571271592
 20
669.0246599417
 10
2323.4878629712
 20
668.6651139968
  0
LWPOLYLINE
  5
470
330
1F
100
AcDbEntity
  8
0
  6
Continuous
 62
     7
370
    15
100
AcDbPolyline
 90
       21
 70
   128
 43
0.0
 10
2283.6879262968
 20
677.8251072912
 10
2284.6033522297
 20
677.4721390289
 10
2285.2621970805
 20
676.9907511746
 10
2285.5999685249
 20
676.4280653255
 10
2285.5836031404
 20
675.8391610929
 10
2285.214702885
 20
675.2816845262
 10
2284.5293782858
 20
674.810205316
 10
2283.5947136896
 20
674.4708751324
 10
2282.5022005794
 20
674.2969099779
 10
2281.3587817501
 20
674.305338774
 10
2280.2763830037
 20
674.4953364514
 10
2279.3609570708
 20
674.8483047137
 10
2278.70211222
 20
675.3296925679
 10
2278.3643407756
 20
675.8923784171
 10
2278.38070616
 20
676.4812826497
 10
2278.7496064155
 20
677.0387592164
 10
2279.4349310147
 20
677.5102384266
 10
2280.3695956108
 20
677.8495686102
 10
2281.4621087211
 20
678.0235337647
 10
2282.6055275503
 20
678.0151049686
 10
2283.6879262968
 20
677.8251072912
  0
ARC
  5
471
330
1F
100
AcDbEntity
  8
0
  6
Continuous
 62
     7
370
    15
100
AcDbCircle
 10
2691.2564499401
 20
610.6910872347
 30
0.0
 40
12.32068511808706
100
AcDbArc
 50
319.0118729463
 51
11.4888071064
  0
LWPOLYLINE
  5
472
330
1F
100
AcDbEntity
  8
0
  6
Continuous
 62
     7
370
    15
100
AcDbPolyline
 90
       21
 70
   128
 43
0.0
 10
2296.8829815356
 20
675.8054869412
 10
2297.9653802821
 20
675.6154892638
 10
2299.1087991113
 20
675.6070604677
 10
2300.2013122216
 20
675.7810256222
 10
2301.1359768178
 20
676.1203558058
 10
2301.8213014169
 20
676.591835016
 10
2302.1902016724
 20
677.1493115827
 10
2302.2065670568
 20
677.7382158153
 10
2301.8687956124
 20
678.3009016644
 10
2301.2099507616
 20
678.7822895187
 10
2300.2945248287
 20
679.135257781
 10
2299.2121260823
 20
679.3252554584
 10
2298.068707253
 20
679.3336842545
 10
2296.9761941428
 20
679.1597191
 10
2296.0415295466
 20
678.8203889164
 10
2295.3562049474
 20
678.3489097062
 10
2294.987304692
 20
677.7914331395
 10
2294.9709393075
 20
677.2025289069
 10
2295.3087107519
 20
676.6398430578
 10
2295.9675556028
 20
676.1584552035
 10
2296.8829815356
 20
675.8054869412
  0
LWPOLYLINE
  5
473
330
1F
100
AcDbEntity
  8
0
  6
Continuous
 62
     7
370
    15
100
AcDbPolyline
 90
       20
 70
   128
 43
0.0
 10
2283.6155885115
 20
677.7545033951
 10
2284.5321798907
 20
677.3949574502
 10
2285.1724364674
 20
676.9016087464
 10
2285.4669765069
 20
676.3279192709
 10
2285.3838820256
 20
675.73605718
 10
2284.9321576
 20
675.190159915
 10
2284.1607545807
 20
674.7493839151
 10
2283.1532664546
 20
674.4614940991
 10
2282.0188701927
 20
674.3576877957
 10
2280.8804952321
 20
674.4492140286
 10
2279.8615021635
 20
674.7261545103
 10
2279.0723146971
 20
675.1584984424
 10
2278.5984535405
 20
675.6993946513
 10
2278.4912689026
 20
676.29022864
 10
2278.7623759022
 20
676.8669743781
 10
2279.3823958891
 20
677.3671325156
 10
2280.2841400772
 20
677.7365031577
 10
2281.3698904917
 20
677.9350592639
 10
2282.5219892281
 20
677.9412841991
 10
2283.6155885115
 20
677.7545033951
  0
LINE
  5
474
330
1F
100
AcDbEntity
  8
0
  6
Continuous
 62
     7
370
    15
100
AcDbLine
 10
2381.1052245641
 20
773.0428496756
 30
0.0
 11
2381.1052245641
 21
774.757184277
 31
0.0
  0
LINE
  5
475
330
1F
100
AcDbEntity
  8
0
  6
Continuous
 62
     7
370
    15
100
AcDbLine
 10
2385.07213537
 20
765.380620829
 30
0.0
 11
2385.07213537
 21
771.9647283192
 31
0.0
  0
LINE
  5
476
330
1F
100
AcDbEntity
  8
0
  6
Continuous
 62
     7
370
    15
100
AcDbLine
 10
2381.9980255394
 20
758.485239385
 30
0.0
 11
2381.1052245641
 21
757.613838263
 31
0.0
  0
LINE
  5
477
330
1F
100
AcDbEntity
  8
0
  6
Continuous
 62
     7
370
    15
100
AcDbLine
 10
2301.7382500575
 20
680.1492380375
 30
0.0
 11
2308.4935017829
 21
686.7425708133
 31
0.0
  0
LINE
  5
478
330
1F
100
AcDbEntity
  8
0
  6
Continuous
 62
     7
370
    15
100
AcDbLine
 10
2314.6890471003
 20
692.7896129763
 30
0.0
 11
2323.1944065342
 21
701.0911045276
 31
0.0
  0
LINE
  5
479
330
1F
100
AcDbEntity
  8
0
  6
Continuous
 62
     7
370
    15
100
AcDbLine
 10
2329.3899518516
 20
707.1381466906
 30
0.0
 11
2337.8953112855
 21
715.439638242
 31
0.0
  0
LINE
  5
47A
330
1F
100
AcDbEntity
  8
0
  6
Continuous
 62
     7
370
    15
100
AcDbLine
 10
2344.0908566029
 20
721.486680405
 30
0.0
 11
2352.5962160368
 21
729.7881719563
 31
0.0
  0
LINE
  5
47B
330
1F
100
AcDbEntity
  8
0
  6
Continuous
 62
     7
370
    15
100
AcDbLine
 10
2358.7917613542
 20
735.8352141193
 30
0.0
 11
2367.2971207881
 21
744.1367056706
 31
0.0
  0
LINE
  5
47C
330
1F
100
AcDbEntity
  8
0
  6
Continuous
 62
     7
370
    15
100
AcDbLine
 10
2373.4926661055
 20
750.1837478336
 30
0.0
 11
2381.1052245641
 21
757.613838263
 31
0.0
  0
LWPOLYLINE
  5
47D
330
1F
100
AcDbEntity
  8
0
  6
Continuous
 62
     7
370
    15
100
AcDbPolyline
 90
       20
 70
   128
 43
0.0
 10
2296.9553193209
 20
675.8760908373
 10
2298.0489186043
 20
675.6893100333
 10
2299.2010173407
 20
675.6955349685
 10
2300.2867677552
 20
675.8940910747
 10
2301.1885119433
 20
676.2634617168
 10
2301.8085319302
 20
676.7636198543
 10
2302.0796389298
 20
677.3403655924
 10
2301.9724542919
 20
677.9311995811
 10
2301.4985931353
 20
678.47209579
 10
2300.7094056689
 20
678.9044397221
 10
2299.6904126003
 20
679.1813802038
 10
2298.5520376397
 20
679.2729064366
 10
2297.4176413778
 20
679.1691001333
 10
2296.4101532517
 20
678.8812103173
 10
2295.6387502324
 20
678.4404343173
 10
2295.1870258068
 20
677.8945370524
 10
2295.1039313255
 20
677.3026749615
 10
2295.398471365
 20
676.728985486
 10
2296.0387279417
 20
676.2356367822
 10
2296.9553193209
 20
675.8760908373
  0
LWPOLYLINE
  5
47E
330
1F
100
AcDbEntity
  8
0
  6
Continuous
 62
     7
370
    15
100
AcDbPolyline
 90
       21
 70
   128
 43
0.0
 10
2257.1553826464
 20
685.0360841317
 10
2258.0708085793
 20
684.6831158694
 10
2258.7296534302
 20
684.2017280151
 10
2259.0674248746
 20
683.639042166
 10
2259.0510594901
 20
683.0501379334
 10
2258.6821592346
 20
682.4926613667
 10
2257.9968346355
 20
682.0211821565
 10
2257.0621700393
 20
681.6818519729
 10
2255.969656929
 20
681.5078868184
 10
2254.8262380998
 20
681.5163156145
 10
2253.7438393534
 20
681.7063132919
 10
2252.8284134205
 20
682.0592815542
 10
2252.1695685696
 20
682.5406694085
 10
2251.8317971253
 20
683.1033552576
 10
2251.8481625097
 20
683.6922594902
 10
2252.2170627652
 20
684.2497360569
 10
2252.9023873643
 20
684.7212152671
 10
2253.8370519605
 20
685.0605454507
 10
2254.9295650708
 20
685.2345106052
 10
2256.0729839
 20
685.2260818091
 10
2257.1553826464
 20
685.0360841317
  0
LWPOLYLINE
  5
47F
330
1F
100
AcDbEntity
  8
0
  6
Continuous
 62
     7
370
    15
100
AcDbPolyline
 90
       21
 70
   128
 43
0.0
 10
2270.3504378853
 20
683.0164637817
 10
2271.4328366318
 20
682.8264661043
 10
2272.576255461
 20
682.8180373082
 10
2273.6687685713
 20
682.9920024627
 10
2274.6034331674
 20
683.3313326464
 10
2275.2887577666
 20
683.8028118565
 10
2275.657658022
 20
684.3602884232
 10
2275.6740234065
 20
684.9491926558
 10
2275.3362519621
 20
685.511878505
 10
2274.6774071113
 20
685.9932663592
 10
2273.7619811784
 20
686.3462346215
 10
2272.6795824319
 20
686.5362322989
 10
2271.5361636027
 20
686.544661095
 10
2270.4436504924
 20
686.3706959405
 10
2269.5089858963
 20
686.0313657569
 10
2268.8236612971
 20
685.5598865467
 10
2268.4547610417
 20
685.00240998
 10
2268.4383956572
 20
684.4135057474
 10
2268.7761671016
 20
683.8508198983
 10
2269.4350119524
 20
683.369432044
 10
2270.3504378853
 20
683.0164637817
  0
LWPOLYLINE
  5
480
330
1F
100
AcDbEntity
  8
0
  6
Continuous
 62
     7
370
    15
100
AcDbPolyline
 90
       20
 70
   128
 43
0.0
 10
2257.0830448612
 20
684.9654802356
 10
2257.9996362404
 20
684.6059342907
 10
2258.6398928171
 20
684.1125855869
 10
2258.9344328566
 20
683.5388961114
 10
2258.8513383753
 20
682.9470340205
 10
2258.3996139497
 20
682.4011367556
 10
2257.6282109304
 20
681.9603607556
 10
2256.6207228042
 20
681.6724709396
 10
2255.4863265424
 20
681.5686646363
 10
2254.3479515818
 20
681.6601908691
 10
2253.3289585132
 20
681.9371313508
 10
2252.5397710468
 20
682.3694752829
 10
2252.0659098902
 20
682.9103714918
 10
2251.9587252523
 20
683.5012054805
 10
2252.2298322519
 20
684.0779512186
 10
2252.8498522388
 20
684.5781093561
 10
2253.7515964269
 20
684.9474799982
 10
2254.8373468414
 20
685.1460361044
 10
2255.9894455777
 20
685.1522610396
 10
2257.0830448612
 20
684.9654802356
  0
LINE
  5
481
330
1F
100
AcDbEntity
  8
0
  6
Continuous
 62
     7
370
    15
100
AcDbLine
 10
2353.2460537312
 20
780.6143753582
 30
0.0
 11
2353.2460537312
 21
782.3287099596
 31
0.0
  0
LINE
  5
482
330
1F
100
AcDbEntity
  8
0
  6
Continuous
 62
     7
370
    15
100
AcDbLine
 10
2357.2129645372
 20
772.9521465116
 30
0.0
 11
2357.2129645372
 21
779.5362540017
 31
0.0
  0
LINE
  5
483
330
1F
100
AcDbEntity
  8
0
  6
Continuous
 62
     7
370
    15
100
AcDbLine
 10
2354.1388547066
 20
766.0567650675
 30
0.0
 11
2353.2460537312
 21
765.1853639455
 31
0.0
  0
LINE
  5
484
330
1F
100
AcDbEntity
  8
0
  6
Continuous
 62
     7
370
    15
100
AcDbLine
 10
2273.8790792247
 20
687.72076372
 30
0.0
 11
2280.6343309501
 21
694.3140964959
 31
0.0
  0
LINE
  5
485
330
1F
100
AcDbEntity
  8
0
  6
Continuous
 62
     7
370
    15
100
AcDbLine
 10
2286.8298762675
 20
700.3611386588
 30
0.0
 11
2295.3352357014
 21
708.6626302102
 31
0.0
  0
LINE
  5
486
330
1F
100
AcDbEntity
  8
0
  6
Continuous
 62
     7
370
    15
100
AcDbLine
 10
2301.5307810188
 20
714.7096723732
 30
0.0
 11
2310.0361404527
 21
723.0111639245
 31
0.0
  0
LINE
  5
487
330
1F
100
AcDbEntity
  8
0
  6
Continuous
 62
     7
370
    15
100
AcDbLine
 10
2316.2316857701
 20
729.0582060875
 30
0.0
 11
2324.737045204
 21
737.3596976389
 31
0.0
  0
LINE
  5
488
330
1F
100
AcDbEntity
  8
0
  6
Continuous
 62
     7
370
    15
100
AcDbLine
 10
2330.9325905214
 20
743.4067398019
 30
0.0
 11
2339.4379499553
 21
751.7082313532
 31
0.0
  0
LINE
  5
489
330
1F
100
AcDbEntity
  8
0
  6
Continuous
 62
     7
370
    15
100
AcDbLine
 10
2345.6334952727
 20
757.7552735162
 30
0.0
 11
2353.2460537312
 21
765.1853639455
 31
0.0
  0
LWPOLYLINE
  5
48A
330
1F
100
AcDbEntity
  8
0
  6
Continuous
 62
     7
370
    15
100
AcDbPolyline
 90
       20
 70
   128
 43
0.0
 10
2270.4227756706
 20
683.0870676778
 10
2271.516374954
 20
682.9002868738
 10
2272.6684736904
 20
682.906511809
 10
2273.7542241049
 20
683.1050679152
 10
2274.655968293
 20
683.4744385573
 10
2275.2759882799
 20
683.9745966948
 10
2275.5470952794
 20
684.5513424329
 10
2275.4399106416
 20
685.1421764216
 10
2274.9660494849
 20
685.6830726305
 10
2274.1768620186
 20
686.1154165626
 10
2273.15786895
 20
686.3923570443
 10
2272.0194939894
 20
686.4838832772
 10
2270.8850977275
 20
686.3800769738
 10
2269.8776096013
 20
686.0921871578
 10
2269.1062065821
 20
685.6514111579
 10
2268.6544821565
 20
685.1055138929
 10
2268.5713876752
 20
684.513651802
 10
2268.8659277147
 20
683.9399623265
 10
2269.5061842914
 20
683.4466136227
 10
2270.4227756706
 20
683.0870676778
  0
LINE
  5
48B
330
1F
100
AcDbEntity
  8
0
  6
Continuous
 62
     7
370
    15
100
AcDbLine
 10
2576.119420394
 20
720.0421698978
 30
0.0
 11
2601.2780884858
 21
713.2045829955
 31
0.0
  0
LINE
  5
48C
330
1F
100
AcDbEntity
  8
0
  6
Continuous
 62
     7
370
    15
100
AcDbLine
 10
2603.9785912268
 20
712.4706442153
 30
0.0
 11
2629.1372593186
 21
705.633057313
 31
0.0
  0
LINE
  5
48D
330
1F
100
AcDbEntity
  8
0
  6
Continuous
 62
     7
370
    15
100
AcDbLine
 10
2631.8377620596
 20
704.8991185327
 30
0.0
 11
2656.9964301515
 21
698.0615316304
 31
0.0
  0
LINE
  5
48E
330
1F
100
AcDbEntity
  8
0
  6
Continuous
 62
     7
370
    15
100
AcDbLine
 10
2659.6969328925
 20
697.3275928502
 30
0.0
 11
2684.8556009843
 21
690.4900059479
 31
0.0
  0
LINE
  5
48F
330
1F
100
AcDbEntity
  8
0
  6
Continuous
 62
     7
370
    15
100
AcDbLine
 10
2687.5561037253
 20
689.7560671676
 30
0.0
 11
2712.7147718171
 21
682.9184802653
 31
0.0
  0
LINE
  5
490
330
1F
100
AcDbEntity
  8
0
  6
Continuous
 62
     7
370
    15
100
AcDbLine
 10
2715.4152745582
 20
682.1845414851
 30
0.0
 11
2725.317730051
 21
679.4932662661
 31
0.0
  0
LWPOLYLINE
  5
491
330
1F
100
AcDbEntity
  8
0
  6
Continuous
 62
     7
370
    15
100
AcDbPolyline
 90
       21
 70
   128
 43
0.0
 10
2230.6228389961
 20
692.2470609722
 10
2231.538264929
 20
691.89409271
 10
2232.1971097799
 20
691.4127048557
 10
2232.5348812242
 20
690.8500190065
 10
2232.5185158398
 20
690.2611147739
 10
2232.1496155843
 20
689.7036382073
 10
2231.4642909852
 20
689.2321589971
 10
2230.529626389
 20
688.8928288134
 10
2229.4371132787
 20
688.7188636589
 10
2228.2936944495
 20
688.7272924551
 10
2227.211295703
 20
688.9172901325
 10
2226.2958697702
 20
689.2702583947
 10
2225.6370249193
 20
689.751646249
 10
2225.2992534749
 20
690.3143320981
 10
2225.3156188594
 20
690.9032363307
 10
2225.6845191149
 20
691.4607128974
 10
2226.369843714
 20
691.9321921076
 10
2227.3045083102
 20
692.2715222912
 10
2228.3970214205
 20
692.4454874457
 10
2229.5404402497
 20
692.4370586496
 10
2230.6228389961
 20
692.2470609722
  0
LWPOLYLINE
  5
492
330
1F
100
AcDbEntity
  8
0
  6
Continuous
 62
     7
370
    15
100
AcDbPolyline
 90
       21
 70
   128
 43
0.0
 10
2243.817894235
 20
690.2274406223
 10
2244.9002929814
 20
690.0374429449
 10
2246.0437118107
 20
690.0290141487
 10
2247.1362249209
 20
690.2029793032
 10
2248.0708895171
 20
690.5423094869
 10
2248.7562141163
 20
691.0137886971
 10
2249.1251143717
 20
691.5712652637
 10
2249.1414797562
 20
692.1601694963
 10
2248.8037083118
 20
692.7228553455
 10
2248.144863461
 20
693.2042431998
 10
2247.2294375281
 20
693.557211462
 10
2246.1470387816
 20
693.7472091394
 10
2245.0036199524
 20
693.7556379355
 10
2243.9111068421
 20
693.581672781
 10
2242.976442246
 20
693.2423425974
 10
2242.2911176468
 20
692.7708633872
 10
2241.9222173913
 20
692.2133868205
 10
2241.9058520069
 20
691.6244825879
 10
2242.2436234513
 20
691.0617967388
 10
2242.9024683021
 20
690.5804088845
 10
2243.817894235
 20
690.2274406223
  0
LWPOLYLINE
  5
493
330
1F
100
AcDbEntity
  8
0
  6
Continuous
 62
     7
370
    15
100
AcDbPolyline
 90
       20
 70
   128
 43
0.0
 10
2230.5505012108
 20
692.1764570761
 10
2231.4670925901
 20
691.8169111312
 10
2232.1073491668
 20
691.3235624274
 10
2232.4018892062
 20
690.7498729519
 10
2232.318794725
 20
690.158010861
 10
2231.8670702993
 20
689.6121135961
 10
2231.0956672801
 20
689.1713375961
 10
2230.0881791539
 20
688.8834477802
 10
2228.9537828921
 20
688.7796414768
 10
2227.8154079315
 20
688.8711677097
 10
2226.7964148629
 20
689.1481081913
 10
2226.0072273965
 20
689.5804521234
 10
2225.5333662399
 20
690.1213483324
 10
2225.426181602
 20
690.7121823211
 10
2225.6972886016
 20
691.2889280591
 10
2226.3173085885
 20
691.7890861966
 10
2227.2190527766
 20
692.1584568387
 10
2228.3048031911
 20
692.3570129449
 10
2229.4569019274
 20
692.3632378801
 10
2230.5505012108
 20
692.1764570761
  0
LWPOLYLINE
  5
494
330
1F
100
AcDbEntity
  8
0
  6
Continuous
 62
     7
370
    15
100
AcDbPolyline
 90
       20
 70
   128
 43
0.0
 10
2243.8902320203
 20
690.2980445183
 10
2244.9838313037
 20
690.1112637143
 10
2246.13593004
 20
690.1174886496
 10
2247.2216804545
 20
690.3160447557
 10
2248.1234246426
 20
690.6854153978
 10
2248.7434446296
 20
691.1855735354
 10
2249.0145516291
 20
691.7623192734
 10
2248.9073669913
 20
692.3531532621
 10
2248.4335058346
 20
692.894049471
 10
2247.6443183683
 20
693.3263934031
 10
2246.6253252996
 20
693.6033338848
 10
2245.4869503391
 20
693.6948601177
 10
2244.3525540772
 20
693.5910538143
 10
2243.345065951
 20
693.3031639983
 10
2242.5736629318
 20
692.8623879984
 10
2242.1219385061
 20
692.3164907334
 10
2242.0388440249
 20
691.7246286426
 10
2242.3333840644
 20
691.150939167
 10
2242.9736406411
 20
690.6575904632
 10
2243.8902320203
 20
690.2980445183
  0
LINE
  5
495
330
1F
100
AcDbEntity
  8
0
  6
Continuous
 62
     7
370
    15
100
AcDbLine
 10
2353.2460537312
 20
765.1853639455
 30
0.0
 11
2366.0398417966
 21
761.7082864871
 31
0.0
  0
LINE
  5
496
330
1F
100
AcDbEntity
  8
0
  6
Continuous
 62
     7
370
    15
100
AcDbLine
 10
2381.1052245641
 20
757.613838263
 30
0.0
 11
2393.8990126294
 21
754.1367608045
 31
0.0
  0
LINE
  5
497
330
1F
100
AcDbEntity
  8
0
  6
Continuous
 62
     7
370
    15
100
AcDbLine
 10
2408.9643953969
 20
750.0423125804
 30
0.0
 11
2421.7581834623
 21
746.565235122
 31
0.0
  0
LINE
  5
498
330
1F
100
AcDbEntity
  8
0
  6
Continuous
 62
     7
370
    15
100
AcDbLine
 10
2436.8235662298
 20
742.4707868979
 30
0.0
 11
2449.6173542951
 21
738.9937094394
 31
0.0
  0
LINE
  5
499
330
1F
100
AcDbEntity
  8
0
  6
Continuous
 62
     7
370
    15
100
AcDbLine
 10
2464.6827370626
 20
734.8992612153
 30
0.0
 11
2477.4765251279
 21
731.4221837569
 31
0.0
  0
LINE
  5
49A
330
1F
100
AcDbEntity
  8
0
  6
Continuous
 62
     7
370
    15
100
AcDbLine
 10
2492.5419078954
 20
727.3277355328
 30
0.0
 11
2505.3356959608
 21
723.8506580744
 31
0.0
  0
LINE
  5
49B
330
1F
100
AcDbEntity
  8
0
  6
Continuous
 62
     7
370
    15
100
AcDbLine
 10
2520.4010787283
 20
719.7562098503
 30
0.0
 11
2533.1948667936
 21
716.2791323918
 31
0.0
  0
LINE
  5
49C
330
1F
100
AcDbEntity
  8
0
  6
Continuous
 62
     7
370
    15
100
AcDbLine
 10
2548.2602495611
 20
712.1846841677
 30
0.0
 11
2561.0540376265
 21
708.7076067093
 31
0.0
  0
LINE
  5
49D
330
1F
100
AcDbEntity
  8
0
  6
Continuous
 62
     7
370
    15
100
AcDbLine
 10
2576.119420394
 20
704.6131584852
 30
0.0
 11
2588.9132084593
 21
701.1360810267
 31
0.0
  0
LINE
  5
49E
330
1F
100
AcDbEntity
  8
0
  6
Continuous
 62
     7
370
    15
100
AcDbLine
 10
2603.9785912268
 20
697.0416328026
 30
0.0
 11
2616.7723792921
 21
693.5645553442
 31
0.0
  0
LINE
  5
49F
330
1F
100
AcDbEntity
  8
0
  6
Continuous
 62
     7
370
    15
100
AcDbLine
 10
2631.8377620596
 20
689.4701071201
 30
0.0
 11
2644.631550125
 21
685.9930296616
 31
0.0
  0
LINE
  5
4A0
330
1F
100
AcDbEntity
  8
0
  6
Continuous
 62
     7
370
    15
100
AcDbLine
 10
2659.6969328925
 20
681.8985814375
 30
0.0
 11
2672.4907209578
 21
678.4215039791
 31
0.0
  0
LINE
  5
4A1
330
1F
100
AcDbEntity
  8
0
  6
Continuous
 62
     7
370
    15
100
AcDbLine
 10
2687.5561037253
 20
674.327055755
 30
0.0
 11
2700.3498917907
 21
670.8499782966
 31
0.0
  0
LINE
  5
4A2
330
1F
100
AcDbEntity
  8
0
  6
Continuous
 62
     7
370
    15
100
AcDbLine
 10
2201.3472413332
 20
784.5673653626
 30
0.0
 11
2209.192553899
 21
782.4351775119
 31
0.0
  0
LINE
  5
4A3
330
1F
100
AcDbEntity
  8
0
  6
Continuous
 62
     7
370
    15
100
AcDbLine
 10
2224.2579366665
 20
778.3407292878
 30
0.0
 11
2237.0517247319
 21
774.8636518294
 31
0.0
  0
LINE
  5
4A4
330
1F
100
AcDbEntity
  8
0
  6
Continuous
 62
     7
370
    15
100
AcDbLine
 10
2252.1171074994
 20
770.7692036053
 30
0.0
 11
2264.9108955647
 21
767.2921261469
 31
0.0
  0
LINE
  5
4A5
330
1F
100
AcDbEntity
  8
0
  6
Continuous
 62
     7
370
    15
100
AcDbLine
 10
2279.9762783322
 20
763.1976779228
 30
0.0
 11
2292.7700663975
 21
759.7206004643
 31
0.0
  0
LINE
  5
4A6
330
1F
100
AcDbEntity
  8
0
  6
Continuous
 62
     7
370
    15
100
AcDbLine
 10
2307.835449165
 20
755.6261522402
 30
0.0
 11
2320.6292372304
 21
752.1490747818
 31
0.0
  0
LINE
  5
4A7
330
1F
100
AcDbEntity
  8
0
  6
Continuous
 62
     7
370
    15
100
AcDbLine
 10
2335.6946199979
 20
748.0546265577
 30
0.0
 11
2348.4884080632
 21
744.5775490992
 31
0.0
  0
LINE
  5
4A8
330
1F
100
AcDbEntity
  8
0
  6
Continuous
 62
     7
370
    15
100
AcDbLine
 10
2363.5537908307
 20
740.4831008751
 30
0.0
 11
2376.347578896
 21
737.0060234167
 31
0.0
  0
LINE
  5
4A9
330
1F
100
AcDbEntity
  8
0
  6
Continuous
 62
     7
370
    15
100
AcDbLine
 10
2391.4129616635
 20
732.9115751926
 30
0.0
 11
2404.2067497289
 21
729.4344977341
 31
0.0
  0
LINE
  5
4AA
330
1F
100
AcDbEntity
  8
0
  6
Continuous
 62
     7
370
    15
100
AcDbLine
 10
2419.2721324964
 20
725.34004951
 30
0.0
 11
2432.0659205617
 21
721.8629720516
 31
0.0
  0
LINE
  5
4AB
330
1F
100
AcDbEntity
  8
0
  6
Continuous
 62
     7
370
    15
100
AcDbLine
 10
2447.1313033292
 20
717.7685238275
 30
0.0
 11
2459.9250913946
 21
714.291446369
 31
0.0
  0
LINE
  5
4AC
330
1F
100
AcDbEntity
  8
0
  6
Continuous
 62
     7
370
    15
100
AcDbLine
 10
2474.9904741621
 20
710.1969981449
 30
0.0
 11
2487.7842622274
 21
706.7199206865
 31
0.0
  0
LINE
  5
4AD
330
1F
100
AcDbEntity
  8
0
  6
Continuous
 62
     7
370
    15
100
AcDbLine
 10
2502.8496449949
 20
702.6254724624
 30
0.0
 11
2515.6434330602
 21
699.148395004
 31
0.0
  0
LINE
  5
4AE
330
1F
100
AcDbEntity
  8
0
  6
Continuous
 62
     7
370
    15
100
AcDbLine
 10
2530.7088158277
 20
695.0539467799
 30
0.0
 11
2543.5026038931
 21
691.5768693214
 31
0.0
  0
LINE
  5
4AF
330
1F
100
AcDbEntity
  8
0
  6
Continuous
 62
     7
370
    15
100
AcDbLine
 10
2558.5679866606
 20
687.4824210973
 30
0.0
 11
2571.3617747259
 21
684.0053436389
 31
0.0
  0
LINE
  5
4B0
330
1F
100
AcDbEntity
  8
0
  6
Continuous
 62
     7
370
    15
100
AcDbLine
 10
2586.4271574934
 20
679.9108954148
 30
0.0
 11
2599.2209455588
 21
676.4338179563
 31
0.0
  0
LINE
  5
4B1
330
1F
100
AcDbEntity
  8
0
  6
Continuous
 62
     7
370
    15
100
AcDbLine
 10
2614.2863283263
 20
672.3393697322
 30
0.0
 11
2627.0801163916
 21
668.8622922738
 31
0.0
  0
LINE
  5
4B2
330
1F
100
AcDbEntity
  8
0
  6
Continuous
 62
     7
370
    15
100
AcDbLine
 10
2642.1454991591
 20
664.7678440497
 30
0.0
 11
2654.9392872244
 21
661.2907665912
 31
0.0
  0
LINE
  5
4B3
330
1F
100
AcDbEntity
  8
0
  6
Continuous
 62
     7
370
    15
100
AcDbLine
 10
2670.0046699919
 20
657.1963183671
 30
0.0
 11
2682.7984580573
 21
653.7192409087
 31
0.0
  0
LINE
  5
4B4
330
1F
100
AcDbEntity
  8
0
  6
Continuous
 62
     7
370
    15
100
AcDbLine
 10
2201.3472413332
 20
789.2383270307
 30
0.0
 11
2201.3472413332
 21
784.5673653626
 31
0.0
  0
LINE
  5
4B5
330
1F
100
AcDbEntity
  8
0
  6
Continuous
 62
     7
370
    15
100
AcDbLine
 10
2213.9501995671
 20
803.0429923582
 30
0.0
 11
2226.7439876324
 21
799.5659148998
 31
0.0
  0
LINE
  5
4B6
330
1F
100
AcDbEntity
  8
0
  6
Continuous
 62
     7
370
    15
100
AcDbLine
 10
2241.8093703999
 20
795.4714666757
 30
0.0
 11
2254.6031584652
 21
791.9943892172
 31
0.0
  0
LINE
  5
4B7
330
1F
100
AcDbEntity
  8
0
  6
Continuous
 62
     7
370
    15
100
AcDbLine
 10
2269.6685412327
 20
787.8999409931
 30
0.0
 11
2282.4623292981
 21
784.4228635347
 31
0.0
  0
LINE
  5
4B8
330
1F
100
AcDbEntity
  8
0
  6
Continuous
 62
     7
370
    15
100
AcDbLine
 10
2297.5277120656
 20
780.3284153106
 30
0.0
 11
2310.3215001309
 21
776.8513378522
 31
0.0
  0
LINE
  5
4B9
330
1F
100
AcDbEntity
  8
0
  6
Continuous
 62
     7
370
    15
100
AcDbLine
 10
2325.3868828984
 20
772.7568896281
 30
0.0
 11
2338.1806709637
 21
769.2798121696
 31
0.0
  0
LINE
  5
4BA
330
1F
100
AcDbEntity
  8
0
  6
Continuous
 62
     7
370
    15
100
AcDbLine
 10
2205.3559152611
 20
759.8917769279
 30
0.0
 11
2218.1497033265
 21
756.4146994695
 31
0.0
  0
LINE
  5
4BB
330
1F
100
AcDbEntity
  8
0
  6
Continuous
 62
     7
370
    15
100
AcDbLine
 10
2233.215086094
 20
752.3202512454
 30
0.0
 11
2246.0088741593
 21
748.8431737869
 31
0.0
  0
LINE
  5
4BC
330
1F
100
AcDbEntity
  8
0
  6
Continuous
 62
     7
370
    15
100
AcDbLine
 10
2261.0742569268
 20
744.7487255628
 30
0.0
 11
2273.8680449921
 21
741.2716481044
 31
0.0
  0
LINE
  5
4BD
330
1F
100
AcDbEntity
  8
0
  6
Continuous
 62
     7
370
    15
100
AcDbLine
 10
2288.9334277596
 20
737.1771998803
 30
0.0
 11
2301.727215825
 21
733.7001224218
 31
0.0
  0
LINE
  5
4BE
330
1F
100
AcDbEntity
  8
0
  6
Continuous
 62
     7
370
    15
100
AcDbLine
 10
2316.7925985925
 20
729.6056741977
 30
0.0
 11
2329.5863866578
 21
726.1285967393
 31
0.0
  0
LINE
  5
4BF
330
1F
100
AcDbEntity
  8
0
  6
Continuous
 62
     7
370
    15
100
AcDbLine
 10
2344.6517694253
 20
722.0341485152
 30
0.0
 11
2357.4455574907
 21
718.5570710568
 31
0.0
  0
LINE
  5
4C0
330
1F
100
AcDbEntity
  8
0
  6
Continuous
 62
     7
370
    15
100
AcDbLine
 10
2372.5109402582
 20
714.4626228327
 30
0.0
 11
2385.3047283235
 21
710.9855453742
 31
0.0
  0
LINE
  5
4C1
330
1F
100
AcDbEntity
  8
0
  6
Continuous
 62
     7
370
    15
100
AcDbLine
 10
2400.370111091
 20
706.8910971501
 30
0.0
 11
2413.1638991563
 21
703.4140196917
 31
0.0
  0
LINE
  5
4C2
330
1F
100
AcDbEntity
  8
0
  6
Continuous
 62
     7
370
    15
100
AcDbLine
 10
2428.2292819238
 20
699.3195714676
 30
0.0
 11
2441.0230699892
 21
695.8424940091
 31
0.0
  0
LINE
  5
4C3
330
1F
100
AcDbEntity
  8
0
  6
Continuous
 62
     7
370
    15
100
AcDbLine
 10
2456.0884527567
 20
691.748045785
 30
0.0
 11
2468.882240822
 21
688.2709683266
 31
0.0
  0
LINE
  5
4C4
330
1F
100
AcDbEntity
  8
0
  6
Continuous
 62
     7
370
    15
100
AcDbLine
 10
2483.9476235895
 20
684.1765201025
 30
0.0
 11
2496.7414116548
 21
680.699442644
 31
0.0
  0
LINE
  5
4C5
330
1F
100
AcDbEntity
  8
0
  6
Continuous
 62
     7
370
    15
100
AcDbLine
 10
2511.8067944223
 20
676.6049944199
 30
0.0
 11
2524.6005824877
 21
673.1279169615
 31
0.0
  0
LINE
  5
4C6
330
1F
100
AcDbEntity
  8
0
  6
Continuous
 62
     7
370
    15
100
AcDbLine
 10
2539.6659652552
 20
669.0334687374
 30
0.0
 11
2552.4597533205
 21
665.556391279
 31
0.0
  0
LINE
  5
4C7
330
1F
100
AcDbEntity
  8
0
  6
Continuous
 62
     7
370
    15
100
AcDbLine
 10
2567.525136088
 20
661.4619430549
 30
0.0
 11
2580.3189241534
 21
657.9848655964
 31
0.0
  0
LINE
  5
4C8
330
1F
100
AcDbEntity
  8
0
  6
Continuous
 62
     7
370
    15
100
AcDbLine
 10
2595.3843069209
 20
653.8904173723
 30
0.0
 11
2608.1780949862
 21
650.4133399139
 31
0.0
  0
LINE
  5
4C9
330
1F
100
AcDbEntity
  8
0
  6
Continuous
 62
     7
370
    15
100
AcDbLine
 10
2623.2434777537
 20
646.3188916898
 30
0.0
 11
2636.037265819
 21
642.8418142313
 31
0.0
  0
LINE
  5
4CA
330
1F
100
AcDbEntity
  8
0
  6
Continuous
 62
     7
370
    15
100
AcDbLine
 10
2651.1026485865
 20
638.7473660072
 30
0.0
 11
2663.8964366519
 21
635.2702885488
 31
0.0
  0
LINE
  5
4CB
330
1F
100
AcDbEntity
  8
0
  6
Continuous
 62
     7
370
    15
100
AcDbLine
 10
2201.3472413332
 20
784.5673653626
 30
0.0
 11
2199.4207908288
 21
779.1488290013
 31
0.0
  0
LINE
  5
4CC
330
1F
100
AcDbEntity
  8
0
  6
Continuous
 62
     7
370
    15
100
AcDbLine
 10
2196.9144200766
 20
772.0991482409
 30
0.0
 11
2196.0172517623
 21
769.575678719
 31
0.0
  0
LWPOLYLINE
  5
4CD
330
1F
100
AcDbEntity
  8
0
  6
Continuous
 62
     7
370
    15
100
AcDbPolyline
 90
       21
 70
   128
 43
0.0
 10
2204.0902953458
 20
699.4580378127
 10
2205.0057212787
 20
699.1050695505
 10
2205.6645661295
 20
698.6236816962
 10
2206.0023375739
 20
698.060995847
 10
2205.9859721894
 20
697.4720916144
 10
2205.617071934
 20
696.9146150478
 10
2204.9317473348
 20
696.4431358376
 10
2203.9970827387
 20
696.1038056539
 10
2202.9045696284
 20
695.9298404995
 10
2201.7611507992
 20
695.9382692956
 10
2200.6787520527
 20
696.128266973
 10
2199.7633261198
 20
696.4812352352
 10
2199.104481269
 20
696.9626230895
 10
2198.7667098246
 20
697.5253089386
 10
2198.7830752091
 20
698.1142131713
 10
2199.1519754645
 20
698.6716897379
 10
2199.8373000637
 20
699.1431689481
 10
2200.7719646598
 20
699.4824991318
 10
2201.8644777701
 20
699.6564642862
 10
2203.0078965993
 20
699.6480354901
 10
2204.0902953458
 20
699.4580378127
  0
LWPOLYLINE
  5
4CE
330
1F
100
AcDbEntity
  8
0
  6
Continuous
 62
     7
370
    15
100
AcDbPolyline
 90
       21
 70
   128
 43
0.0
 10
2217.2853505847
 20
697.4384174628
 10
2218.3677493311
 20
697.2484197854
 10
2219.5111681603
 20
697.2399909893
 10
2220.6036812706
 20
697.4139561437
 10
2221.5383458668
 20
697.7532863274
 10
2222.2236704659
 20
698.2247655376
 10
2222.5925707214
 20
698.7822421042
 10
2222.6089361059
 20
699.3711463369
 10
2222.2711646615
 20
699.933832186
 10
2221.6123198106
 20
700.4152200403
 10
2220.6968938777
 20
700.7681883025
 10
2219.6144951313
 20
700.9581859799
 10
2218.4710763021
 20
700.966614776
 10
2217.3785631918
 20
700.7926496216
 10
2216.4438985956
 20
700.4533194379
 10
2215.7585739965
 20
699.9818402277
 10
2215.389673741
 20
699.4243636611
 10
2215.3733083566
 20
698.8354594284
 10
2215.7110798009
 20
698.2727735793
 10
2216.3699246518
 20
697.791385725
 10
2217.2853505847
 20
697.4384174628
  0
LWPOLYLINE
  5
4CF
330
1F
100
AcDbEntity
  8
0
  6
Continuous
 62
     7
370
    15
100
AcDbPolyline
 90
       20
 70
   128
 43
0.0
 10
2204.0179575605
 20
699.3874339167
 10
2204.9345489397
 20
699.0278879717
 10
2205.5748055164
 20
698.5345392679
 10
2205.8693455559
 20
697.9608497924
 10
2205.7862510746
 20
697.3689877016
 10
2205.334526649
 20
696.8230904366
 10
2204.5631236298
 20
696.3823144367
 10
2203.5556355036
 20
696.0944246207
 10
2202.4212392417
 20
695.9906183173
 10
2201.2828642812
 20
696.0821445502
 10
2200.2638712125
 20
696.3590850319
 10
2199.4746837462
 20
696.7914289639
 10
2199.0008225895
 20
697.3323251729
 10
2198.8936379517
 20
697.9231591616
 10
2199.1647449512
 20
698.4999048996
 10
2199.7847649382
 20
699.0000630372
 10
2200.6865091263
 20
699.3694336792
 10
2201.7722595408
 20
699.5679897854
 10
2202.9243582771
 20
699.5742147207
 10
2204.0179575605
 20
699.3874339167
  0
LINE
  5
4D0
330
1F
100
AcDbEntity
  8
0
  6
Continuous
 62
     7
370
    15
100
AcDbLine
 10
2205.0444454857
 20
759.5877728786
 30
0.0
 11
2217.8382335511
 21
756.1106954201
 31
0.0
  0
LINE
  5
4D1
330
1F
100
AcDbEntity
  8
0
  6
Continuous
 62
     7
370
    15
100
AcDbLine
 10
2232.9036163186
 20
752.016247196
 30
0.0
 11
2245.6974043839
 21
748.5391697376
 31
0.0
  0
LINE
  5
4D2
330
1F
100
AcDbEntity
  8
0
  6
Continuous
 62
     7
370
    15
100
AcDbLine
 10
2260.7627871514
 20
744.4447215135
 30
0.0
 11
2273.5565752167
 21
740.9676440551
 31
0.0
  0
LINE
  5
4D3
330
1F
100
AcDbEntity
  8
0
  6
Continuous
 62
     7
370
    15
100
AcDbLine
 10
2288.6219579842
 20
736.873195831
 30
0.0
 11
2301.4157460496
 21
733.3961183725
 31
0.0
  0
LINE
  5
4D4
330
1F
100
AcDbEntity
  8
0
  6
Continuous
 62
     7
370
    15
100
AcDbLine
 10
2316.4811288171
 20
729.3016701484
 30
0.0
 11
2329.2749168824
 21
725.82459269
 31
0.0
  0
LINE
  5
4D5
330
1F
100
AcDbEntity
  8
0
  6
Continuous
 62
     7
370
    15
100
AcDbLine
 10
2344.3402996499
 20
721.7301444659
 30
0.0
 11
2357.1340877153
 21
718.2530670074
 31
0.0
  0
LINE
  5
4D6
330
1F
100
AcDbEntity
  8
0
  6
Continuous
 62
     7
370
    15
100
AcDbLine
 10
2372.1994704828
 20
714.1586187833
 30
0.0
 11
2384.9932585481
 21
710.6815413249
 31
0.0
  0
LINE
  5
4D7
330
1F
100
AcDbEntity
  8
0
  6
Continuous
 62
     7
370
    15
100
AcDbLine
 10
2400.0586413156
 20
706.5870931008
 30
0.0
 11
2412.8524293809
 21
703.1100156423
 31
0.0
  0
LINE
  5
4D8
330
1F
100
AcDbEntity
  8
0
  6
Continuous
 62
     7
370
    15
100
AcDbLine
 10
2427.9178121484
 20
699.0155674182
 30
0.0
 11
2440.7116002138
 21
695.5384899598
 31
0.0
  0
LINE
  5
4D9
330
1F
100
AcDbEntity
  8
0
  6
Continuous
 62
     7
370
    15
100
AcDbLine
 10
2455.7769829813
 20
691.4440417357
 30
0.0
 11
2468.5707710466
 21
687.9669642773
 31
0.0
  0
LINE
  5
4DA
330
1F
100
AcDbEntity
  8
0
  6
Continuous
 62
     7
370
    15
100
AcDbLine
 10
2483.6361538141
 20
683.8725160531
 30
0.0
 11
2496.4299418795
 21
680.3954385947
 31
0.0
  0
LINE
  5
4DB
330
1F
100
AcDbEntity
  8
0
  6
Continuous
 62
     7
370
    15
100
AcDbLine
 10
2511.4953246469
 20
676.3009903706
 30
0.0
 11
2524.2891127123
 21
672.8239129122
 31
0.0
  0
LINE
  5
4DC
330
1F
100
AcDbEntity
  8
0
  6
Continuous
 62
     7
370
    15
100
AcDbLine
 10
2539.3544954798
 20
668.7294646881
 30
0.0
 11
2552.1482835451
 21
665.2523872296
 31
0.0
  0
LINE
  5
4DD
330
1F
100
AcDbEntity
  8
0
  6
Continuous
 62
     7
370
    15
100
AcDbLine
 10
2567.2136663126
 20
661.1579390055
 30
0.0
 11
2580.007454378
 21
657.6808615471
 31
0.0
  0
LINE
  5
4DE
330
1F
100
AcDbEntity
  8
0
  6
Continuous
 62
     7
370
    15
100
AcDbLine
 10
2595.0728371455
 20
653.586413323
 30
0.0
 11
2607.8666252108
 21
650.1093358645
 31
0.0
  0
LINE
  5
4DF
330
1F
100
AcDbEntity
  8
0
  6
Continuous
 62
     7
370
    15
100
AcDbLine
 10
2622.9320079783
 20
646.0148876404
 30
0.0
 11
2635.7257960436
 21
642.537810182
 31
0.0
  0
LINE
  5
4E0
330
1F
100
AcDbEntity
  8
0
  6
Continuous
 62
     7
370
    15
100
AcDbLine
 10
2650.7911788111
 20
638.4433619579
 30
0.0
 11
2663.5849668765
 21
634.9662844994
 31
0.0
  0
LWPOLYLINE
  5
4E1
330
1F
100
AcDbEntity
  8
0
  6
Continuous
 62
     7
370
    15
100
AcDbPolyline
 90
       20
 70
   128
 43
0.0
 10
2217.35768837
 20
697.5090213588
 10
2218.4512876534
 20
697.3222405548
 10
2219.6033863897
 20
697.3284654901
 10
2220.6891368042
 20
697.5270215963
 10
2221.5908809923
 20
697.8963922383
 10
2222.2109009792
 20
698.3965503759
 10
2222.4820079788
 20
698.9732961139
 10
2222.3748233409
 20
699.5641301026
 10
2221.9009621843
 20
700.1050263116
 10
2221.1117747179
 20
700.5373702436
 10
2220.0927816493
 20
700.8143107253
 10
2218.9544066887
 20
700.9058369582
 10
2217.8200104269
 20
700.8020306548
 10
2216.8125223007
 20
700.5141408388
 10
2216.0411192814
 20
700.0733648389
 10
2215.5893948558
 20
699.5274675739
 10
2215.5063003746
 20
698.9356054831
 10
2215.800840414
 20
698.3619160076
 10
2216.4410969907
 20
697.8685673038
 10
2217.35768837
 20
697.5090213588
  0
LWPOLYLINE
  5
4E2
330
1F
100
AcDbEntity
  8
0
  6
Continuous
 62
     7
370
    15
100
AcDbPolyline
 90
       21
 70
   128
 43
0.0
 10
2177.5577516955
 20
706.6690146532
 10
2178.4731776284
 20
706.316046391
 10
2179.1320224792
 20
705.8346585367
 10
2179.4697939236
 20
705.2719726876
 10
2179.4534285391
 20
704.6830684549
 10
2179.0845282837
 20
704.1255918883
 10
2178.3992036845
 20
703.6541126781
 10
2177.4645390884
 20
703.3147824944
 10
2176.3720259781
 20
703.14081734
 10
2175.2286071489
 20
703.1492461361
 10
2174.1462084024
 20
703.3392438135
 10
2173.2307824695
 20
703.6922120757
 10
2172.5719376187
 20
704.17359993
 10
2172.2341661743
 20
704.7362857792
 10
2172.2505315588
 20
705.3251900118
 10
2172.6194318142
 20
705.8826665784
 10
2173.3047564134
 20
706.3541457886
 10
2174.2394210095
 20
706.6934759723
 10
2175.3319341198
 20
706.8674411267
 10
2176.475352949
 20
706.8590123306
 10
2177.5577516955
 20
706.6690146532
  0
LWPOLYLINE
  5
4E3
330
1F
100
AcDbEntity
  8
0
  6
Continuous
 62
     7
370
    15
100
AcDbPolyline
 90
       21
 70
   128
 43
0.0
 10
2190.7528069343
 20
704.6493943033
 10
2191.8352056808
 20
704.4593966259
 10
2192.97862451
 20
704.4509678298
 10
2194.0711376203
 20
704.6249329843
 10
2195.0058022165
 20
704.9642631679
 10
2195.6911268156
 20
705.4357423781
 10
2196.0600270711
 20
705.9932189448
 10
2196.0763924555
 20
706.5821231774
 10
2195.7386210112
 20
707.1448090265
 10
2195.0797761603
 20
707.6261968808
 10
2194.1643502274
 20
707.979165143
 10
2193.081951481
 20
708.1691628204
 10
2191.9385326518
 20
708.1775916165
 10
2190.8460195415
 20
708.0036264621
 10
2189.9113549453
 20
707.6642962784
 10
2189.2260303462
 20
707.1928170682
 10
2188.8571300907
 20
706.6353405016
 10
2188.8407647062
 20
706.046436269
 10
2189.1785361506
 20
705.4837504198
 10
2189.8373810015
 20
705.0023625655
 10
2190.7528069343
 20
704.6493943033
  0
LWPOLYLINE
  5
4E4
330
1F
100
AcDbEntity
  8
0
  6
Continuous
 62
     7
370
    15
100
AcDbPolyline
 90
       20
 70
   128
 43
0.0
 10
2177.4854139102
 20
706.5984107572
 10
2178.4020052894
 20
706.2388648122
 10
2179.0422618661
 20
705.7455161084
 10
2179.3368019056
 20
705.1718266329
 10
2179.2537074243
 20
704.5799645421
 10
2178.8019829987
 20
704.0340672771
 10
2178.0305799794
 20
703.5932912772
 10
2177.0230918533
 20
703.3054014612
 10
2175.8886955914
 20
703.2015951578
 10
2174.7503206308
 20
703.2931213907
 10
2173.7313275622
 20
703.5700618724
 10
2172.9421400958
 20
704.0024058045
 10
2172.4682789392
 20
704.5433020134
 10
2172.3610943014
 20
705.1341360021
 10
2172.6322013009
 20
705.7108817401
 10
2173.2522212878
 20
706.2110398777
 10
2174.1539654759
 20
706.5804105198
 10
2175.2397158904
 20
706.7789666259
 10
2176.3918146268
 20
706.7851915612
 10
2177.4854139102
 20
706.5984107572
  0
LWPOLYLINE
  5
4E5
330
1F
100
AcDbEntity
  8
0
  6
Continuous
 62
     7
370
    15
100
AcDbPolyline
 90
       20
 70
   128
 43
0.0
 10
2190.8251447196
 20
704.7199981994
 10
2191.9187440031
 20
704.5332173954
 10
2193.0708427394
 20
704.5394423306
 10
2194.1565931539
 20
704.7379984368
 10
2195.058337342
 20
705.1073690789
 10
2195.6783573289
 20
705.6075272164
 10
2195.9494643285
 20
706.1842729544
 10
2195.8422796906
 20
706.7751069431
 10
2195.368418534
 20
707.3160031521
 10
2194.5792310676
 20
707.7483470842
 10
2193.560237999
 20
708.0252875658
 10
2192.4218630384
 20
708.1168137987
 10
2191.2874667766
 20
708.0130074953
 10
2190.2799786504
 20
707.7251176794
 10
2189.5085756311
 20
707.2843416794
 10
2189.0568512055
 20
706.7384444145
 10
2188.9737567242
 20
706.1465823236
 10
2189.2682967637
 20
705.5728928481
 10
2189.9085533404
 20
705.0795441443
 10
2190.8251447196
 20
704.7199981994
  0
LWPOLYLINE
  5
4E6
330
1F
100
AcDbEntity
  8
0
  6
Continuous
 62
     7
370
    15
100
AcDbPolyline
 90
       21
 70
   128
 43
0.0
 10
2151.0252080452
 20
713.8799914937
 10
2151.940633978
 20
713.5270232315
 10
2152.5994788289
 20
713.0456353772
 10
2152.9372502733
 20
712.4829495281
 10
2152.9208848888
 20
711.8940452955
 10
2152.5519846333
 20
711.3365687288
 10
2151.8666600342
 20
710.8650895186
 10
2150.931995438
 20
710.525759335
 10
2149.8394823277
 20
710.3517941805
 10
2148.6960634985
 20
710.3602229766
 10
2147.6136647521
 20
710.550220654
 10
2146.6982388192
 20
710.9031889162
 10
2146.0393939683
 20
711.3845767705
 10
2145.701622524
 20
711.9472626197
 10
2145.7179879084
 20
712.5361668523
 10
2146.0868881639
 20
713.0936434189
 10
2146.772212763
 20
713.5651226291
 10
2147.7068773592
 20
713.9044528128
 10
2148.7993904695
 20
714.0784179673
 10
2149.9428092987
 20
714.0699891711
 10
2151.0252080452
 20
713.8799914937
  0
LWPOLYLINE
  5
4E7
330
1F
100
AcDbEntity
  8
0
  6
Continuous
 62
     7
370
    15
100
AcDbPolyline
 90
       21
 70
   128
 43
0.0
 10
2164.220263284
 20
711.8603711438
 10
2165.3026620305
 20
711.6703734664
 10
2166.4460808597
 20
711.6619446703
 10
2167.53859397
 20
711.8359098248
 10
2168.4732585661
 20
712.1752400084
 10
2169.1585831653
 20
712.6467192186
 10
2169.5274834207
 20
713.2041957853
 10
2169.5438488052
 20
713.7931000179
 10
2169.2060773608
 20
714.355785867
 10
2168.54723251
 20
714.8371737213
 10
2167.6318065771
 20
715.1901419836
 10
2166.5494078306
 20
715.380139661
 10
2165.4059890014
 20
715.3885684571
 10
2164.3134758911
 20
715.2146033026
 10
2163.378811295
 20
714.8752731189
 10
2162.6934866958
 20
714.4037939088
 10
2162.3245864404
 20
713.8463173421
 10
2162.3082210559
 20
713.2574131095
 10
2162.6459925003
 20
712.6947272603
 10
2163.3048373511
 20
712.2133394061
 10
2164.220263284
 20
711.8603711438
  0
LWPOLYLINE
  5
4E8
330
1F
100
AcDbEntity
  8
0
  6
Continuous
 62
     7
370
    15
100
AcDbPolyline
 90
       20
 70
   128
 43
0.0
 10
2150.9528702599
 20
713.8093875977
 10
2151.8694616391
 20
713.4498416528
 10
2152.5097182158
 20
712.956492949
 10
2152.8042582553
 20
712.3828034734
 10
2152.721163774
 20
711.7909413826
 10
2152.2694393484
 20
711.2450441176
 10
2151.4980363291
 20
710.8042681177
 10
2150.4905482029
 20
710.5163783017
 10
2149.3561519411
 20
710.4125719983
 10
2148.2177769805
 20
710.5040982312
 10
2147.1987839119
 20
710.7810387129
 10
2146.4095964455
 20
711.213382645
 10
2145.9357352889
 20
711.7542788539
 10
2145.828550651
 20
712.3451128426
 10
2146.0996576506
 20
712.9218585807
 10
2146.7196776375
 20
713.4220167182
 10
2147.6214218256
 20
713.7913873603
 10
2148.7071722401
 20
713.9899434664
 10
2149.8592709764
 20
713.9961684017
 10
2150.9528702599
 20
713.8093875977
  0
LWPOLYLINE
  5
4E9
330
1F
100
AcDbEntity
  8
0
  6
Continuous
 62
     7
370
    15
100
AcDbPolyline
 90
       20
 70
   128
 43
0.0
 10
2164.2926010693
 20
711.9309750399
 10
2165.3862003527
 20
711.7441942359
 10
2166.5382990891
 20
711.7504191711
 10
2167.6240495036
 20
711.9489752773
 10
2168.5257936917
 20
712.3183459194
 10
2169.1458136786
 20
712.8185040569
 10
2169.4169206782
 20
713.3952497949
 10
2169.3097360403
 20
713.9860837836
 10
2168.8358748837
 20
714.5269799926
 10
2168.0466874173
 20
714.9593239247
 10
2167.0276943487
 20
715.2362644063
 10
2165.8893193881
 20
715.3277906392
 10
2164.7549231262
 20
715.2239843359
 10
2163.7474350001
 20
714.9360945199
 10
2162.9760319808
 20
714.4953185199
 10
2162.5243075552
 20
713.949421255
 10
2162.4412130739
 20
713.3575591641
 10
2162.7357531134
 20
712.7838696886
 10
2163.3760096901
 20
712.2905209848
 10
2164.2926010693
 20
711.9309750399
  0
LWPOLYLINE
  5
4EA
330
1F
100
AcDbEntity
  8
0
  6
Continuous
 62
     7
370
    15
100
AcDbPolyline
 90
       21
 70
   128
 43
0.0
 10
2124.4926643948
 20
721.0909683343
 10
2125.4080903277
 20
720.738000072
 10
2126.0669351786
 20
720.2566122177
 10
2126.4047066229
 20
719.6939263686
 10
2126.3883412385
 20
719.105022136
 10
2126.019440983
 20
718.5475455693
 10
2125.3341163839
 20
718.0760663591
 10
2124.3994517877
 20
717.7367361755
 10
2123.3069386774
 20
717.562771021
 10
2122.1635198482
 20
717.5711998171
 10
2121.0811211018
 20
717.7611974945
 10
2120.1656951689
 20
718.1141657568
 10
2119.506850318
 20
718.5955536111
 10
2119.1690788736
 20
719.1582394602
 10
2119.1854442581
 20
719.7471436928
 10
2119.5543445136
 20
720.3046202595
 10
2120.2396691127
 20
720.7760994697
 10
2121.1743337089
 20
721.1154296533
 10
2122.2668468192
 20
721.2893948078
 10
2123.4102656484
 20
721.2809660117
 10
2124.4926643948
 20
721.0909683343
  0
LWPOLYLINE
  5
4EB
330
1F
100
AcDbEntity
  8
0
  6
Continuous
 62
     7
370
    15
100
AcDbPolyline
 90
       21
 70
   128
 43
0.0
 10
2137.6877196337
 20
719.0713479843
 10
2138.7701183802
 20
718.8813503069
 10
2139.9135372094
 20
718.8729215108
 10
2141.0060503197
 20
719.0468866653
 10
2141.9407149158
 20
719.3862168489
 10
2142.626039515
 20
719.8576960591
 10
2142.9949397704
 20
720.4151726258
 10
2143.0113051549
 20
721.0040768584
 10
2142.6735337105
 20
721.5667627075
 10
2142.0146888597
 20
722.0481505618
 10
2141.0992629268
 20
722.4011188241
 10
2140.0168641803
 20
722.5911165015
 10
2138.8734453511
 20
722.5995452976
 10
2137.7809322408
 20
722.4255801431
 10
2136.8462676447
 20
722.0862499595
 10
2136.1609430455
 20
721.6147707493
 10
2135.7920427901
 20
721.0572941826
 10
2135.7756774056
 20
720.46838995
 10
2136.11344885
 20
719.9057041009
 10
2136.7722937008
 20
719.4243162466
 10
2137.6877196337
 20
719.0713479843
  0
LWPOLYLINE
  5
4EC
330
1F
100
AcDbEntity
  8
0
  6
Continuous
 62
     7
370
    15
100
AcDbPolyline
 90
       20
 70
   128
 43
0.0
 10
2124.4203266095
 20
721.0203644382
 10
2125.3369179888
 20
720.6608184933
 10
2125.9771745655
 20
720.1674697895
 10
2126.2717146049
 20
719.593780314
 10
2126.1886201237
 20
719.0019182231
 10
2125.7368956981
 20
718.4560209581
 10
2124.9654926788
 20
718.0152449582
 10
2123.9580045526
 20
717.7273551422
 10
2122.8236082908
 20
717.6235488388
 10
2121.6852333302
 20
717.7150750717
 10
2120.6662402616
 20
717.9920155534
 10
2119.8770527952
 20
718.4243594855
 10
2119.4031916386
 20
718.9652556944
 10
2119.2960070007
 20
719.5560896831
 10
2119.5671140003
 20
720.1328354212
 10
2120.1871339872
 20
720.6329935587
 10
2121.0888781753
 20
721.0023642008
 10
2122.1746285898
 20
721.200920307
 10
2123.3267273261
 20
721.2071452422
 10
2124.4203266095
 20
721.0203644382
  0
LWPOLYLINE
  5
4ED
330
1F
100
AcDbEntity
  8
0
  6
Continuous
 62
     7
370
    15
100
AcDbPolyline
 90
       20
 70
   128
 43
0.0
 10
2137.760057419
 20
719.1419518804
 10
2138.8536567024
 20
718.9551710764
 10
2140.0057554387
 20
718.9613960116
 10
2141.0915058532
 20
719.1599521178
 10
2141.9932500413
 20
719.5293227599
 10
2142.6132700283
 20
720.0294808974
 10
2142.8843770278
 20
720.6062266355
 10
2142.77719239
 20
721.1970606242
 10
2142.3033312333
 20
721.7379568331
 10
2141.514143767
 20
722.1703007652
 10
2140.4951506983
 20
722.4472412469
 10
2139.3567757378
 20
722.5387674798
 10
2138.2223794759
 20
722.4349611764
 10
2137.2148913497
 20
722.1470713604
 10
2136.4434883305
 20
721.7062953605
 10
2135.9917639049
 20
721.1603980955
 10
2135.9086694236
 20
720.5685360046
 10
2136.2032094631
 20
719.9948465291
 10
2136.8434660398
 20
719.5014978253
 10
2137.760057419
 20
719.1419518804
  0
LINE
  5
4EE
330
1F
100
AcDbEntity
  8
0
  6
Continuous
 62
     7
370
    15
100
AcDbLine
 10
2201.3472413332
 20
823.6115523715
 30
0.0
 11
2201.3472413332
 21
821.8972177701
 31
0.0
  0
LINE
  5
4EF
330
1F
100
AcDbEntity
  8
0
  6
Continuous
 62
     7
370
    15
100
AcDbLine
 10
2205.3141521391
 20
820.8190964137
 30
0.0
 11
2205.3141521391
 21
814.2349889235
 31
0.0
  0
LWPOLYLINE
  5
4F0
330
1F
100
AcDbEntity
  8
0
  6
Continuous
 62
     7
370
    15
100
AcDbPolyline
 90
        9
 70
   128
 43
0.0
 10
2178.1029993805
 20
752.0908192075
 10
2178.2237018047
 20
753.2264867127
 10
2178.2237018047
 20
754.5696480238
 10
2178.0486900518
 20
755.7029626722
 10
2177.708837593
 20
756.56056653
 10
2177.2238954179
 20
757.0926187784
 10
2176.622046603
 20
757.2681984745
 10
2175.9382684137
 20
757.0771015645
 10
2175.2122995531
 20
756.5304339064
  0
LINE
  5
4F1
330
1F
100
AcDbEntity
  8
0
  6
Continuous
 62
     7
370
    15
100
AcDbLine
 10
2175.2122995531
 20
756.5304339064
 30
0.0
 11
2169.2096953293
 21
750.6717081657
 31
0.0
  0
LINE
  5
4F2
330
1F
100
AcDbEntity
  8
0
  6
Continuous
 62
     7
370
    15
100
AcDbLine
 10
2163.0141500119
 20
744.6246660027
 30
0.0
 11
2157.9445701627
 21
739.6766006547
 31
0.0
  0
ARC
  5
4F3
330
1F
100
AcDbEntity
  8
0
  6
Continuous
 62
     7
370
    15
100
AcDbCircle
 10
2165.7782575871
 20
732.6873982625
 30
0.0
 40
10.49836219335321
100
AcDbArc
 50
138.2607123948
 51
161.7764783334
  0
LWPOLYLINE
  5
4F4
330
1F
100
AcDbEntity
  8
0
  6
Continuous
 62
     7
370
    15
100
AcDbPolyline
 90
       21
 70
   128
 43
0.0
 10
2111.1551759834
 20
726.2823248249
 10
2112.2375747298
 20
726.0923271474
 10
2113.380993559
 20
726.0838983513
 10
2114.4735066693
 20
726.2578635058
 10
2115.4081712655
 20
726.5971936895
 10
2116.0934958646
 20
727.0686728997
 10
2116.4623961201
 20
727.6261494663
 10
2116.4787615046
 20
728.2150536989
 10
2116.1409900602
 20
728.7777395481
 10
2115.4821452093
 20
729.2591274024
 10
2114.5667192765
 20
729.6120956646
 10
2113.48432053
 20
729.802093342
 10
2112.3409017008
 20
729.8105221381
 10
2111.2483885905
 20
729.6365569836
 10
2110.3137239943
 20
729.2972268
 10
2109.6283993952
 20
728.8257475898
 10
2109.2594991397
 20
728.2682710231
 10
2109.2431337553
 20
727.6793667905
 10
2109.5809051996
 20
727.1166809414
 10
2110.2397500505
 20
726.6352930871
 10
2111.1551759834
 20
726.2823248249
  0
LINE
  5
4F5
330
1F
100
AcDbEntity
  8
0
  6
Continuous
 62
     7
370
    15
100
AcDbLine
 10
2548.2602495611
 20
727.6136955803
 30
0.0
 11
2573.4189176529
 21
720.776108678
 31
0.0
  0
LWPOLYLINE
  5
4F6
330
1F
100
AcDbEntity
  8
0
  6
Continuous
 62
     7
370
    15
100
AcDbPolyline
 90
       20
 70
   128
 43
0.0
 10
2111.2275137687
 20
726.3529287209
 10
2112.3211130521
 20
726.1661479169
 10
2113.4732117884
 20
726.1723728522
 10
2114.5589622029
 20
726.3709289583
 10
2115.460706391
 20
726.7402996004
 10
2116.0807263779
 20
727.2404577379
 10
2116.3518333775
 20
727.817203476
 10
2116.2446487396
 20
728.4080374647
 10
2115.770787583
 20
728.9489336736
 10
2114.9816001166
 20
729.3812776057
 10
2113.962607048
 20
729.6582180874
 10
2112.8242320874
 20
729.7497443203
 10
2111.6898358256
 20
729.6459380169
 10
2110.6823476994
 20
729.3580482009
 10
2109.9109446802
 20
728.917272201
 10
2109.4592202545
 20
728.371374936
 10
2109.3761257733
 20
727.7795128452
 10
2109.6706658127
 20
727.2058233696
 10
2110.3109223894
 20
726.7124746658
 10
2111.2275137687
 20
726.3529287209
  0
LINE
  5
4F7
330
1F
100
AcDbEntity
  8
0
  6
Continuous
 62
     7
370
    15
100
AcDbLine
 10
2094.2406495737
 20
659.0705242608
 30
0.0
 11
2100.3076896298
 21
664.9921413492
 31
0.0
  0
LINE
  5
4F8
330
1F
100
AcDbEntity
  8
0
  6
Continuous
 62
     7
370
    15
100
AcDbLine
 10
2520.4010787283
 20
735.1852212629
 30
0.0
 11
2545.5597468201
 21
728.3476343606
 31
0.0
  0
LINE
  5
4F9
330
1F
100
AcDbEntity
  8
0
  6
Continuous
 62
     7
370
    15
100
AcDbLine
 10
2492.5419078954
 20
742.7567469454
 30
0.0
 11
2517.7005759873
 21
735.9191600431
 31
0.0
  0
LINE
  5
4FA
330
1F
100
AcDbEntity
  8
0
  6
Continuous
 62
     7
370
    15
100
AcDbLine
 10
2464.6827370626
 20
750.328272628
 30
0.0
 11
2489.8414051544
 21
743.4906857257
 31
0.0
  0
LINE
  5
4FB
330
1F
100
AcDbEntity
  8
0
  6
Continuous
 62
     7
370
    15
100
AcDbLine
 10
2436.8235662298
 20
757.8997983105
 30
0.0
 11
2461.9822343216
 21
751.0622114082
 31
0.0
  0
LINE
  5
4FC
330
1F
100
AcDbEntity
  8
0
  6
Continuous
 62
     7
370
    15
100
AcDbLine
 10
2408.9643953969
 20
765.4713239931
 30
0.0
 11
2434.1230634888
 21
758.6337370908
 31
0.0
  0
LINE
  5
4FD
330
1F
100
AcDbEntity
  8
0
  6
Continuous
 62
     7
370
    15
100
AcDbLine
 10
2381.1052245641
 20
773.0428496756
 30
0.0
 11
2406.2638926559
 21
766.2052627733
 31
0.0
  0
LINE
  5
4FE
330
1F
100
AcDbEntity
  8
0
  6
Continuous
 62
     7
370
    15
100
AcDbLine
 10
2353.2460537312
 20
780.6143753582
 30
0.0
 11
2378.4047218231
 21
773.7767884558
 31
0.0
  0
LINE
  5
4FF
330
1F
100
AcDbEntity
  8
0
  6
Continuous
 62
     7
370
    15
100
AcDbLine
 10
2201.3472413332
 20
821.8972177701
 30
0.0
 11
2211.249696826
 21
819.2059425511
 31
0.0
  0
LINE
  5
500
330
1F
100
AcDbEntity
  8
0
  6
Continuous
 62
     7
370
    15
100
AcDbLine
 10
2213.9501995671
 20
818.4720037709
 30
0.0
 11
2239.1088676589
 21
811.6344168686
 31
0.0
  0
LINE
  5
501
330
1F
100
AcDbEntity
  8
0
  6
Continuous
 62
     7
370
    15
100
AcDbLine
 10
2241.8093703999
 20
810.9004780883
 30
0.0
 11
2266.9680384917
 21
804.062891186
 31
0.0
  0
LINE
  5
502
330
1F
100
AcDbEntity
  8
0
  6
Continuous
 62
     7
370
    15
100
AcDbLine
 10
2269.6685412327
 20
803.3289524058
 30
0.0
 11
2294.8272093246
 21
796.4913655035
 31
0.0
  0
LINE
  5
503
330
1F
100
AcDbEntity
  8
0
  6
Continuous
 62
     7
370
    15
100
AcDbLine
 10
2297.5277120656
 20
795.7574267232
 30
0.0
 11
2322.6863801574
 21
788.9198398209
 31
0.0
  0
LINE
  5
504
330
1F
100
AcDbEntity
  8
0
  6
Continuous
 62
     7
370
    15
100
AcDbLine
 10
2325.3868828984
 20
788.1859010407
 30
0.0
 11
2350.5455509902
 21
781.3483141384
 31
0.0
  0
ARC
  5
505
330
1F
100
AcDbEntity
  8
0
  6
Continuous
 62
     7
370
    15
100
AcDbCircle
 10
2163.9041852058
 20
754.2103932866
 30
0.0
 40
11.68460552330492
100
AcDbArc
 50
334.8235914003
 51
12.0188393783
  0
ENDSEC
  0
SECTION
  2
OBJECTS
  0
DICTIONARY
  5
C
330
0
100
AcDbDictionary
281
     1
  3
ACAD_GROUP
350
D
  3
ACAD_LAYOUT
350
1A
  3
ACAD_MLINESTYLE
350
17
  3
ACAD_PLOTSETTINGS
350
19
  3
ACAD_PLOTSTYLENAME
350
E
  3
ACAD_SCALELIST
350
47
  0
DICTIONARY
  5
D
102
{ACAD_REACTORS
330
C
102
}
330
C
100
AcDbDictionary
281
     1
  0
DICTIONARY
  5
1A
102
{ACAD_REACTORS
330
C
102
}
330
C
100
AcDbDictionary
281
     1
  3
Layout1
350
1E
  3
Layout2
350
26
  3
Model
350
22
  0
DICTIONARY
  5
17
102
{ACAD_REACTORS
330
C
102
}
330
C
100
AcDbDictionary
281
     1
  3
Standard
350
18
  0
DICTIONARY
  5
19
102
{ACAD_REACTORS
330
C
102
}
330
C
100
AcDbDictionary
281
     1
  0
ACDBDICTIONARYWDFLT
  5
E
102
{ACAD_REACTORS
330
C
102
}
330
C
100
AcDbDictionary
281
     1
  3
Normal
350
F
100
AcDbDictionaryWithDefault
340
F
  0
DICTIONARY
  5
47
102
{ACAD_REACTORS
330
C
102
}
330
C
100
AcDbDictionary
281
     1
  3
A0
350
48
  3
A1
350
49
  3
A2
350
4A
  3
A3
350
4B
  3
A4
350
4C
  3
A5
350
4D
  3
A6
350
4E
  3
A7
350
4F
  3
A8
350
50
  3
A9
350
51
  3
B0
350
52
  3
B1
350
53
  3
B2
350
54
  3
B3
350
55
  3
B4
350
56
  3
B5
350
57
  3
B6
350
58
  3
B7
350
59
  3
B8
350
5A
  3
B9
350
5B
  3
C0
350
5C
  3
C1
350
5D
  3
C2
350
5E
  3
C3
350
5F
  3
C4
350
60
  3
C5
350
61
  3
C6
350
62
  3
C7
350
63
  3
C8
350
64
  3
C9
350
65
  3
D0
350
66
  3
D1
350
67
  3
D2
350
68
  0
LAYOUT
  5
1E
102
{ACAD_REACTORS
330
1A
102
}
330
1A
100
AcDbPlotSettings
  1

  2
none_device
  4

  6

 40
0.0
 41
0.0
 42
0.0
 43
0.0
 44
0.0
 45
0.0
 46
0.0
 47
0.0
 48
0.0
 49
0.0
140
0.0
141
0.0
142
1.0
143
1.0
 70
   688
 72
     1
 73
     0
 74
     5
  7

 75
    16
147
1.0
148
0.0
149
0.0
100
AcDbLayout
  1
Layout1
 70
     1
 71
     1
 10
0.0
 20
0.0
 11
420.0
 21
297.0
 12
0.0
 22
0.0
 32
0.0
 14
1.0000000000E+20
 24
1.0000000000E+20
 34
1.0000000000E+20
 15
-1.0000000000E+20
 25
-1.0000000000E+20
 35
-1.0000000000E+20
146
0.0
 13
0.0
 23
0.0
 33
0.0
 16
1.0
 26
0.0
 36
0.0
 17
0.0
 27
1.0
 37
0.0
 76
     0
330
1B
  0
LAYOUT
  5
26
102
{ACAD_REACTORS
330
1A
102
}
330
1A
100
AcDbPlotSettings
  1

  2
none_device
  4

  6

 40
0.0
 41
0.0
 42
0.0
 43
0.0
 44
0.0
 45
0.0
 46
0.0
 47
0.0
 48
0.0
 49
0.0
140
0.0
141
0.0
142
1.0
143
1.0
 70
   688
 72
     1
 73
     0
 74
     5
  7

 75
    16
147
1.0
148
0.0
149
0.0
100
AcDbLayout
  1
Layout2
 70
     1
 71
     2
 10
0.0
 20
0.0
 11
0.0
 21
0.0
 12
0.0
 22
0.0
 32
0.0
 14
0.0
 24
0.0
 34
0.0
 15
0.0
 25
0.0
 35
0.0
146
0.0
 13
0.0
 23
0.0
 33
0.0
 16
1.0
 26
0.0
 36
0.0
 17
0.0
 27
1.0
 37
0.0
 76
     0
330
23
  0
LAYOUT
  5
22
102
{ACAD_REACTORS
330
1A
102
}
330
1A
100
AcDbPlotSettings
  1

  2
none_device
  4
Letter_(8.50_x_11.00_Inches)
  6

 40
6.35
 41
6.35
 42
6.35000508
 43
6.35000508
 44
215.9
 45
279.4
 46
0.0
 47
0.0
 48
0.0
 49
0.0
140
0.0
141
0.0
142
1.0
143
1.0
 70
  1712
 72
     1
 73
     0
 74
     0
  7

 75
     0
147
1.0
148
0.0
149
0.0
100
AcDbLayout
  1
Model
 70
     1
 71
     0
 10
0.0
 20
0.0
 11
2970.0
 21
2100.0
 12
0.0
 22
0.0
 32
0.0
 14
0.0
 24
0.0
 34
0.0
 15
2970.0
 25
2100.0
 35
0.0
146
0.0
 13
0.0
 23
0.0
 33
0.0
 16
1.0
 26
0.0
 36
0.0
 17
0.0
 27
1.0
 37
0.0
 76
     0
330
1F
331
29
  0
MLINESTYLE
  5
18
102
{ACAD_REACTORS
330
17
102
}
330
17
100
AcDbMlineStyle
  2
Standard
 70
     0
  3

 62
   256
 51
90.0
 52
90.0
 71
     2
 49
0.5
 62
   256
  6
BYLAYER
 49
-0.5
 62
   256
  6
BYLAYER
  0
ACDBPLACEHOLDER
  5
F
102
{ACAD_REACTORS
330
E
102
}
330
E
  0
SCALE
  5
48
102
{ACAD_REACTORS
330
47
102
}
330
47
100
AcDbScale
 70
     0
300
1:1
140
1.0
141
1.0
290
     1
  0
SCALE
  5
49
102
{ACAD_REACTORS
330
47
102
}
330
47
100
AcDbScale
 70
     0
300
1:2
140
1.0
141
2.0
290
     0
  0
SCALE
  5
4A
102
{ACAD_REACTORS
330
47
102
}
330
47
100
AcDbScale
 70
     0
300
1:4
140
1.0
141
4.0
290
     0
  0
SCALE
  5
4B
102
{ACAD_REACTORS
330
47
102
}
330
47
100
AcDbScale
 70
     0
300
1:5
140
1.0
141
5.0
290
     0
  0
SCALE
  5
4C
102
{ACAD_REACTORS
330
47
102
}
330
47
100
AcDbScale
 70
     0
300
1:8
140
1.0
141
8.0
290
     0
  0
SCALE
  5
4D
102
{ACAD_REACTORS
330
47
102
}
330
47
100
AcDbScale
 70
     0
300
1:10
140
1.0
141
10.0
290
     0
  0
SCALE
  5
4E
102
{ACAD_REACTORS
330
47
102
}
330
47
100
AcDbScale
 70
     0
300
1:16
140
1.0
141
16.0
290
     0
  0
SCALE
  5
4F
102
{ACAD_REACTORS
330
47
102
}
330
47
100
AcDbScale
 70
     0
300
1:20
140
1.0
141
20.0
290
     0
  0
SCALE
  5
50
102
{ACAD_REACTORS
330
47
102
}
330
47
100
AcDbScale
 70
     0
300
1:30
140
1.0
141
30.0
290
     0
  0
SCALE
  5
51
102
{ACAD_REACTORS
330
47
102
}
330
47
100
AcDbScale
 70
     0
300
1:40
140
1.0
141
40.0
290
     0
  0
SCALE
  5
52
102
{ACAD_REACTORS
330
47
102
}
330
47
100
AcDbScale
 70
     0
300
1:50
140
1.0
141
50.0
290
     0
  0
SCALE
  5
53
102
{ACAD_REACTORS
330
47
102
}
330
47
100
AcDbScale
 70
     0
300
1:100
140
1.0
141
100.0
290
     0
  0
SCALE
  5
54
102
{ACAD_REACTORS
330
47
102
}
330
47
100
AcDbScale
 70
     0
300
2:1
140
2.0
141
1.0
290
     0
  0
SCALE
  5
55
102
{ACAD_REACTORS
330
47
102
}
330
47
100
AcDbScale
 70
     0
300
4:1
140
4.0
141
1.0
290
     0
  0
SCALE
  5
56
102
{ACAD_REACTORS
330
47
102
}
330
47
100
AcDbScale
 70
     0
300
8:1
140
8.0
141
1.0
290
     0
  0
SCALE
  5
57
102
{ACAD_REACTORS
330
47
102
}
330
47
100
AcDbScale
 70
     0
300
10:1
140
10.0
141
1.0
290
     0
  0
SCALE
  5
58
102
{ACAD_REACTORS
330
47
102
}
330
47
100
AcDbScale
 70
     0
300
100:1
140
100.0
141
1.0
290
     0
  0
SCALE
  5
59
102
{ACAD_REACTORS
330
47
102
}
330
47
100
AcDbScale
 70
     0
300
1/128" = 1'-0"
140
0.0078125
141
12.0
290
     0
  0
SCALE
  5
5A
102
{ACAD_REACTORS
330
47
102
}
330
47
100
AcDbScale
 70
     0
300
1/64" = 1'-0"
140
0.015625
141
12.0
290
     0
  0
SCALE
  5
5B
102
{ACAD_REACTORS
330
47
102
}
330
47
100
AcDbScale
 70
     0
300
1/32" = 1'-0"
140
0.03125
141
12.0
290
     0
  0
SCALE
  5
5C
102
{ACAD_REACTORS
330
47
102
}
330
47
100
AcDbScale
 70
     0
300
1/16" = 1'-0"
140
0.0625
141
12.0
290
     0
  0
SCALE
  5
5D
102
{ACAD_REACTORS
330
47
102
}
330
47
100
AcDbScale
 70
     0
300
3/32" = 1'-0"
140
0.09375
141
12.0
290
     0
  0
SCALE
  5
5E
102
{ACAD_REACTORS
330
47
102
}
330
47
100
AcDbScale
 70
     0
300
1/8" = 1'-0"
140
0.125
141
12.0
290
     0
  0
SCALE
  5
5F
102
{ACAD_REACTORS
330
47
102
}
330
47
100
AcDbScale
 70
     0
300
3/16" = 1'-0"
140
0.1875
141
12.0
290
     0
  0
SCALE
  5
60
102
{ACAD_REACTORS
330
47
102
}
330
47
100
AcDbScale
 70
     0
300
1/4" = 1'-0"
140
0.25
141
12.0
290
     0
  0
SCALE
  5
61
102
{ACAD_REACTORS
330
47
102
}
330
47
100
AcDbScale
 70
     0
300
3/8" = 1'-0"
140
0.375
141
12.0
290
     0
  0
SCALE
  5
62
102
{ACAD_REACTORS
330
47
102
}
330
47
100
AcDbScale
 70
     0
300
1/2" = 1'-0"
140
0.5
141
12.0
290
     0
  0
SCALE
  5
63
102
{ACAD_REACTORS
330
47
102
}
330
47
100
AcDbScale
 70
     0
300
3/4" = 1'-0"
140
0.75
141
12.0
290
     0
  0
SCALE
  5
64
102
{ACAD_REACTORS
330
47
102
}
330
47
100
AcDbScale
 70
     0
300
1" = 1'-0"
140
1.0
141
12.0
290
     0
  0
SCALE
  5
65
102
{ACAD_REACTORS
330
47
102
}
330
47
100
AcDbScale
 70
     0
300
1-1/2" = 1'-0"
140
1.5
141
12.0
290
     0
  0
SCALE
  5
66
102
{ACAD_REACTORS
330
47
102
}
330
47
100
AcDbScale
 70
     0
300
3" = 1'-0"
140
3.0
141
12.0
290
     0
  0
SCALE
  5
67
102
{ACAD_REACTORS
330
47
102
}
330
47
100
AcDbScale
 70
     0
300
6" = 1'-0"
140
6.0
141
12.0
290
     0
  0
SCALE
  5
68
102
{ACAD_REACTORS
330
47
102
}
330
47
100
AcDbScale
 70
     0
300
1'-0" = 1'-0"
140
12.0
141
12.0
290
     0
  0
ENDSEC
  0
EOF
