ISO-10303-21;
HEADER;
FILE_DESCRIPTION (( 'STEP AP203' ),
    '1' );
FILE_NAME ('100053320.step',
    '2021-04-26T12:00:27',
    ( '' ),
    ( '' ),
    'SwSTEP 2.0',
    'SolidWorks 2018',
    '' );
FILE_SCHEMA (( 'CONFIG_CONTROL_DESIGN' ));
ENDSEC;

DATA;
#1 = APPROVAL_ROLE ( '' ) ;
#2 = CARTESIAN_POINT ( 'NONE',  ( 0.000000000000000000, 1.836970198721028208E-16, 0.000000000000000000 ) ) ;
#3 = ADVANCED_FACE ( 'NONE', ( #122 ), #172, .T. ) ;
#4 = AXIS2_PLACEMENT_3D ( 'NONE', #27, #67, #91 ) ;
#5 = DIRECTION ( 'NONE',  ( -0.000000000000000000, -1.000000000000000000, -0.000000000000000000 ) ) ;
#6 = APPROVAL_DATE_TIME ( #268, #103 ) ;
#7 = TOROIDAL_SURFACE ( 'NONE', #51, 14.00000000000000355, 1.499999999999998668 ) ;
#8 = APPLICATION_CONTEXT ( 'configuration controlled 3d designs of mechanical parts and assemblies' ) ;
#9 = APPLICATION_PROTOCOL_DEFINITION ( 'international standard', 'config_control_design', 1994, #72 ) ;
#10 = DATE_AND_TIME ( #14, #141 ) ;
#11 = COORDINATED_UNIVERSAL_TIME_OFFSET ( 1, 0, .AHEAD. ) ;
#12 = CIRCLE ( 'NONE', #4, 1.499999999999999556 ) ;
#13 = PERSON_AND_ORGANIZATION_ROLE ( 'creator' ) ;
#14 = CALENDAR_DATE ( 2021, 26, 4 ) ;
#15 = DATE_AND_TIME ( #251, #63 ) ;
#16 = CALENDAR_DATE ( 2021, 26, 4 ) ;
#17 = APPROVAL_PERSON_ORGANIZATION ( #74, #64, #53 ) ;
#18 = EDGE_LOOP ( 'NONE', ( #184, #230, #227, #24 ) ) ;
#19 = EDGE_CURVE ( 'NONE', #87, #204, #124, .T. ) ;
#20 = PERSON_AND_ORGANIZATION ( #35, #159 ) ;
#21 = APPROVAL_STATUS ( 'not_yet_approved' ) ;
#22 = PERSON_AND_ORGANIZATION ( #35, #159 ) ;
#23 = AXIS2_PLACEMENT_3D ( 'NONE', #117, #259, #200 ) ;
#24 = ORIENTED_EDGE ( 'NONE', *, *, #34, .F. ) ;
#25 = DIRECTION ( 'NONE',  ( -0.000000000000000000, -1.000000000000000000, -0.000000000000000000 ) ) ;
#26 = CARTESIAN_POINT ( 'NONE',  ( 0.000000000000000000, 0.000000000000000000, 0.000000000000000000 ) ) ;
#27 = CARTESIAN_POINT ( 'NONE',  ( 0.000000000000000000, 0.000000000000000000, -14.00000000000000355 ) ) ;
#28 = PRODUCT_DEFINITION ( 'UNKNOWN', '', #181, #41 ) ;
#29 = DATE_TIME_ROLE ( 'creation_date' ) ;
#30 = COORDINATED_UNIVERSAL_TIME_OFFSET ( 1, 0, .AHEAD. ) ;
#31 = SHAPE_DEFINITION_REPRESENTATION ( #214, #151 ) ;
#32 = VERTEX_POINT ( 'NONE', #58 ) ;
#33 = PERSON_AND_ORGANIZATION ( #35, #159 ) ;
#34 = EDGE_CURVE ( 'NONE', #204, #32, #168, .T. ) ;
#35 = PERSON ( 'UNSPECIFIED', 'UNSPECIFIED', 'UNSPECIFIED', ('UNSPECIFIED'), ('UNSPECIFIED'), ('UNSPECIFIED') ) ;
#36 = PRODUCT ( '100053320', '100053320', '', ( #102 ) ) ;
#37 = APPLICATION_PROTOCOL_DEFINITION ( 'international standard', 'config_control_design', 1994, #167 ) ;
#38 = EDGE_CURVE ( 'NONE', #32, #160, #12, .T. ) ;
#39 = CALENDAR_DATE ( 2021, 26, 4 ) ;
#40 = ORIENTED_EDGE ( 'NONE', *, *, #193, .T. ) ;
#41 = DESIGN_CONTEXT ( 'detailed design', #167, 'design' ) ;
#42 = APPROVAL_ROLE ( '' ) ;
#43 =( LENGTH_UNIT ( ) NAMED_UNIT ( * ) SI_UNIT ( .MILLI., .METRE. ) );
#44 = PERSON_AND_ORGANIZATION_ROLE ( 'creator' ) ;
#45 = LOCAL_TIME ( 14, 0, 27.00000000000000000, #104 ) ;
#46 = DIRECTION ( 'NONE',  ( -1.000000000000000000, 0.000000000000000000, 0.000000000000000000 ) ) ;
#47 = CIRCLE ( 'NONE', #206, 15.50000000000000355 ) ;
#48 = CARTESIAN_POINT ( 'NONE',  ( 0.000000000000000000, 0.000000000000000000, 0.000000000000000000 ) ) ;
#49 = DIRECTION ( 'NONE',  ( 1.000000000000000000, 0.000000000000000000, -1.224646799147353207E-16 ) ) ;
#50 = MANIFOLD_SOLID_BREP ( 'Austragung1', #101 ) ;
#51 = AXIS2_PLACEMENT_3D ( 'NONE', #26, #270, #109 ) ;
#52 = CC_DESIGN_PERSON_AND_ORGANIZATION_ASSIGNMENT ( #100, #179, ( #236 ) ) ;
#53 = APPROVAL_ROLE ( '' ) ;
#54 = PERSON_AND_ORGANIZATION ( #35, #159 ) ;
#55 = CIRCLE ( 'NONE', #254, 1.499999999999999556 ) ;
#56 = ORIENTED_EDGE ( 'NONE', *, *, #171, .T. ) ;
#57 = FACE_OUTER_BOUND ( 'NONE', #116, .T. ) ;
#58 = CARTESIAN_POINT ( 'NONE',  ( 0.000000000000000000, 0.000000000000000000, -12.50000000000000355 ) ) ;
#59 = APPROVAL_PERSON_ORGANIZATION ( #77, #103, #105 ) ;
#60 = DIRECTION ( 'NONE',  ( 0.000000000000000000, 0.000000000000000000, -1.000000000000000000 ) ) ;
#61 = CARTESIAN_POINT ( 'NONE',  ( 0.000000000000000000, 0.000000000000000000, 0.000000000000000000 ) ) ;
#62 = SECURITY_CLASSIFICATION_LEVEL ( 'unclassified' ) ;
#63 = LOCAL_TIME ( 14, 0, 27.00000000000000000, #123 ) ;
#64 = APPROVAL ( #176, 'UNSPECIFIED' ) ;
#65 = ORIENTED_EDGE ( 'NONE', *, *, #38, .F. ) ;
#66 = DIRECTION ( 'NONE',  ( 0.000000000000000000, 0.000000000000000000, -1.000000000000000000 ) ) ;
#67 = DIRECTION ( 'NONE',  ( -1.000000000000000000, 0.000000000000000000, 0.000000000000000000 ) ) ;
#68 = ADVANCED_FACE ( 'NONE', ( #57 ), #7, .T. ) ;
#69 = COORDINATED_UNIVERSAL_TIME_OFFSET ( 1, 0, .AHEAD. ) ;
#70 = DIRECTION ( 'NONE',  ( 0.000000000000000000, 0.000000000000000000, -1.000000000000000000 ) ) ;
#71 = CC_DESIGN_DATE_AND_TIME_ASSIGNMENT ( #79, #256, ( #266 ) ) ;
#72 = APPLICATION_CONTEXT ( 'configuration controlled 3d designs of mechanical parts and assemblies' ) ;
#73 = LOCAL_TIME ( 14, 0, 27.00000000000000000, #144 ) ;
#74 = PERSON_AND_ORGANIZATION ( #35, #159 ) ;
#75 = ORIENTED_EDGE ( 'NONE', *, *, #156, .F. ) ;
#76 = CC_DESIGN_DATE_AND_TIME_ASSIGNMENT ( #115, #128, ( #28 ) ) ;
#77 = PERSON_AND_ORGANIZATION ( #35, #159 ) ;
#78 = CALENDAR_DATE ( 2021, 26, 4 ) ;
#79 = DATE_AND_TIME ( #39, #161 ) ;
#80 = TOROIDAL_SURFACE ( 'NONE', #198, 14.00000000000000355, 1.499999999999998668 ) ;
#81 =( GEOMETRIC_REPRESENTATION_CONTEXT ( 3 ) GLOBAL_UNCERTAINTY_ASSIGNED_CONTEXT ( ( #196 ) ) GLOBAL_UNIT_ASSIGNED_CONTEXT ( ( #43, #255, #191 ) ) REPRESENTATION_CONTEXT ( 'NONE', 'WORKASPACE' ) );
#82 = EDGE_CURVE ( 'NONE', #87, #160, #47, .T. ) ;
#83 = COORDINATED_UNIVERSAL_TIME_OFFSET ( 1, 0, .AHEAD. ) ;
#84 = LOCAL_TIME ( 14, 0, 27.00000000000000000, #11 ) ;
#85 = APPROVAL ( #21, 'UNSPECIFIED' ) ;
#86 = DIRECTION ( 'NONE',  ( -0.000000000000000000, -1.000000000000000000, -0.000000000000000000 ) ) ;
#87 = VERTEX_POINT ( 'NONE', #93 ) ;
#88 = DIRECTION ( 'NONE',  ( 0.000000000000000000, 0.000000000000000000, 1.000000000000000000 ) ) ;
#89 = COORDINATED_UNIVERSAL_TIME_OFFSET ( 1, 0, .AHEAD. ) ;
#90 = PRODUCT_RELATED_PRODUCT_CATEGORY ( 'detail', '', ( #147 ) ) ;
#91 = DIRECTION ( 'NONE',  ( 0.000000000000000000, 0.000000000000000000, 1.000000000000000000 ) ) ;
#92 = CC_DESIGN_PERSON_AND_ORGANIZATION_ASSIGNMENT ( #33, #44, ( #181 ) ) ;
#93 = CARTESIAN_POINT ( 'NONE',  ( 1.898202538678397952E-15, 0.000000000000000000, 15.50000000000000355 ) ) ;
#94 = CC_DESIGN_APPROVAL ( #85, ( #181 ) ) ;
#95 = PERSON_AND_ORGANIZATION ( #35, #159 ) ;
#96 = CC_DESIGN_PERSON_AND_ORGANIZATION_ASSIGNMENT ( #178, #205, ( #36 ) ) ;
#97 = APPLICATION_CONTEXT ( 'configuration controlled 3d designs of mechanical parts and assemblies' ) ;
#98 = COORDINATED_UNIVERSAL_TIME_OFFSET ( 1, 0, .AHEAD. ) ;
#99 = PERSON_AND_ORGANIZATION_ROLE ( 'design_supplier' ) ;
#100 = PERSON_AND_ORGANIZATION ( #35, #159 ) ;
#101 = CLOSED_SHELL ( 'NONE', ( #194, #3, #68, #113 ) ) ;
#102 = MECHANICAL_CONTEXT ( 'NONE', #97, 'mechanical' ) ;
#103 = APPROVAL ( #207, 'UNSPECIFIED' ) ;
#104 = COORDINATED_UNIVERSAL_TIME_OFFSET ( 1, 0, .AHEAD. ) ;
#105 = APPROVAL_ROLE ( '' ) ;
#106 = ORIENTED_EDGE ( 'NONE', *, *, #209, .F. ) ;
#107 = ORIENTED_EDGE ( 'NONE', *, *, #38, .T. ) ;
#108 = AXIS2_PLACEMENT_3D ( 'NONE', #61, #88, #220 ) ;
#109 = DIRECTION ( 'NONE',  ( 0.000000000000000000, 0.000000000000000000, -1.000000000000000000 ) ) ;
#110 = CC_DESIGN_PERSON_AND_ORGANIZATION_ASSIGNMENT ( #95, #13, ( #219 ) ) ;
#111 = DIRECTION ( 'NONE',  ( -1.224646799147352221E-16, 0.000000000000000000, -1.000000000000000000 ) ) ;
#112 = PERSON_AND_ORGANIZATION ( #35, #159 ) ;
#113 = ADVANCED_FACE ( 'NONE', ( #162 ), #265, .T. ) ;
#114 = CARTESIAN_POINT ( 'NONE',  ( 0.000000000000000000, 0.000000000000000000, -15.50000000000000355 ) ) ;
#115 = DATE_AND_TIME ( #16, #73 ) ;
#116 = EDGE_LOOP ( 'NONE', ( #106, #65, #40, #56 ) ) ;
#117 = CARTESIAN_POINT ( 'NONE',  ( 0.000000000000000000, 0.000000000000000000, 0.000000000000000000 ) ) ;
#118 = ORIENTED_EDGE ( 'NONE', *, *, #82, .F. ) ;
#119 = CC_DESIGN_APPROVAL ( #103, ( #28 ) ) ;
#120 = APPROVAL ( #134, 'UNSPECIFIED' ) ;
#121 = CALENDAR_DATE ( 2021, 26, 4 ) ;
#122 = FACE_OUTER_BOUND ( 'NONE', #233, .T. ) ;
#123 = COORDINATED_UNIVERSAL_TIME_OFFSET ( 1, 0, .AHEAD. ) ;
#124 = CIRCLE ( 'NONE', #237, 1.499999999999999556 ) ;
#125 = CC_DESIGN_PERSON_AND_ORGANIZATION_ASSIGNMENT ( #253, #99, ( #219 ) ) ;
#126 = APPLICATION_PROTOCOL_DEFINITION ( 'international standard', 'config_control_design', 1994, #97 ) ;
#127 = DATE_AND_TIME ( #78, #84 ) ;
#128 = DATE_TIME_ROLE ( 'creation_date' ) ;
#129 = CC_DESIGN_PERSON_AND_ORGANIZATION_ASSIGNMENT ( #225, #190, ( #181 ) ) ;
#130 = APPROVAL_PERSON_ORGANIZATION ( #241, #120, #1 ) ;
#131 = DATE_AND_TIME ( #244, #149 ) ;
#132 = ORIENTED_EDGE ( 'NONE', *, *, #34, .T. ) ;
#133 = CARTESIAN_POINT ( 'NONE',  ( 0.000000000000000000, 0.000000000000000000, 0.000000000000000000 ) ) ;
#134 = APPROVAL_STATUS ( 'not_yet_approved' ) ;
#135 = CC_DESIGN_PERSON_AND_ORGANIZATION_ASSIGNMENT ( #54, #153, ( #28 ) ) ;
#136 = CARTESIAN_POINT ( 'NONE',  ( 0.000000000000000000, 0.000000000000000000, -14.00000000000000355 ) ) ;
#137 = CARTESIAN_POINT ( 'NONE',  ( 0.000000000000000000, 0.000000000000000000, 0.000000000000000000 ) ) ;
#138 = CC_DESIGN_PERSON_AND_ORGANIZATION_ASSIGNMENT ( #20, #213, ( #266 ) ) ;
#139 = APPROVAL_PERSON_ORGANIZATION ( #203, #260, #221 ) ;
#140 = PERSON_AND_ORGANIZATION_ROLE ( 'design_owner' ) ;
#141 = LOCAL_TIME ( 14, 0, 27.00000000000000000, #89 ) ;
#142 = AXIS2_PLACEMENT_3D ( 'NONE', #133, #212, #215 ) ;
#143 = APPROVAL_STATUS ( 'not_yet_approved' ) ;
#144 = COORDINATED_UNIVERSAL_TIME_OFFSET ( 1, 0, .AHEAD. ) ;
#145 = PRODUCT_DEFINITION_SHAPE ( 'NONE', 'NONE',  #236 ) ;
#146 = FACE_OUTER_BOUND ( 'NONE', #18, .T. ) ;
#147 = PRODUCT ( '100053320', '100053320', '', ( #262 ) ) ;
#148 = CC_DESIGN_APPROVAL ( #260, ( #236 ) ) ;
#149 = LOCAL_TIME ( 14, 0, 27.00000000000000000, #242 ) ;
#150 = APPROVAL ( #169, 'UNSPECIFIED' ) ;
#151 = ADVANCED_BREP_SHAPE_REPRESENTATION ( '100053320', ( #50, #108 ), #81 ) ;
#152 = DIRECTION ( 'NONE',  ( -1.224646799147352221E-16, 0.000000000000000000, -1.000000000000000000 ) ) ;
#153 = PERSON_AND_ORGANIZATION_ROLE ( 'creator' ) ;
#154 = DIRECTION ( 'NONE',  ( 0.000000000000000000, 0.000000000000000000, 1.000000000000000000 ) ) ;
#155 = PERSON_AND_ORGANIZATION ( #35, #159 ) ;
#156 = EDGE_CURVE ( 'NONE', #160, #32, #210, .T. ) ;
#157 = DESIGN_CONTEXT ( 'detailed design', #8, 'design' ) ;
#158 = APPLICATION_PROTOCOL_DEFINITION ( 'international standard', 'config_control_design', 1994, #8 ) ;
#159 = ORGANIZATION ( 'UNSPECIFIED', 'UNSPECIFIED', '' ) ;
#160 = VERTEX_POINT ( 'NONE', #114 ) ;
#161 = LOCAL_TIME ( 14, 0, 27.00000000000000000, #30 ) ;
#162 = FACE_OUTER_BOUND ( 'NONE', #224, .T. ) ;
#163 = CC_DESIGN_APPROVAL ( #120, ( #266 ) ) ;
#164 = APPROVAL_ROLE ( '' ) ;
#165 = AXIS2_PLACEMENT_3D ( 'NONE', #235, #192, #218 ) ;
#166 = APPROVAL_DATE_TIME ( #222, #150 ) ;
#167 = APPLICATION_CONTEXT ( 'configuration controlled 3d designs of mechanical parts and assemblies' ) ;
#168 = CIRCLE ( 'NONE', #267, 12.50000000000000355 ) ;
#169 = APPROVAL_STATUS ( 'not_yet_approved' ) ;
#170 = CARTESIAN_POINT ( 'NONE',  ( 1.714505518806294835E-15, 0.000000000000000000, 14.00000000000000355 ) ) ;
#171 = EDGE_CURVE ( 'NONE', #204, #87, #55, .T. ) ;
#172 = TOROIDAL_SURFACE ( 'NONE', #250, 14.00000000000000355, 1.499999999999998668 ) ;
#173 = CARTESIAN_POINT ( 'NONE',  ( 1.530808498934192113E-15, 0.000000000000000000, 12.50000000000000355 ) ) ;
#174 = PRODUCT_RELATED_PRODUCT_CATEGORY ( 'detail', '', ( #36 ) ) ;
#175 = CALENDAR_DATE ( 2021, 26, 4 ) ;
#176 = APPROVAL_STATUS ( 'not_yet_approved' ) ;
#177 = CALENDAR_DATE ( 2021, 26, 4 ) ;
#178 = PERSON_AND_ORGANIZATION ( #35, #159 ) ;
#179 = PERSON_AND_ORGANIZATION_ROLE ( 'creator' ) ;
#180 = APPROVAL_DATE_TIME ( #187, #85 ) ;
#181 = PRODUCT_DEFINITION_FORMATION_WITH_SPECIFIED_SOURCE ( 'ANY', '', #36, .NOT_KNOWN. ) ;
#182 = CIRCLE ( 'NONE', #234, 15.50000000000000355 ) ;
#183 = LOCAL_TIME ( 14, 0, 27.00000000000000000, #83 ) ;
#184 = ORIENTED_EDGE ( 'NONE', *, *, #19, .F. ) ;
#185 = CALENDAR_DATE ( 2021, 26, 4 ) ;
#186 = CARTESIAN_POINT ( 'NONE',  ( 0.000000000000000000, 0.000000000000000000, 0.000000000000000000 ) ) ;
#187 = DATE_AND_TIME ( #185, #183 ) ;
#188 = APPROVAL_DATE_TIME ( #131, #260 ) ;
#189 = DIRECTION ( 'NONE',  ( 0.000000000000000000, 0.000000000000000000, -1.000000000000000000 ) ) ;
#190 = PERSON_AND_ORGANIZATION_ROLE ( 'design_supplier' ) ;
#191 =( NAMED_UNIT ( * ) SI_UNIT ( $, .STERADIAN. ) SOLID_ANGLE_UNIT ( ) );
#192 = DIRECTION ( 'NONE',  ( -0.000000000000000000, -1.000000000000000000, -0.000000000000000000 ) ) ;
#193 = EDGE_CURVE ( 'NONE', #32, #204, #269, .T. ) ;
#194 = ADVANCED_FACE ( 'NONE', ( #146 ), #80, .T. ) ;
#195 = APPROVAL_DATE_TIME ( #15, #64 ) ;
#196 = UNCERTAINTY_MEASURE_WITH_UNIT (LENGTH_MEASURE( 1.000000000000000082E-05 ), #43, 'distance_accuracy_value', 'NONE');
#197 = CC_DESIGN_SECURITY_CLASSIFICATION ( #266, ( #181 ) ) ;
#198 = AXIS2_PLACEMENT_3D ( 'NONE', #137, #25, #217 ) ;
#199 = CC_DESIGN_DATE_AND_TIME_ASSIGNMENT ( #127, #29, ( #236 ) ) ;
#200 = DIRECTION ( 'NONE',  ( 1.000000000000000000, 0.000000000000000000, 0.000000000000000000 ) ) ;
#201 = ORIENTED_EDGE ( 'NONE', *, *, #171, .F. ) ;
#202 = SECURITY_CLASSIFICATION_LEVEL ( 'unclassified' ) ;
#203 = PERSON_AND_ORGANIZATION ( #35, #159 ) ;
#204 = VERTEX_POINT ( 'NONE', #173 ) ;
#205 = PERSON_AND_ORGANIZATION_ROLE ( 'design_owner' ) ;
#206 = AXIS2_PLACEMENT_3D ( 'NONE', #48, #238, #66 ) ;
#207 = APPROVAL_STATUS ( 'not_yet_approved' ) ;
#208 = CC_DESIGN_APPROVAL ( #150, ( #245 ) ) ;
#209 = EDGE_CURVE ( 'NONE', #160, #87, #182, .T. ) ;
#210 = CIRCLE ( 'NONE', #223, 1.499999999999999556 ) ;
#211 = CC_DESIGN_APPROVAL ( #64, ( #219 ) ) ;
#212 = DIRECTION ( 'NONE',  ( -0.000000000000000000, -1.000000000000000000, -0.000000000000000000 ) ) ;
#213 = PERSON_AND_ORGANIZATION_ROLE ( 'classification_officer' ) ;
#214 = PRODUCT_DEFINITION_SHAPE ( 'NONE', 'NONE',  #28 ) ;
#215 = DIRECTION ( 'NONE',  ( 0.000000000000000000, 0.000000000000000000, -1.000000000000000000 ) ) ;
#216 = APPROVAL_PERSON_ORGANIZATION ( #22, #85, #42 ) ;
#217 = DIRECTION ( 'NONE',  ( 0.000000000000000000, 0.000000000000000000, -1.000000000000000000 ) ) ;
#218 = DIRECTION ( 'NONE',  ( 0.000000000000000000, 0.000000000000000000, -1.000000000000000000 ) ) ;
#219 = PRODUCT_DEFINITION_FORMATION_WITH_SPECIFIED_SOURCE ( 'ANY', '', #147, .NOT_KNOWN. ) ;
#220 = DIRECTION ( 'NONE',  ( 1.000000000000000000, 0.000000000000000000, 0.000000000000000000 ) ) ;
#221 = APPROVAL_ROLE ( '' ) ;
#222 = DATE_AND_TIME ( #121, #232 ) ;
#223 = AXIS2_PLACEMENT_3D ( 'NONE', #136, #46, #154 ) ;
#224 = EDGE_LOOP ( 'NONE', ( #118, #201, #132, #107 ) ) ;
#225 = PERSON_AND_ORGANIZATION ( #35, #159 ) ;
#226 = DATE_TIME_ROLE ( 'classification_date' ) ;
#227 = ORIENTED_EDGE ( 'NONE', *, *, #156, .T. ) ;
#228 = LOCAL_TIME ( 14, 0, 27.00000000000000000, #69 ) ;
#229 = PERSON_AND_ORGANIZATION ( #35, #159 ) ;
#230 = ORIENTED_EDGE ( 'NONE', *, *, #82, .T. ) ;
#231 = CC_DESIGN_DATE_AND_TIME_ASSIGNMENT ( #10, #226, ( #245 ) ) ;
#232 = LOCAL_TIME ( 14, 0, 27.00000000000000000, #98 ) ;
#233 = EDGE_LOOP ( 'NONE', ( #75, #247, #261, #243 ) ) ;
#234 = AXIS2_PLACEMENT_3D ( 'NONE', #258, #5, #189 ) ;
#235 = CARTESIAN_POINT ( 'NONE',  ( 0.000000000000000000, 1.836970198721028208E-16, 0.000000000000000000 ) ) ;
#236 = PRODUCT_DEFINITION ( 'UNKNOWN', '', #219, #157 ) ;
#237 = AXIS2_PLACEMENT_3D ( 'NONE', #170, #252, #152 ) ;
#238 = DIRECTION ( 'NONE',  ( -0.000000000000000000, -1.000000000000000000, -0.000000000000000000 ) ) ;
#239 = DIRECTION ( 'NONE',  ( -0.000000000000000000, -1.000000000000000000, -0.000000000000000000 ) ) ;
#240 = CC_DESIGN_PERSON_AND_ORGANIZATION_ASSIGNMENT ( #229, #140, ( #147 ) ) ;
#241 = PERSON_AND_ORGANIZATION ( #35, #159 ) ;
#242 = COORDINATED_UNIVERSAL_TIME_OFFSET ( 1, 0, .AHEAD. ) ;
#243 = ORIENTED_EDGE ( 'NONE', *, *, #193, .F. ) ;
#244 = CALENDAR_DATE ( 2021, 26, 4 ) ;
#245 = SECURITY_CLASSIFICATION ( '', '', #202 ) ;
#246 = PERSON_AND_ORGANIZATION_ROLE ( 'classification_officer' ) ;
#247 = ORIENTED_EDGE ( 'NONE', *, *, #209, .T. ) ;
#248 = CC_DESIGN_SECURITY_CLASSIFICATION ( #245, ( #219 ) ) ;
#249 = APPROVAL_DATE_TIME ( #263, #120 ) ;
#250 = AXIS2_PLACEMENT_3D ( 'NONE', #186, #86, #60 ) ;
#251 = CALENDAR_DATE ( 2021, 26, 4 ) ;
#252 = DIRECTION ( 'NONE',  ( 1.000000000000000000, 0.000000000000000000, -1.224646799147353207E-16 ) ) ;
#253 = PERSON_AND_ORGANIZATION ( #35, #159 ) ;
#254 = AXIS2_PLACEMENT_3D ( 'NONE', #257, #49, #111 ) ;
#255 =( NAMED_UNIT ( * ) PLANE_ANGLE_UNIT ( ) SI_UNIT ( $, .RADIAN. ) );
#256 = DATE_TIME_ROLE ( 'classification_date' ) ;
#257 = CARTESIAN_POINT ( 'NONE',  ( 1.714505518806294835E-15, 0.000000000000000000, 14.00000000000000355 ) ) ;
#258 = CARTESIAN_POINT ( 'NONE',  ( 0.000000000000000000, 0.000000000000000000, 0.000000000000000000 ) ) ;
#259 = DIRECTION ( 'NONE',  ( 0.000000000000000000, 0.000000000000000000, 1.000000000000000000 ) ) ;
#260 = APPROVAL ( #143, 'UNSPECIFIED' ) ;
#261 = ORIENTED_EDGE ( 'NONE', *, *, #19, .T. ) ;
#262 = MECHANICAL_CONTEXT ( 'NONE', #72, 'mechanical' ) ;
#263 = DATE_AND_TIME ( #177, #45 ) ;
#264 = CC_DESIGN_PERSON_AND_ORGANIZATION_ASSIGNMENT ( #112, #246, ( #245 ) ) ;
#265 = TOROIDAL_SURFACE ( 'NONE', #142, 14.00000000000000355, 1.499999999999998668 ) ;
#266 = SECURITY_CLASSIFICATION ( '', '', #62 ) ;
#267 = AXIS2_PLACEMENT_3D ( 'NONE', #2, #239, #70 ) ;
#268 = DATE_AND_TIME ( #175, #228 ) ;
#269 = CIRCLE ( 'NONE', #165, 12.50000000000000355 ) ;
#270 = DIRECTION ( 'NONE',  ( -0.000000000000000000, -1.000000000000000000, -0.000000000000000000 ) ) ;
#271 = APPROVAL_PERSON_ORGANIZATION ( #155, #150, #164 ) ;
ENDSEC;
END-ISO-10303-21;
