ISO-10303-21;
HEADER;
FILE_DESCRIPTION (( 'STEP AP203' ),
    '1' );
FILE_NAME ('100053330.step',
    '2021-04-26T12:00:30',
    ( '' ),
    ( '' ),
    'SwSTEP 2.0',
    'SolidWorks 2018',
    '' );
FILE_SCHEMA (( 'CONFIG_CONTROL_DESIGN' ));
ENDSEC;

DATA;
#1 = APPLICATION_CONTEXT ( 'configuration controlled 3d designs of mechanical parts and assemblies' ) ;
#2 = CALENDAR_DATE ( 2021, 26, 4 ) ;
#3 = DIRECTION ( 'NONE',  ( -0.000000000000000000, -1.000000000000000000, -0.000000000000000000 ) ) ;
#4 = ORIENTED_EDGE ( 'NONE', *, *, #152, .F. ) ;
#5 = CARTESIAN_POINT ( 'NONE',  ( 0.000000000000000000, 0.000000000000000000, -18.00000000000000355 ) ) ;
#6 = DIRECTION ( 'NONE',  ( -0.000000000000000000, -1.000000000000000000, -0.000000000000000000 ) ) ;
#7 = DATE_AND_TIME ( #107, #270 ) ;
#8 = VERTEX_POINT ( 'NONE', #36 ) ;
#9 = CARTESIAN_POINT ( 'NONE',  ( 2.388061258337339333E-15, 0.000000000000000000, 19.50000000000000355 ) ) ;
#10 = MECHANICAL_CONTEXT ( 'NONE', #1, 'mechanical' ) ;
#11 = CALENDAR_DATE ( 2021, 26, 4 ) ;
#12 = AXIS2_PLACEMENT_3D ( 'NONE', #124, #241, #183 ) ;
#13 = ORIENTED_EDGE ( 'NONE', *, *, #226, .F. ) ;
#14 = PRODUCT_DEFINITION_SHAPE ( 'NONE', 'NONE',  #251 ) ;
#15 = APPLICATION_PROTOCOL_DEFINITION ( 'international standard', 'config_control_design', 1994, #256 ) ;
#16 = CIRCLE ( 'NONE', #178, 1.500000000000001332 ) ;
#17 = APPLICATION_CONTEXT ( 'configuration controlled 3d designs of mechanical parts and assemblies' ) ;
#18 = PRODUCT_DEFINITION ( 'UNKNOWN', '', #190, #88 ) ;
#19 = CALENDAR_DATE ( 2021, 26, 4 ) ;
#20 = DIRECTION ( 'NONE',  ( -0.000000000000000000, -1.000000000000000000, -0.000000000000000000 ) ) ;
#21 = DIRECTION ( 'NONE',  ( 1.000000000000000000, 0.000000000000000000, -1.224646799147353207E-16 ) ) ;
#22 = CC_DESIGN_PERSON_AND_ORGANIZATION_ASSIGNMENT ( #91, #41, ( #190 ) ) ;
#23 = PERSON_AND_ORGANIZATION_ROLE ( 'design_supplier' ) ;
#24 = COORDINATED_UNIVERSAL_TIME_OFFSET ( 1, 0, .AHEAD. ) ;
#25 = PRODUCT ( '100053330', '100053330', '', ( #56 ) ) ;
#26 = APPROVAL_PERSON_ORGANIZATION ( #179, #111, #266 ) ;
#27 = ADVANCED_FACE ( 'NONE', ( #30 ), #188, .T. ) ;
#28 = EDGE_LOOP ( 'NONE', ( #61, #34, #194, #50 ) ) ;
#29 = APPROVAL_STATUS ( 'not_yet_approved' ) ;
#30 = FACE_OUTER_BOUND ( 'NONE', #255, .T. ) ;
#31 = AXIS2_PLACEMENT_3D ( 'NONE', #186, #212, #143 ) ;
#32 = LOCAL_TIME ( 14, 0, 30.00000000000000000, #99 ) ;
#33 = DIRECTION ( 'NONE',  ( 1.000000000000000000, 0.000000000000000000, 0.000000000000000000 ) ) ;
#34 = ORIENTED_EDGE ( 'NONE', *, *, #163, .F. ) ;
#35 = CARTESIAN_POINT ( 'NONE',  ( 0.000000000000000000, 0.000000000000000000, 0.000000000000000000 ) ) ;
#36 = CARTESIAN_POINT ( 'NONE',  ( 0.000000000000000000, 0.000000000000000000, -21.00000000000000355 ) ) ;
#37 = PERSON_AND_ORGANIZATION ( #174, #144 ) ;
#38 = CALENDAR_DATE ( 2021, 26, 4 ) ;
#39 = SHAPE_DEFINITION_REPRESENTATION ( #14, #64 ) ;
#40 = VERTEX_POINT ( 'NONE', #210 ) ;
#41 = PERSON_AND_ORGANIZATION_ROLE ( 'creator' ) ;
#42 = AXIS2_PLACEMENT_3D ( 'NONE', #197, #222, #33 ) ;
#43 = APPROVAL ( #171, 'UNSPECIFIED' ) ;
#44 = DIRECTION ( 'NONE',  ( -1.000000000000000000, 0.000000000000000000, 0.000000000000000000 ) ) ;
#45 = DATE_AND_TIME ( #2, #119 ) ;
#46 = AXIS2_PLACEMENT_3D ( 'NONE', #123, #3, #187 ) ;
#47 = APPROVAL_STATUS ( 'not_yet_approved' ) ;
#48 = LOCAL_TIME ( 14, 0, 30.00000000000000000, #176 ) ;
#49 = COORDINATED_UNIVERSAL_TIME_OFFSET ( 1, 0, .AHEAD. ) ;
#50 = ORIENTED_EDGE ( 'NONE', *, *, #97, .T. ) ;
#51 = APPROVAL_DATE_TIME ( #72, #245 ) ;
#52 = ORIENTED_EDGE ( 'NONE', *, *, #109, .F. ) ;
#53 = CIRCLE ( 'NONE', #196, 21.00000000000000355 ) ;
#54 = EDGE_LOOP ( 'NONE', ( #13, #232, #170, #52 ) ) ;
#55 = APPLICATION_PROTOCOL_DEFINITION ( 'international standard', 'config_control_design', 1994, #17 ) ;
#56 = MECHANICAL_CONTEXT ( 'NONE', #17, 'mechanical' ) ;
#57 = APPROVAL ( #263, 'UNSPECIFIED' ) ;
#58 = PERSON_AND_ORGANIZATION ( #174, #144 ) ;
#59 = TOROIDAL_SURFACE ( 'NONE', #234, 19.50000000000000355, 1.500000000000000666 ) ;
#60 = COORDINATED_UNIVERSAL_TIME_OFFSET ( 1, 0, .AHEAD. ) ;
#61 = ORIENTED_EDGE ( 'NONE', *, *, #78, .F. ) ;
#62 = CC_DESIGN_PERSON_AND_ORGANIZATION_ASSIGNMENT ( #193, #23, ( #190 ) ) ;
#63 = SECURITY_CLASSIFICATION_LEVEL ( 'unclassified' ) ;
#64 = ADVANCED_BREP_SHAPE_REPRESENTATION ( '100053330', ( #149, #42 ), #204 ) ;
#65 = APPROVAL_ROLE ( '' ) ;
#66 = PERSON_AND_ORGANIZATION_ROLE ( 'creator' ) ;
#67 = CALENDAR_DATE ( 2021, 26, 4 ) ;
#68 = ADVANCED_FACE ( 'NONE', ( #172 ), #92, .T. ) ;
#69 = CALENDAR_DATE ( 2021, 26, 4 ) ;
#70 = LOCAL_TIME ( 14, 0, 30.00000000000000000, #60 ) ;
#71 = PERSON_AND_ORGANIZATION_ROLE ( 'design_supplier' ) ;
#72 = DATE_AND_TIME ( #169, #32 ) ;
#73 = CC_DESIGN_APPROVAL ( #111, ( #164 ) ) ;
#74 = DIRECTION ( 'NONE',  ( -1.000000000000000000, 0.000000000000000000, 0.000000000000000000 ) ) ;
#75 = PERSON_AND_ORGANIZATION_ROLE ( 'creator' ) ;
#76 = CC_DESIGN_APPROVAL ( #262, ( #142 ) ) ;
#77 = LOCAL_TIME ( 14, 0, 30.00000000000000000, #114 ) ;
#78 = EDGE_CURVE ( 'NONE', #8, #40, #53, .T. ) ;
#79 = CARTESIAN_POINT ( 'NONE',  ( 2.388061258337339333E-15, 0.000000000000000000, 19.50000000000000355 ) ) ;
#80 = PERSON_AND_ORGANIZATION_ROLE ( 'classification_officer' ) ;
#81 = PERSON_AND_ORGANIZATION ( #174, #144 ) ;
#82 = PERSON_AND_ORGANIZATION ( #174, #144 ) ;
#83 = VERTEX_POINT ( 'NONE', #105 ) ;
#84 = APPROVAL ( #240, 'UNSPECIFIED' ) ;
#85 = DIRECTION ( 'NONE',  ( 0.000000000000000000, 0.000000000000000000, 1.000000000000000000 ) ) ;
#86 = APPROVAL_DATE_TIME ( #244, #43 ) ;
#87 = DIRECTION ( 'NONE',  ( -1.224646799147351975E-16, 0.000000000000000000, -1.000000000000000000 ) ) ;
#88 = DESIGN_CONTEXT ( 'detailed design', #256, 'design' ) ;
#89 = DATE_AND_TIME ( #67, #208 ) ;
#90 = CC_DESIGN_DATE_AND_TIME_ASSIGNMENT ( #7, #155, ( #238 ) ) ;
#91 = PERSON_AND_ORGANIZATION ( #174, #144 ) ;
#92 = TOROIDAL_SURFACE ( 'NONE', #31, 19.50000000000000355, 1.500000000000000666 ) ;
#93 = DIRECTION ( 'NONE',  ( -0.000000000000000000, -1.000000000000000000, -0.000000000000000000 ) ) ;
#94 = PRODUCT_RELATED_PRODUCT_CATEGORY ( 'detail', '', ( #198 ) ) ;
#95 = CARTESIAN_POINT ( 'NONE',  ( 0.000000000000000000, 0.000000000000000000, 0.000000000000000000 ) ) ;
#96 = CC_DESIGN_PERSON_AND_ORGANIZATION_ASSIGNMENT ( #223, #66, ( #142 ) ) ;
#97 = EDGE_CURVE ( 'NONE', #83, #40, #16, .T. ) ;
#98 = CALENDAR_DATE ( 2021, 26, 4 ) ;
#99 = COORDINATED_UNIVERSAL_TIME_OFFSET ( 1, 0, .AHEAD. ) ;
#100 = CC_DESIGN_PERSON_AND_ORGANIZATION_ASSIGNMENT ( #259, #138, ( #164 ) ) ;
#101 = CC_DESIGN_APPROVAL ( #84, ( #18 ) ) ;
#102 = CC_DESIGN_APPROVAL ( #57, ( #251 ) ) ;
#103 = DATE_TIME_ROLE ( 'creation_date' ) ;
#104 = PERSON_AND_ORGANIZATION ( #174, #144 ) ;
#105 = CARTESIAN_POINT ( 'NONE',  ( 2.204364238465236217E-15, 0.000000000000000000, 18.00000000000000355 ) ) ;
#106 = COORDINATED_UNIVERSAL_TIME_OFFSET ( 1, 0, .AHEAD. ) ;
#107 = CALENDAR_DATE ( 2021, 26, 4 ) ;
#108 = ORIENTED_EDGE ( 'NONE', *, *, #226, .T. ) ;
#109 = EDGE_CURVE ( 'NONE', #83, #166, #182, .T. ) ;
#110 = CIRCLE ( 'NONE', #189, 21.00000000000000355 ) ;
#111 = APPROVAL ( #29, 'UNSPECIFIED' ) ;
#112 = APPLICATION_CONTEXT ( 'configuration controlled 3d designs of mechanical parts and assemblies' ) ;
#113 = CC_DESIGN_PERSON_AND_ORGANIZATION_ASSIGNMENT ( #82, #151, ( #251 ) ) ;
#114 = COORDINATED_UNIVERSAL_TIME_OFFSET ( 1, 0, .AHEAD. ) ;
#115 = FACE_OUTER_BOUND ( 'NONE', #217, .T. ) ;
#116 =( NAMED_UNIT ( * ) SI_UNIT ( $, .STERADIAN. ) SOLID_ANGLE_UNIT ( ) );
#117 = DIRECTION ( 'NONE',  ( 0.000000000000000000, 0.000000000000000000, 1.000000000000000000 ) ) ;
#118 = AXIS2_PLACEMENT_3D ( 'NONE', #184, #74, #235 ) ;
#119 = LOCAL_TIME ( 14, 0, 30.00000000000000000, #200 ) ;
#120 = DESIGN_CONTEXT ( 'detailed design', #112, 'design' ) ;
#121 = ORIENTED_EDGE ( 'NONE', *, *, #163, .T. ) ;
#122 = DIRECTION ( 'NONE',  ( -0.000000000000000000, -1.000000000000000000, -0.000000000000000000 ) ) ;
#123 = CARTESIAN_POINT ( 'NONE',  ( 0.000000000000000000, 1.836970198721030674E-16, 0.000000000000000000 ) ) ;
#124 = CARTESIAN_POINT ( 'NONE',  ( 0.000000000000000000, 0.000000000000000000, 0.000000000000000000 ) ) ;
#125 = AXIS2_PLACEMENT_3D ( 'NONE', #95, #117, #268 ) ;
#126 = DIRECTION ( 'NONE',  ( -0.000000000000000000, -1.000000000000000000, -0.000000000000000000 ) ) ;
#127 = CC_DESIGN_DATE_AND_TIME_ASSIGNMENT ( #89, #177, ( #251 ) ) ;
#128 = EDGE_CURVE ( 'NONE', #8, #166, #247, .T. ) ;
#129 = APPROVAL_PERSON_ORGANIZATION ( #58, #43, #148 ) ;
#130 = ORIENTED_EDGE ( 'NONE', *, *, #128, .F. ) ;
#131 = APPROVAL_ROLE ( '' ) ;
#132 = PERSON_AND_ORGANIZATION_ROLE ( 'design_owner' ) ;
#133 = CC_DESIGN_DATE_AND_TIME_ASSIGNMENT ( #162, #103, ( #18 ) ) ;
#134 = DATE_AND_TIME ( #11, #227 ) ;
#135 = CALENDAR_DATE ( 2021, 26, 4 ) ;
#136 = FACE_OUTER_BOUND ( 'NONE', #28, .T. ) ;
#137 = CC_DESIGN_PERSON_AND_ORGANIZATION_ASSIGNMENT ( #104, #71, ( #142 ) ) ;
#138 = PERSON_AND_ORGANIZATION_ROLE ( 'classification_officer' ) ;
#139 = APPROVAL_DATE_TIME ( #45, #57 ) ;
#140 = ORIENTED_EDGE ( 'NONE', *, *, #109, .T. ) ;
#141 = DIRECTION ( 'NONE',  ( -1.224646799147351975E-16, 0.000000000000000000, -1.000000000000000000 ) ) ;
#142 = PRODUCT_DEFINITION_FORMATION_WITH_SPECIFIED_SOURCE ( 'ANY', '', #198, .NOT_KNOWN. ) ;
#143 = DIRECTION ( 'NONE',  ( 0.000000000000000000, 0.000000000000000000, -1.000000000000000000 ) ) ;
#144 = ORGANIZATION ( 'UNSPECIFIED', 'UNSPECIFIED', '' ) ;
#145 = CARTESIAN_POINT ( 'NONE',  ( 0.000000000000000000, 0.000000000000000000, -19.50000000000000355 ) ) ;
#146 = LOCAL_TIME ( 14, 0, 30.00000000000000000, #24 ) ;
#147 = AXIS2_PLACEMENT_3D ( 'NONE', #216, #126, #192 ) ;
#148 = APPROVAL_ROLE ( '' ) ;
#149 = MANIFOLD_SOLID_BREP ( 'Austragung1', #242 ) ;
#150 = DIRECTION ( 'NONE',  ( 0.000000000000000000, 0.000000000000000000, -1.000000000000000000 ) ) ;
#151 = PERSON_AND_ORGANIZATION_ROLE ( 'creator' ) ;
#152 = EDGE_CURVE ( 'NONE', #166, #83, #165, .T. ) ;
#153 = UNCERTAINTY_MEASURE_WITH_UNIT (LENGTH_MEASURE( 1.000000000000000082E-05 ), #161, 'distance_accuracy_value', 'NONE');
#154 = PERSON_AND_ORGANIZATION ( #174, #144 ) ;
#155 = DATE_TIME_ROLE ( 'classification_date' ) ;
#156 = CARTESIAN_POINT ( 'NONE',  ( 0.000000000000000000, 0.000000000000000000, 0.000000000000000000 ) ) ;
#157 = CC_DESIGN_SECURITY_CLASSIFICATION ( #164, ( #142 ) ) ;
#158 = ADVANCED_FACE ( 'NONE', ( #136 ), #224, .T. ) ;
#159 = AXIS2_PLACEMENT_3D ( 'NONE', #145, #44, #85 ) ;
#160 =( NAMED_UNIT ( * ) PLANE_ANGLE_UNIT ( ) SI_UNIT ( $, .RADIAN. ) );
#161 =( LENGTH_UNIT ( ) NAMED_UNIT ( * ) SI_UNIT ( .MILLI., .METRE. ) );
#162 = DATE_AND_TIME ( #19, #77 ) ;
#163 = EDGE_CURVE ( 'NONE', #166, #8, #237, .T. ) ;
#164 = SECURITY_CLASSIFICATION ( '', '', #205 ) ;
#165 = CIRCLE ( 'NONE', #147, 18.00000000000000355 ) ;
#166 = VERTEX_POINT ( 'NONE', #5 ) ;
#167 = CC_DESIGN_APPROVAL ( #245, ( #238 ) ) ;
#168 = CARTESIAN_POINT ( 'NONE',  ( 0.000000000000000000, 0.000000000000000000, 0.000000000000000000 ) ) ;
#169 = CALENDAR_DATE ( 2021, 26, 4 ) ;
#170 = ORIENTED_EDGE ( 'NONE', *, *, #128, .T. ) ;
#171 = APPROVAL_STATUS ( 'not_yet_approved' ) ;
#172 = FACE_OUTER_BOUND ( 'NONE', #54, .T. ) ;
#173 = PERSON_AND_ORGANIZATION ( #174, #144 ) ;
#174 = PERSON ( 'UNSPECIFIED', 'UNSPECIFIED', 'UNSPECIFIED', ('UNSPECIFIED'), ('UNSPECIFIED'), ('UNSPECIFIED') ) ;
#175 = APPLICATION_PROTOCOL_DEFINITION ( 'international standard', 'config_control_design', 1994, #112 ) ;
#176 = COORDINATED_UNIVERSAL_TIME_OFFSET ( 1, 0, .AHEAD. ) ;
#177 = DATE_TIME_ROLE ( 'creation_date' ) ;
#178 = AXIS2_PLACEMENT_3D ( 'NONE', #79, #21, #141 ) ;
#179 = PERSON_AND_ORGANIZATION ( #174, #144 ) ;
#180 = PERSON_AND_ORGANIZATION ( #174, #144 ) ;
#181 = COORDINATED_UNIVERSAL_TIME_OFFSET ( 1, 0, .AHEAD. ) ;
#182 = CIRCLE ( 'NONE', #46, 18.00000000000000355 ) ;
#183 = DIRECTION ( 'NONE',  ( 0.000000000000000000, 0.000000000000000000, -1.000000000000000000 ) ) ;
#184 = CARTESIAN_POINT ( 'NONE',  ( 0.000000000000000000, 0.000000000000000000, -19.50000000000000355 ) ) ;
#185 = APPROVAL_ROLE ( '' ) ;
#186 = CARTESIAN_POINT ( 'NONE',  ( 0.000000000000000000, 0.000000000000000000, 0.000000000000000000 ) ) ;
#187 = DIRECTION ( 'NONE',  ( 0.000000000000000000, 0.000000000000000000, -1.000000000000000000 ) ) ;
#188 = TOROIDAL_SURFACE ( 'NONE', #12, 19.50000000000000355, 1.500000000000000666 ) ;
#189 = AXIS2_PLACEMENT_3D ( 'NONE', #156, #93, #203 ) ;
#190 = PRODUCT_DEFINITION_FORMATION_WITH_SPECIFIED_SOURCE ( 'ANY', '', #25, .NOT_KNOWN. ) ;
#191 = APPROVAL_PERSON_ORGANIZATION ( #228, #84, #185 ) ;
#192 = DIRECTION ( 'NONE',  ( 0.000000000000000000, 0.000000000000000000, -1.000000000000000000 ) ) ;
#193 = PERSON_AND_ORGANIZATION ( #174, #144 ) ;
#194 = ORIENTED_EDGE ( 'NONE', *, *, #152, .T. ) ;
#195 = APPROVAL_STATUS ( 'not_yet_approved' ) ;
#196 = AXIS2_PLACEMENT_3D ( 'NONE', #214, #20, #239 ) ;
#197 = CARTESIAN_POINT ( 'NONE',  ( 0.000000000000000000, 0.000000000000000000, 0.000000000000000000 ) ) ;
#198 = PRODUCT ( '100053330', '100053330', '', ( #10 ) ) ;
#199 = APPROVAL_ROLE ( '' ) ;
#200 = COORDINATED_UNIVERSAL_TIME_OFFSET ( 1, 0, .AHEAD. ) ;
#201 = ORIENTED_EDGE ( 'NONE', *, *, #230, .F. ) ;
#202 = ADVANCED_FACE ( 'NONE', ( #115 ), #59, .T. ) ;
#203 = DIRECTION ( 'NONE',  ( 0.000000000000000000, 0.000000000000000000, -1.000000000000000000 ) ) ;
#204 =( GEOMETRIC_REPRESENTATION_CONTEXT ( 3 ) GLOBAL_UNCERTAINTY_ASSIGNED_CONTEXT ( ( #153 ) ) GLOBAL_UNIT_ASSIGNED_CONTEXT ( ( #161, #160, #116 ) ) REPRESENTATION_CONTEXT ( 'NONE', 'WORKASPACE' ) );
#205 = SECURITY_CLASSIFICATION_LEVEL ( 'unclassified' ) ;
#206 = PRODUCT_RELATED_PRODUCT_CATEGORY ( 'detail', '', ( #25 ) ) ;
#207 = APPROVAL_PERSON_ORGANIZATION ( #180, #57, #131 ) ;
#208 = LOCAL_TIME ( 14, 0, 30.00000000000000000, #106 ) ;
#209 = CC_DESIGN_SECURITY_CLASSIFICATION ( #238, ( #190 ) ) ;
#210 = CARTESIAN_POINT ( 'NONE',  ( 2.571758278209442056E-15, 0.000000000000000000, 21.00000000000000355 ) ) ;
#211 = PERSON_AND_ORGANIZATION_ROLE ( 'design_owner' ) ;
#212 = DIRECTION ( 'NONE',  ( -0.000000000000000000, -1.000000000000000000, -0.000000000000000000 ) ) ;
#213 = COORDINATED_UNIVERSAL_TIME_OFFSET ( 1, 0, .AHEAD. ) ;
#214 = CARTESIAN_POINT ( 'NONE',  ( 0.000000000000000000, 0.000000000000000000, 0.000000000000000000 ) ) ;
#215 = CC_DESIGN_PERSON_AND_ORGANIZATION_ASSIGNMENT ( #173, #75, ( #18 ) ) ;
#216 = CARTESIAN_POINT ( 'NONE',  ( 0.000000000000000000, 1.836970198721030674E-16, 0.000000000000000000 ) ) ;
#217 = EDGE_LOOP ( 'NONE', ( #130, #221, #108, #4 ) ) ;
#218 = AXIS2_PLACEMENT_3D ( 'NONE', #35, #122, #261 ) ;
#219 = APPROVAL_DATE_TIME ( #233, #262 ) ;
#220 = CIRCLE ( 'NONE', #243, 1.500000000000001332 ) ;
#221 = ORIENTED_EDGE ( 'NONE', *, *, #78, .T. ) ;
#222 = DIRECTION ( 'NONE',  ( 0.000000000000000000, 0.000000000000000000, 1.000000000000000000 ) ) ;
#223 = PERSON_AND_ORGANIZATION ( #174, #144 ) ;
#224 = TOROIDAL_SURFACE ( 'NONE', #218, 19.50000000000000355, 1.500000000000000666 ) ;
#225 = CC_DESIGN_PERSON_AND_ORGANIZATION_ASSIGNMENT ( #37, #211, ( #25 ) ) ;
#226 = EDGE_CURVE ( 'NONE', #40, #83, #220, .T. ) ;
#227 = LOCAL_TIME ( 14, 0, 30.00000000000000000, #181 ) ;
#228 = PERSON_AND_ORGANIZATION ( #174, #144 ) ;
#229 = CC_DESIGN_PERSON_AND_ORGANIZATION_ASSIGNMENT ( #267, #80, ( #238 ) ) ;
#230 = EDGE_CURVE ( 'NONE', #40, #8, #110, .T. ) ;
#231 = DATE_TIME_ROLE ( 'classification_date' ) ;
#232 = ORIENTED_EDGE ( 'NONE', *, *, #230, .T. ) ;
#233 = DATE_AND_TIME ( #98, #48 ) ;
#234 = AXIS2_PLACEMENT_3D ( 'NONE', #168, #6, #150 ) ;
#235 = DIRECTION ( 'NONE',  ( 0.000000000000000000, 0.000000000000000000, 1.000000000000000000 ) ) ;
#236 = APPROVAL_DATE_TIME ( #250, #84 ) ;
#237 = CIRCLE ( 'NONE', #159, 1.500000000000001332 ) ;
#238 = SECURITY_CLASSIFICATION ( '', '', #63 ) ;
#239 = DIRECTION ( 'NONE',  ( 0.000000000000000000, 0.000000000000000000, -1.000000000000000000 ) ) ;
#240 = APPROVAL_STATUS ( 'not_yet_approved' ) ;
#241 = DIRECTION ( 'NONE',  ( -0.000000000000000000, -1.000000000000000000, -0.000000000000000000 ) ) ;
#242 = CLOSED_SHELL ( 'NONE', ( #68, #202, #158, #27 ) ) ;
#243 = AXIS2_PLACEMENT_3D ( 'NONE', #9, #248, #87 ) ;
#244 = DATE_AND_TIME ( #135, #146 ) ;
#245 = APPROVAL ( #195, 'UNSPECIFIED' ) ;
#246 = DATE_AND_TIME ( #38, #70 ) ;
#247 = CIRCLE ( 'NONE', #118, 1.500000000000001332 ) ;
#248 = DIRECTION ( 'NONE',  ( 1.000000000000000000, 0.000000000000000000, -1.224646799147353207E-16 ) ) ;
#249 = APPROVAL_DATE_TIME ( #134, #111 ) ;
#250 = DATE_AND_TIME ( #69, #257 ) ;
#251 = PRODUCT_DEFINITION ( 'UNKNOWN', '', #142, #120 ) ;
#252 = PRODUCT_DEFINITION_SHAPE ( 'NONE', 'NONE',  #18 ) ;
#253 = CC_DESIGN_PERSON_AND_ORGANIZATION_ASSIGNMENT ( #260, #132, ( #198 ) ) ;
#254 = APPROVAL_PERSON_ORGANIZATION ( #154, #245, #65 ) ;
#255 = EDGE_LOOP ( 'NONE', ( #201, #264, #140, #121 ) ) ;
#256 = APPLICATION_CONTEXT ( 'configuration controlled 3d designs of mechanical parts and assemblies' ) ;
#257 = LOCAL_TIME ( 14, 0, 30.00000000000000000, #213 ) ;
#258 = CC_DESIGN_APPROVAL ( #43, ( #190 ) ) ;
#259 = PERSON_AND_ORGANIZATION ( #174, #144 ) ;
#260 = PERSON_AND_ORGANIZATION ( #174, #144 ) ;
#261 = DIRECTION ( 'NONE',  ( 0.000000000000000000, 0.000000000000000000, -1.000000000000000000 ) ) ;
#262 = APPROVAL ( #47, 'UNSPECIFIED' ) ;
#263 = APPROVAL_STATUS ( 'not_yet_approved' ) ;
#264 = ORIENTED_EDGE ( 'NONE', *, *, #97, .F. ) ;
#265 = APPLICATION_PROTOCOL_DEFINITION ( 'international standard', 'config_control_design', 1994, #1 ) ;
#266 = APPROVAL_ROLE ( '' ) ;
#267 = PERSON_AND_ORGANIZATION ( #174, #144 ) ;
#268 = DIRECTION ( 'NONE',  ( 1.000000000000000000, 0.000000000000000000, 0.000000000000000000 ) ) ;
#269 = APPROVAL_PERSON_ORGANIZATION ( #81, #262, #199 ) ;
#270 = LOCAL_TIME ( 14, 0, 30.00000000000000000, #49 ) ;
#271 = CC_DESIGN_DATE_AND_TIME_ASSIGNMENT ( #246, #231, ( #164 ) ) ;
ENDSEC;
END-ISO-10303-21;
