ISO-10303-21;
HEADER;
FILE_DESCRIPTION (( 'STEP AP203' ),
    '1' );
FILE_NAME ('100053430.step',
    '2021-04-26T12:00:32',
    ( '' ),
    ( '' ),
    'SwSTEP 2.0',
    'SolidWorks 2018',
    '' );
FILE_SCHEMA (( 'CONFIG_CONTROL_DESIGN' ));
ENDSEC;

DATA;
#1 = COORDINATED_UNIVERSAL_TIME_OFFSET ( 1, 0, .AHEAD. ) ;
#2 = CIRCLE ( 'NONE', #166, 2.000000000000001776 ) ;
#3 = PERSON_AND_ORGANIZATION ( #31, #91 ) ;
#4 = CIRCLE ( 'NONE', #176, 23.50000000000000711 ) ;
#5 = ORIENTED_EDGE ( 'NONE', *, *, #231, .F. ) ;
#6 = CALENDAR_DATE ( 2021, 26, 4 ) ;
#7 = COORDINATED_UNIVERSAL_TIME_OFFSET ( 1, 0, .AHEAD. ) ;
#8 = APPROVAL_PERSON_ORGANIZATION ( #3, #134, #122 ) ;
#9 = PERSON_AND_ORGANIZATION ( #31, #91 ) ;
#10 = ORIENTED_EDGE ( 'NONE', *, *, #135, .F. ) ;
#11 = DIRECTION ( 'NONE',  ( 0.000000000000000000, 0.000000000000000000, -1.000000000000000000 ) ) ;
#12 = CALENDAR_DATE ( 2021, 26, 4 ) ;
#13 = DIRECTION ( 'NONE',  ( 0.000000000000000000, 0.000000000000000000, -1.000000000000000000 ) ) ;
#14 = CARTESIAN_POINT ( 'NONE',  ( 0.000000000000000000, 0.000000000000000000, -19.50000000000000355 ) ) ;
#15 =( NAMED_UNIT ( * ) SI_UNIT ( $, .STERADIAN. ) SOLID_ANGLE_UNIT ( ) );
#16 = DIRECTION ( 'NONE',  ( 1.000000000000000000, 0.000000000000000000, -1.224646799147353207E-16 ) ) ;
#17 = APPROVAL_PERSON_ORGANIZATION ( #222, #66, #268 ) ;
#18 =( GEOMETRIC_REPRESENTATION_CONTEXT ( 3 ) GLOBAL_UNCERTAINTY_ASSIGNED_CONTEXT ( ( #55 ) ) GLOBAL_UNIT_ASSIGNED_CONTEXT ( ( #211, #185, #15 ) ) REPRESENTATION_CONTEXT ( 'NONE', 'WORKASPACE' ) );
#19 = DATE_AND_TIME ( #201, #75 ) ;
#20 = APPROVAL_STATUS ( 'not_yet_approved' ) ;
#21 = ORIENTED_EDGE ( 'NONE', *, *, #231, .T. ) ;
#22 = PERSON_AND_ORGANIZATION_ROLE ( 'design_supplier' ) ;
#23 = PERSON_AND_ORGANIZATION ( #31, #91 ) ;
#24 = EDGE_CURVE ( 'NONE', #28, #220, #126, .T. ) ;
#25 = CARTESIAN_POINT ( 'NONE',  ( 0.000000000000000000, 0.000000000000000000, 0.000000000000000000 ) ) ;
#26 = CC_DESIGN_PERSON_AND_ORGANIZATION_ASSIGNMENT ( #107, #213, ( #212 ) ) ;
#27 = PERSON_AND_ORGANIZATION ( #31, #91 ) ;
#28 = VERTEX_POINT ( 'NONE', #183 ) ;
#29 = APPROVAL_ROLE ( '' ) ;
#30 = DATE_AND_TIME ( #248, #199 ) ;
#31 = PERSON ( 'UNSPECIFIED', 'UNSPECIFIED', 'UNSPECIFIED', ('UNSPECIFIED'), ('UNSPECIFIED'), ('UNSPECIFIED') ) ;
#32 = CARTESIAN_POINT ( 'NONE',  ( 0.000000000000000000, 0.000000000000000000, 0.000000000000000000 ) ) ;
#33 = APPROVAL_PERSON_ORGANIZATION ( #45, #247, #184 ) ;
#34 = ORIENTED_EDGE ( 'NONE', *, *, #161, .F. ) ;
#35 = DIRECTION ( 'NONE',  ( 0.000000000000000000, 0.000000000000000000, -1.000000000000000000 ) ) ;
#36 = AXIS2_PLACEMENT_3D ( 'NONE', #32, #163, #48 ) ;
#37 = APPROVAL_STATUS ( 'not_yet_approved' ) ;
#38 = APPLICATION_PROTOCOL_DEFINITION ( 'international standard', 'config_control_design', 1994, #193 ) ;
#39 = COORDINATED_UNIVERSAL_TIME_OFFSET ( 1, 0, .AHEAD. ) ;
#40 = ORIENTED_EDGE ( 'NONE', *, *, #41, .F. ) ;
#41 = EDGE_CURVE ( 'NONE', #112, #202, #2, .T. ) ;
#42 = APPLICATION_CONTEXT ( 'configuration controlled 3d designs of mechanical parts and assemblies' ) ;
#43 = AXIS2_PLACEMENT_3D ( 'NONE', #100, #57, #238 ) ;
#44 = PRODUCT_DEFINITION_FORMATION_WITH_SPECIFIED_SOURCE ( 'ANY', '', #47, .NOT_KNOWN. ) ;
#45 = PERSON_AND_ORGANIZATION ( #31, #91 ) ;
#46 = CIRCLE ( 'NONE', #210, 2.000000000000001776 ) ;
#47 = PRODUCT ( '100053430', '100053430', '', ( #150 ) ) ;
#48 = DIRECTION ( 'NONE',  ( 0.000000000000000000, 0.000000000000000000, -1.000000000000000000 ) ) ;
#49 = ORIENTED_EDGE ( 'NONE', *, *, #86, .T. ) ;
#50 = COORDINATED_UNIVERSAL_TIME_OFFSET ( 1, 0, .AHEAD. ) ;
#51 = FACE_OUTER_BOUND ( 'NONE', #52, .T. ) ;
#52 = EDGE_LOOP ( 'NONE', ( #108, #154, #226, #114 ) ) ;
#53 = PERSON_AND_ORGANIZATION_ROLE ( 'design_owner' ) ;
#54 = PERSON_AND_ORGANIZATION_ROLE ( 'creator' ) ;
#55 = UNCERTAINTY_MEASURE_WITH_UNIT (LENGTH_MEASURE( 1.000000000000000082E-05 ), #211, 'distance_accuracy_value', 'NONE');
#56 = ADVANCED_FACE ( 'NONE', ( #236 ), #179, .T. ) ;
#57 = DIRECTION ( 'NONE',  ( 0.000000000000000000, 0.000000000000000000, 1.000000000000000000 ) ) ;
#58 = CC_DESIGN_PERSON_AND_ORGANIZATION_ASSIGNMENT ( #186, #54, ( #44 ) ) ;
#59 = ORIENTED_EDGE ( 'NONE', *, *, #106, .T. ) ;
#60 = DIRECTION ( 'NONE',  ( 1.000000000000000000, 0.000000000000000000, 0.000000000000000000 ) ) ;
#61 = ADVANCED_FACE ( 'NONE', ( #70 ), #254, .T. ) ;
#62 = CALENDAR_DATE ( 2021, 26, 4 ) ;
#63 = APPROVAL_PERSON_ORGANIZATION ( #118, #85, #252 ) ;
#64 = EDGE_CURVE ( 'NONE', #220, #28, #68, .T. ) ;
#65 = PERSON_AND_ORGANIZATION_ROLE ( 'creator' ) ;
#66 = APPROVAL ( #188, 'UNSPECIFIED' ) ;
#67 = DATE_AND_TIME ( #140, #124 ) ;
#68 = CIRCLE ( 'NONE', #190, 2.000000000000001776 ) ;
#69 = PRODUCT ( '100053430', '100053430', '', ( #168 ) ) ;
#70 = FACE_OUTER_BOUND ( 'NONE', #97, .T. ) ;
#71 = ADVANCED_BREP_SHAPE_REPRESENTATION ( '100053430', ( #221, #223 ), #18 ) ;
#72 = LOCAL_TIME ( 14, 0, 32.00000000000000000, #234 ) ;
#73 = TOROIDAL_SURFACE ( 'NONE', #157, 21.50000000000000355, 2.000000000000003109 ) ;
#74 = CALENDAR_DATE ( 2021, 26, 4 ) ;
#75 = LOCAL_TIME ( 14, 0, 32.00000000000000000, #243 ) ;
#76 = CC_DESIGN_APPROVAL ( #241, ( #194 ) ) ;
#77 = DIRECTION ( 'NONE',  ( 1.000000000000000000, 0.000000000000000000, -1.224646799147353207E-16 ) ) ;
#78 = DIRECTION ( 'NONE',  ( -0.000000000000000000, -1.000000000000000000, -0.000000000000000000 ) ) ;
#79 = APPROVAL_ROLE ( '' ) ;
#80 = CARTESIAN_POINT ( 'NONE',  ( 0.000000000000000000, 0.000000000000000000, 0.000000000000000000 ) ) ;
#81 = DIRECTION ( 'NONE',  ( 0.000000000000000000, 0.000000000000000000, -1.000000000000000000 ) ) ;
#82 = DIRECTION ( 'NONE',  ( 0.000000000000000000, 0.000000000000000000, -1.000000000000000000 ) ) ;
#83 = DATE_AND_TIME ( #12, #264 ) ;
#84 = LOCAL_TIME ( 14, 0, 32.00000000000000000, #7 ) ;
#85 = APPROVAL ( #270, 'UNSPECIFIED' ) ;
#86 = EDGE_CURVE ( 'NONE', #220, #202, #195, .T. ) ;
#87 = CALENDAR_DATE ( 2021, 26, 4 ) ;
#88 = APPLICATION_PROTOCOL_DEFINITION ( 'international standard', 'config_control_design', 1994, #144 ) ;
#89 = AXIS2_PLACEMENT_3D ( 'NONE', #80, #127, #81 ) ;
#90 = COORDINATED_UNIVERSAL_TIME_OFFSET ( 1, 0, .AHEAD. ) ;
#91 = ORGANIZATION ( 'UNSPECIFIED', 'UNSPECIFIED', '' ) ;
#92 = CC_DESIGN_APPROVAL ( #85, ( #44 ) ) ;
#93 = PERSON_AND_ORGANIZATION ( #31, #91 ) ;
#94 = EDGE_LOOP ( 'NONE', ( #40, #21, #160, #261 ) ) ;
#95 = SECURITY_CLASSIFICATION ( '', '', #128 ) ;
#96 = DIRECTION ( 'NONE',  ( 0.000000000000000000, 0.000000000000000000, 1.000000000000000000 ) ) ;
#97 = EDGE_LOOP ( 'NONE', ( #10, #244, #49, #169 ) ) ;
#98 = PERSON_AND_ORGANIZATION_ROLE ( 'design_owner' ) ;
#99 = CC_DESIGN_DATE_AND_TIME_ASSIGNMENT ( #67, #198, ( #245 ) ) ;
#100 = CARTESIAN_POINT ( 'NONE',  ( 0.000000000000000000, 0.000000000000000000, 0.000000000000000000 ) ) ;
#101 = CC_DESIGN_PERSON_AND_ORGANIZATION_ASSIGNMENT ( #9, #65, ( #194 ) ) ;
#102 = PRODUCT_DEFINITION_SHAPE ( 'NONE', 'NONE',  #194 ) ;
#103 = DIRECTION ( 'NONE',  ( -0.000000000000000000, -1.000000000000000000, -0.000000000000000000 ) ) ;
#104 = CC_DESIGN_APPROVAL ( #66, ( #212 ) ) ;
#105 = DATE_AND_TIME ( #87, #84 ) ;
#106 = EDGE_CURVE ( 'NONE', #202, #220, #178, .T. ) ;
#107 = PERSON_AND_ORGANIZATION ( #31, #91 ) ;
#108 = ORIENTED_EDGE ( 'NONE', *, *, #24, .F. ) ;
#109 = DATE_TIME_ROLE ( 'classification_date' ) ;
#110 = APPROVAL_STATUS ( 'not_yet_approved' ) ;
#111 = DATE_AND_TIME ( #6, #271 ) ;
#112 = VERTEX_POINT ( 'NONE', #181 ) ;
#113 = APPROVAL ( #110, 'UNSPECIFIED' ) ;
#114 = ORIENTED_EDGE ( 'NONE', *, *, #86, .F. ) ;
#115 = CC_DESIGN_DATE_AND_TIME_ASSIGNMENT ( #172, #165, ( #212 ) ) ;
#116 = CARTESIAN_POINT ( 'NONE',  ( 0.000000000000000000, 0.000000000000000000, -21.50000000000000355 ) ) ;
#117 = DIRECTION ( 'NONE',  ( 0.000000000000000000, 0.000000000000000000, -1.000000000000000000 ) ) ;
#118 = PERSON_AND_ORGANIZATION ( #31, #91 ) ;
#119 = DIRECTION ( 'NONE',  ( -0.000000000000000000, -1.000000000000000000, -0.000000000000000000 ) ) ;
#120 = APPLICATION_CONTEXT ( 'configuration controlled 3d designs of mechanical parts and assemblies' ) ;
#121 = AXIS2_PLACEMENT_3D ( 'NONE', #139, #162, #117 ) ;
#122 = APPROVAL_ROLE ( '' ) ;
#123 = DIRECTION ( 'NONE',  ( -1.224646799147353454E-16, 0.000000000000000000, -1.000000000000000000 ) ) ;
#124 = LOCAL_TIME ( 14, 0, 32.00000000000000000, #177 ) ;
#125 = APPROVAL_DATE_TIME ( #19, #241 ) ;
#126 = CIRCLE ( 'NONE', #155, 2.000000000000001776 ) ;
#127 = DIRECTION ( 'NONE',  ( -0.000000000000000000, -1.000000000000000000, -0.000000000000000000 ) ) ;
#128 = SECURITY_CLASSIFICATION_LEVEL ( 'unclassified' ) ;
#129 = CALENDAR_DATE ( 2021, 26, 4 ) ;
#130 = ADVANCED_FACE ( 'NONE', ( #51 ), #73, .T. ) ;
#131 = COORDINATED_UNIVERSAL_TIME_OFFSET ( 1, 0, .AHEAD. ) ;
#132 = SHAPE_DEFINITION_REPRESENTATION ( #149, #71 ) ;
#133 = AXIS2_PLACEMENT_3D ( 'NONE', #25, #103, #82 ) ;
#134 = APPROVAL ( #20, 'UNSPECIFIED' ) ;
#135 = EDGE_CURVE ( 'NONE', #28, #112, #4, .T. ) ;
#136 = FACE_OUTER_BOUND ( 'NONE', #94, .T. ) ;
#137 = AXIS2_PLACEMENT_3D ( 'NONE', #266, #249, #35 ) ;
#138 = CC_DESIGN_DATE_AND_TIME_ASSIGNMENT ( #175, #171, ( #194 ) ) ;
#139 = CARTESIAN_POINT ( 'NONE',  ( 0.000000000000000000, 2.449293598294710359E-16, 0.000000000000000000 ) ) ;
#140 = CALENDAR_DATE ( 2021, 26, 4 ) ;
#141 = DIRECTION ( 'NONE',  ( -1.000000000000000000, 0.000000000000000000, 0.000000000000000000 ) ) ;
#142 = COORDINATED_UNIVERSAL_TIME_OFFSET ( 1, 0, .AHEAD. ) ;
#143 = CC_DESIGN_PERSON_AND_ORGANIZATION_ASSIGNMENT ( #170, #22, ( #44 ) ) ;
#144 = APPLICATION_CONTEXT ( 'configuration controlled 3d designs of mechanical parts and assemblies' ) ;
#145 = APPLICATION_PROTOCOL_DEFINITION ( 'international standard', 'config_control_design', 1994, #42 ) ;
#146 = CARTESIAN_POINT ( 'NONE',  ( 0.000000000000000000, 0.000000000000000000, 0.000000000000000000 ) ) ;
#147 = CC_DESIGN_APPROVAL ( #247, ( #204 ) ) ;
#148 = PERSON_AND_ORGANIZATION ( #31, #91 ) ;
#149 = PRODUCT_DEFINITION_SHAPE ( 'NONE', 'NONE',  #212 ) ;
#150 = MECHANICAL_CONTEXT ( 'NONE', #193, 'mechanical' ) ;
#151 = APPROVAL_PERSON_ORGANIZATION ( #23, #241, #79 ) ;
#152 = PERSON_AND_ORGANIZATION_ROLE ( 'classification_officer' ) ;
#153 = PERSON_AND_ORGANIZATION ( #31, #91 ) ;
#154 = ORIENTED_EDGE ( 'NONE', *, *, #135, .T. ) ;
#155 = AXIS2_PLACEMENT_3D ( 'NONE', #228, #267, #229 ) ;
#156 = CC_DESIGN_APPROVAL ( #113, ( #245 ) ) ;
#157 = AXIS2_PLACEMENT_3D ( 'NONE', #203, #78, #13 ) ;
#158 = DIRECTION ( 'NONE',  ( -1.224646799147353454E-16, 0.000000000000000000, -1.000000000000000000 ) ) ;
#159 = CALENDAR_DATE ( 2021, 26, 4 ) ;
#160 = ORIENTED_EDGE ( 'NONE', *, *, #24, .T. ) ;
#161 = EDGE_CURVE ( 'NONE', #202, #112, #46, .T. ) ;
#162 = DIRECTION ( 'NONE',  ( -0.000000000000000000, -1.000000000000000000, -0.000000000000000000 ) ) ;
#163 = DIRECTION ( 'NONE',  ( -0.000000000000000000, -1.000000000000000000, -0.000000000000000000 ) ) ;
#164 = CC_DESIGN_PERSON_AND_ORGANIZATION_ASSIGNMENT ( #27, #152, ( #245 ) ) ;
#165 = DATE_TIME_ROLE ( 'creation_date' ) ;
#166 = AXIS2_PLACEMENT_3D ( 'NONE', #227, #77, #158 ) ;
#167 = PRODUCT_RELATED_PRODUCT_CATEGORY ( 'detail', '', ( #47 ) ) ;
#168 = MECHANICAL_CONTEXT ( 'NONE', #42, 'mechanical' ) ;
#169 = ORIENTED_EDGE ( 'NONE', *, *, #161, .T. ) ;
#170 = PERSON_AND_ORGANIZATION ( #31, #91 ) ;
#171 = DATE_TIME_ROLE ( 'creation_date' ) ;
#172 = DATE_AND_TIME ( #159, #72 ) ;
#173 = CIRCLE ( 'NONE', #133, 23.50000000000000711 ) ;
#174 = DATE_AND_TIME ( #74, #259 ) ;
#175 = DATE_AND_TIME ( #129, #192 ) ;
#176 = AXIS2_PLACEMENT_3D ( 'NONE', #208, #232, #263 ) ;
#177 = COORDINATED_UNIVERSAL_TIME_OFFSET ( 1, 0, .AHEAD. ) ;
#178 = CIRCLE ( 'NONE', #137, 19.50000000000000355 ) ;
#179 = TOROIDAL_SURFACE ( 'NONE', #206, 21.50000000000000355, 2.000000000000003109 ) ;
#180 = CARTESIAN_POINT ( 'NONE',  ( 0.000000000000000000, 0.000000000000000000, 0.000000000000000000 ) ) ;
#181 = CARTESIAN_POINT ( 'NONE',  ( 2.877919977996281109E-15, 0.000000000000000000, 23.50000000000000711 ) ) ;
#182 = DATE_AND_TIME ( #62, #224 ) ;
#183 = CARTESIAN_POINT ( 'NONE',  ( 0.000000000000000000, 0.000000000000000000, -23.50000000000000711 ) ) ;
#184 = APPROVAL_ROLE ( '' ) ;
#185 =( NAMED_UNIT ( * ) PLANE_ANGLE_UNIT ( ) SI_UNIT ( $, .RADIAN. ) );
#186 = PERSON_AND_ORGANIZATION ( #31, #91 ) ;
#187 = CC_DESIGN_SECURITY_CLASSIFICATION ( #245, ( #204 ) ) ;
#188 = APPROVAL_STATUS ( 'not_yet_approved' ) ;
#189 = APPLICATION_PROTOCOL_DEFINITION ( 'international standard', 'config_control_design', 1994, #120 ) ;
#190 = AXIS2_PLACEMENT_3D ( 'NONE', #116, #141, #96 ) ;
#191 = APPROVAL_DATE_TIME ( #30, #113 ) ;
#192 = LOCAL_TIME ( 14, 0, 32.00000000000000000, #142 ) ;
#193 = APPLICATION_CONTEXT ( 'configuration controlled 3d designs of mechanical parts and assemblies' ) ;
#194 = PRODUCT_DEFINITION ( 'UNKNOWN', '', #44, #256 ) ;
#195 = CIRCLE ( 'NONE', #121, 19.50000000000000355 ) ;
#196 = SECURITY_CLASSIFICATION_LEVEL ( 'unclassified' ) ;
#197 = CC_DESIGN_SECURITY_CLASSIFICATION ( #95, ( #44 ) ) ;
#198 = DATE_TIME_ROLE ( 'classification_date' ) ;
#199 = LOCAL_TIME ( 14, 0, 32.00000000000000000, #90 ) ;
#200 = ORIENTED_EDGE ( 'NONE', *, *, #64, .T. ) ;
#201 = CALENDAR_DATE ( 2021, 26, 4 ) ;
#202 = VERTEX_POINT ( 'NONE', #207 ) ;
#203 = CARTESIAN_POINT ( 'NONE',  ( 0.000000000000000000, 0.000000000000000000, 0.000000000000000000 ) ) ;
#204 = PRODUCT_DEFINITION_FORMATION_WITH_SPECIFIED_SOURCE ( 'ANY', '', #69, .NOT_KNOWN. ) ;
#205 = APPROVAL_PERSON_ORGANIZATION ( #93, #113, #29 ) ;
#206 = AXIS2_PLACEMENT_3D ( 'NONE', #180, #119, #11 ) ;
#207 = CARTESIAN_POINT ( 'NONE',  ( 2.388061258337339333E-15, 0.000000000000000000, 19.50000000000000355 ) ) ;
#208 = CARTESIAN_POINT ( 'NONE',  ( 0.000000000000000000, 0.000000000000000000, 0.000000000000000000 ) ) ;
#209 = PERSON_AND_ORGANIZATION_ROLE ( 'creator' ) ;
#210 = AXIS2_PLACEMENT_3D ( 'NONE', #250, #16, #123 ) ;
#211 =( LENGTH_UNIT ( ) NAMED_UNIT ( * ) SI_UNIT ( .MILLI., .METRE. ) );
#212 = PRODUCT_DEFINITION ( 'UNKNOWN', '', #204, #265 ) ;
#213 = PERSON_AND_ORGANIZATION_ROLE ( 'creator' ) ;
#214 = APPROVAL_DATE_TIME ( #83, #247 ) ;
#215 = CC_DESIGN_PERSON_AND_ORGANIZATION_ASSIGNMENT ( #253, #209, ( #204 ) ) ;
#216 = APPROVAL_STATUS ( 'not_yet_approved' ) ;
#217 = PRODUCT_RELATED_PRODUCT_CATEGORY ( 'detail', '', ( #69 ) ) ;
#218 = APPROVAL_DATE_TIME ( #182, #134 ) ;
#219 = CC_DESIGN_PERSON_AND_ORGANIZATION_ASSIGNMENT ( #225, #98, ( #69 ) ) ;
#220 = VERTEX_POINT ( 'NONE', #14 ) ;
#221 = MANIFOLD_SOLID_BREP ( 'Austragung1', #258 ) ;
#222 = PERSON_AND_ORGANIZATION ( #31, #91 ) ;
#223 = AXIS2_PLACEMENT_3D ( 'NONE', #146, #235, #60 ) ;
#224 = LOCAL_TIME ( 14, 0, 32.00000000000000000, #50 ) ;
#225 = PERSON_AND_ORGANIZATION ( #31, #91 ) ;
#226 = ORIENTED_EDGE ( 'NONE', *, *, #41, .T. ) ;
#227 = CARTESIAN_POINT ( 'NONE',  ( 2.632990618166810024E-15, 0.000000000000000000, 21.50000000000000355 ) ) ;
#228 = CARTESIAN_POINT ( 'NONE',  ( 0.000000000000000000, 0.000000000000000000, -21.50000000000000355 ) ) ;
#229 = DIRECTION ( 'NONE',  ( 0.000000000000000000, 0.000000000000000000, 1.000000000000000000 ) ) ;
#230 = CC_DESIGN_PERSON_AND_ORGANIZATION_ASSIGNMENT ( #153, #269, ( #204 ) ) ;
#231 = EDGE_CURVE ( 'NONE', #112, #28, #173, .T. ) ;
#232 = DIRECTION ( 'NONE',  ( -0.000000000000000000, -1.000000000000000000, -0.000000000000000000 ) ) ;
#233 = PERSON_AND_ORGANIZATION_ROLE ( 'classification_officer' ) ;
#234 = COORDINATED_UNIVERSAL_TIME_OFFSET ( 1, 0, .AHEAD. ) ;
#235 = DIRECTION ( 'NONE',  ( 0.000000000000000000, 0.000000000000000000, 1.000000000000000000 ) ) ;
#236 = FACE_OUTER_BOUND ( 'NONE', #246, .T. ) ;
#237 = CC_DESIGN_PERSON_AND_ORGANIZATION_ASSIGNMENT ( #240, #53, ( #47 ) ) ;
#238 = DIRECTION ( 'NONE',  ( 1.000000000000000000, 0.000000000000000000, 0.000000000000000000 ) ) ;
#239 = CC_DESIGN_DATE_AND_TIME_ASSIGNMENT ( #111, #109, ( #95 ) ) ;
#240 = PERSON_AND_ORGANIZATION ( #31, #91 ) ;
#241 = APPROVAL ( #216, 'UNSPECIFIED' ) ;
#242 = APPROVAL_DATE_TIME ( #174, #66 ) ;
#243 = COORDINATED_UNIVERSAL_TIME_OFFSET ( 1, 0, .AHEAD. ) ;
#244 = ORIENTED_EDGE ( 'NONE', *, *, #64, .F. ) ;
#245 = SECURITY_CLASSIFICATION ( '', '', #196 ) ;
#246 = EDGE_LOOP ( 'NONE', ( #5, #34, #59, #200 ) ) ;
#247 = APPROVAL ( #37, 'UNSPECIFIED' ) ;
#248 = CALENDAR_DATE ( 2021, 26, 4 ) ;
#249 = DIRECTION ( 'NONE',  ( -0.000000000000000000, -1.000000000000000000, -0.000000000000000000 ) ) ;
#250 = CARTESIAN_POINT ( 'NONE',  ( 2.632990618166810024E-15, 0.000000000000000000, 21.50000000000000355 ) ) ;
#251 = APPROVAL_DATE_TIME ( #105, #85 ) ;
#252 = APPROVAL_ROLE ( '' ) ;
#253 = PERSON_AND_ORGANIZATION ( #31, #91 ) ;
#254 = TOROIDAL_SURFACE ( 'NONE', #36, 21.50000000000000355, 2.000000000000003109 ) ;
#255 = ADVANCED_FACE ( 'NONE', ( #136 ), #262, .T. ) ;
#256 = DESIGN_CONTEXT ( 'detailed design', #144, 'design' ) ;
#257 = CC_DESIGN_PERSON_AND_ORGANIZATION_ASSIGNMENT ( #148, #233, ( #95 ) ) ;
#258 = CLOSED_SHELL ( 'NONE', ( #255, #130, #61, #56 ) ) ;
#259 = LOCAL_TIME ( 14, 0, 32.00000000000000000, #1 ) ;
#260 = CC_DESIGN_APPROVAL ( #134, ( #95 ) ) ;
#261 = ORIENTED_EDGE ( 'NONE', *, *, #106, .F. ) ;
#262 = TOROIDAL_SURFACE ( 'NONE', #89, 21.50000000000000355, 2.000000000000003109 ) ;
#263 = DIRECTION ( 'NONE',  ( 0.000000000000000000, 0.000000000000000000, -1.000000000000000000 ) ) ;
#264 = LOCAL_TIME ( 14, 0, 32.00000000000000000, #39 ) ;
#265 = DESIGN_CONTEXT ( 'detailed design', #120, 'design' ) ;
#266 = CARTESIAN_POINT ( 'NONE',  ( 0.000000000000000000, 2.449293598294710359E-16, 0.000000000000000000 ) ) ;
#267 = DIRECTION ( 'NONE',  ( -1.000000000000000000, 0.000000000000000000, 0.000000000000000000 ) ) ;
#268 = APPROVAL_ROLE ( '' ) ;
#269 = PERSON_AND_ORGANIZATION_ROLE ( 'design_supplier' ) ;
#270 = APPROVAL_STATUS ( 'not_yet_approved' ) ;
#271 = LOCAL_TIME ( 14, 0, 32.00000000000000000, #131 ) ;
ENDSEC;
END-ISO-10303-21;
