ISO-10303-21;
HEADER;
FILE_DESCRIPTION (( 'STEP AP203' ),
    '1' );
FILE_NAME ('100053540.step',
    '2021-04-26T12:00:34',
    ( '' ),
    ( '' ),
    'SwSTEP 2.0',
    'SolidWorks 2018',
    '' );
FILE_SCHEMA (( 'CONFIG_CONTROL_DESIGN' ));
ENDSEC;

DATA;
#1 = APPROVAL_PERSON_ORGANIZATION ( #45, #115, #185 ) ;
#2 = FACE_OUTER_BOUND ( 'NONE', #194, .T. ) ;
#3 = COORDINATED_UNIVERSAL_TIME_OFFSET ( 1, 0, .AHEAD. ) ;
#4 = APPROVAL_DATE_TIME ( #47, #172 ) ;
#5 = DIRECTION ( 'NONE',  ( 0.000000000000000000, 0.000000000000000000, -1.000000000000000000 ) ) ;
#6 = DIRECTION ( 'NONE',  ( 0.000000000000000000, 0.000000000000000000, -1.000000000000000000 ) ) ;
#7 = APPROVAL_DATE_TIME ( #53, #115 ) ;
#8 = ORIENTED_EDGE ( 'NONE', *, *, #99, .F. ) ;
#9 = DIRECTION ( 'NONE',  ( 0.000000000000000000, 0.000000000000000000, 1.000000000000000000 ) ) ;
#10 = APPROVAL_PERSON_ORGANIZATION ( #81, #123, #26 ) ;
#11 = ADVANCED_BREP_SHAPE_REPRESENTATION ( '100053540', ( #121, #249 ), #207 ) ;
#12 = ORIENTED_EDGE ( 'NONE', *, *, #206, .T. ) ;
#13 = EDGE_CURVE ( 'NONE', #245, #163, #49, .T. ) ;
#14 = APPROVAL_PERSON_ORGANIZATION ( #161, #130, #103 ) ;
#15 = PRODUCT_DEFINITION_FORMATION_WITH_SPECIFIED_SOURCE ( 'ANY', '', #105, .NOT_KNOWN. ) ;
#16 = CALENDAR_DATE ( 2021, 26, 4 ) ;
#17 = CARTESIAN_POINT ( 'NONE',  ( 0.000000000000000000, 0.000000000000000000, 0.000000000000000000 ) ) ;
#18 = PRODUCT_DEFINITION_SHAPE ( 'NONE', 'NONE',  #214 ) ;
#19 = DIRECTION ( 'NONE',  ( 1.000000000000000000, 0.000000000000000000, -1.224646799147353207E-16 ) ) ;
#20 = ORIENTED_EDGE ( 'NONE', *, *, #209, .T. ) ;
#21 = DIRECTION ( 'NONE',  ( 0.000000000000000000, 0.000000000000000000, 1.000000000000000000 ) ) ;
#22 = DIRECTION ( 'NONE',  ( 1.000000000000000000, 0.000000000000000000, 0.000000000000000000 ) ) ;
#23 = PERSON ( 'UNSPECIFIED', 'UNSPECIFIED', 'UNSPECIFIED', ('UNSPECIFIED'), ('UNSPECIFIED'), ('UNSPECIFIED') ) ;
#24 = APPLICATION_PROTOCOL_DEFINITION ( 'international standard', 'config_control_design', 1994, #201 ) ;
#25 = COORDINATED_UNIVERSAL_TIME_OFFSET ( 1, 0, .AHEAD. ) ;
#26 = APPROVAL_ROLE ( '' ) ;
#27 = DATE_AND_TIME ( #30, #267 ) ;
#28 = CIRCLE ( 'NONE', #33, 2.499999999999998668 ) ;
#29 = LOCAL_TIME ( 14, 0, 34.00000000000000000, #86 ) ;
#30 = CALENDAR_DATE ( 2021, 26, 4 ) ;
#31 = CIRCLE ( 'NONE', #132, 31.00000000000000000 ) ;
#32 = CARTESIAN_POINT ( 'NONE',  ( 0.000000000000000000, 0.000000000000000000, 0.000000000000000000 ) ) ;
#33 = AXIS2_PLACEMENT_3D ( 'NONE', #159, #114, #9 ) ;
#34 = CC_DESIGN_DATE_AND_TIME_ASSIGNMENT ( #150, #266, ( #196 ) ) ;
#35 = DIRECTION ( 'NONE',  ( -1.224646799147352714E-16, 0.000000000000000000, -1.000000000000000000 ) ) ;
#36 = APPROVAL_DATE_TIME ( #193, #164 ) ;
#37 = CALENDAR_DATE ( 2021, 26, 4 ) ;
#38 = CC_DESIGN_SECURITY_CLASSIFICATION ( #244, ( #259 ) ) ;
#39 = APPLICATION_CONTEXT ( 'configuration controlled 3d designs of mechanical parts and assemblies' ) ;
#40 = PRODUCT ( '100053540', '100053540', '', ( #269 ) ) ;
#41 = PERSON_AND_ORGANIZATION ( #23, #52 ) ;
#42 = ORIENTED_EDGE ( 'NONE', *, *, #135, .F. ) ;
#43 = DIRECTION ( 'NONE',  ( 0.000000000000000000, 0.000000000000000000, 1.000000000000000000 ) ) ;
#44 = APPROVAL_ROLE ( '' ) ;
#45 = PERSON_AND_ORGANIZATION ( #23, #52 ) ;
#46 = CIRCLE ( 'NONE', #96, 26.00000000000000355 ) ;
#47 = DATE_AND_TIME ( #37, #177 ) ;
#48 = DESIGN_CONTEXT ( 'detailed design', #76, 'design' ) ;
#49 = CIRCLE ( 'NONE', #64, 26.00000000000000355 ) ;
#50 = APPROVAL_STATUS ( 'not_yet_approved' ) ;
#51 = APPROVAL_DATE_TIME ( #233, #123 ) ;
#52 = ORGANIZATION ( 'UNSPECIFIED', 'UNSPECIFIED', '' ) ;
#53 = DATE_AND_TIME ( #122, #220 ) ;
#54 = CC_DESIGN_PERSON_AND_ORGANIZATION_ASSIGNMENT ( #71, #127, ( #259 ) ) ;
#55 = APPROVAL ( #226, 'UNSPECIFIED' ) ;
#56 = DATE_AND_TIME ( #16, #147 ) ;
#57 = ADVANCED_FACE ( 'NONE', ( #2 ), #224, .T. ) ;
#58 = CARTESIAN_POINT ( 'NONE',  ( 0.000000000000000000, 0.000000000000000000, 0.000000000000000000 ) ) ;
#59 = ORIENTED_EDGE ( 'NONE', *, *, #13, .F. ) ;
#60 = DIRECTION ( 'NONE',  ( -1.000000000000000000, 0.000000000000000000, 0.000000000000000000 ) ) ;
#61 = ADVANCED_FACE ( 'NONE', ( #93 ), #170, .T. ) ;
#62 = CARTESIAN_POINT ( 'NONE',  ( 3.490243377569956456E-15, 0.000000000000000000, 28.50000000000000000 ) ) ;
#63 = PERSON_AND_ORGANIZATION_ROLE ( 'design_supplier' ) ;
#64 = AXIS2_PLACEMENT_3D ( 'NONE', #239, #255, #77 ) ;
#65 = DATE_TIME_ROLE ( 'creation_date' ) ;
#66 = ADVANCED_FACE ( 'NONE', ( #271 ), #109, .T. ) ;
#67 = PERSON_AND_ORGANIZATION ( #23, #52 ) ;
#68 = PERSON_AND_ORGANIZATION_ROLE ( 'classification_officer' ) ;
#69 = ORIENTED_EDGE ( 'NONE', *, *, #99, .T. ) ;
#70 = PRODUCT_RELATED_PRODUCT_CATEGORY ( 'detail', '', ( #40 ) ) ;
#71 = PERSON_AND_ORGANIZATION ( #23, #52 ) ;
#72 = PRODUCT_DEFINITION ( 'UNKNOWN', '', #259, #48 ) ;
#73 = PERSON_AND_ORGANIZATION_ROLE ( 'creator' ) ;
#74 = CC_DESIGN_PERSON_AND_ORGANIZATION_ASSIGNMENT ( #116, #146, ( #40 ) ) ;
#75 = LOCAL_TIME ( 14, 0, 34.00000000000000000, #25 ) ;
#76 = APPLICATION_CONTEXT ( 'configuration controlled 3d designs of mechanical parts and assemblies' ) ;
#77 = DIRECTION ( 'NONE',  ( 0.000000000000000000, 0.000000000000000000, -1.000000000000000000 ) ) ;
#78 = CALENDAR_DATE ( 2021, 26, 4 ) ;
#79 = TOROIDAL_SURFACE ( 'NONE', #257, 28.50000000000000000, 2.499999999999998668 ) ;
#80 = AXIS2_PLACEMENT_3D ( 'NONE', #32, #217, #104 ) ;
#81 = PERSON_AND_ORGANIZATION ( #23, #52 ) ;
#82 = ORIENTED_EDGE ( 'NONE', *, *, #206, .F. ) ;
#83 = PERSON_AND_ORGANIZATION_ROLE ( 'design_owner' ) ;
#84 =( NAMED_UNIT ( * ) SI_UNIT ( $, .STERADIAN. ) SOLID_ANGLE_UNIT ( ) );
#85 = CC_DESIGN_APPROVAL ( #55, ( #15 ) ) ;
#86 = COORDINATED_UNIVERSAL_TIME_OFFSET ( 1, 0, .AHEAD. ) ;
#87 = APPROVAL_STATUS ( 'not_yet_approved' ) ;
#88 = VERTEX_POINT ( 'NONE', #179 ) ;
#89 = APPROVAL_ROLE ( '' ) ;
#90 = CC_DESIGN_PERSON_AND_ORGANIZATION_ASSIGNMENT ( #189, #83, ( #105 ) ) ;
#91 = CC_DESIGN_DATE_AND_TIME_ASSIGNMENT ( #137, #234, ( #72 ) ) ;
#92 = COORDINATED_UNIVERSAL_TIME_OFFSET ( 1, 0, .AHEAD. ) ;
#93 = FACE_OUTER_BOUND ( 'NONE', #250, .T. ) ;
#94 = PRODUCT_RELATED_PRODUCT_CATEGORY ( 'detail', '', ( #105 ) ) ;
#95 = APPLICATION_PROTOCOL_DEFINITION ( 'international standard', 'config_control_design', 1994, #76 ) ;
#96 = AXIS2_PLACEMENT_3D ( 'NONE', #264, #202, #200 ) ;
#97 = CC_DESIGN_PERSON_AND_ORGANIZATION_ASSIGNMENT ( #142, #248, ( #15 ) ) ;
#98 = APPROVAL_STATUS ( 'not_yet_approved' ) ;
#99 = EDGE_CURVE ( 'NONE', #163, #88, #221, .T. ) ;
#100 = APPROVAL_PERSON_ORGANIZATION ( #168, #172, #44 ) ;
#101 = CIRCLE ( 'NONE', #80, 31.00000000000000000 ) ;
#102 = ORIENTED_EDGE ( 'NONE', *, *, #209, .F. ) ;
#103 = APPROVAL_ROLE ( '' ) ;
#104 = DIRECTION ( 'NONE',  ( 0.000000000000000000, 0.000000000000000000, -1.000000000000000000 ) ) ;
#105 = PRODUCT ( '100053540', '100053540', '', ( #246 ) ) ;
#106 = LOCAL_TIME ( 14, 0, 34.00000000000000000, #3 ) ;
#107 = COORDINATED_UNIVERSAL_TIME_OFFSET ( 1, 0, .AHEAD. ) ;
#108 = DIRECTION ( 'NONE',  ( 0.000000000000000000, 0.000000000000000000, -1.000000000000000000 ) ) ;
#109 = TOROIDAL_SURFACE ( 'NONE', #225, 28.50000000000000000, 2.499999999999998668 ) ;
#110 = DIRECTION ( 'NONE',  ( 0.000000000000000000, 0.000000000000000000, -1.000000000000000000 ) ) ;
#111 = CC_DESIGN_PERSON_AND_ORGANIZATION_ASSIGNMENT ( #188, #73, ( #72 ) ) ;
#112 = CARTESIAN_POINT ( 'NONE',  ( 0.000000000000000000, 0.000000000000000000, 0.000000000000000000 ) ) ;
#113 = SECURITY_CLASSIFICATION_LEVEL ( 'unclassified' ) ;
#114 = DIRECTION ( 'NONE',  ( -1.000000000000000000, 0.000000000000000000, 0.000000000000000000 ) ) ;
#115 = APPROVAL ( #160, 'UNSPECIFIED' ) ;
#116 = PERSON_AND_ORGANIZATION ( #23, #52 ) ;
#117 = ORIENTED_EDGE ( 'NONE', *, *, #187, .T. ) ;
#118 = DIRECTION ( 'NONE',  ( -1.224646799147352714E-16, 0.000000000000000000, -1.000000000000000000 ) ) ;
#119 = DATE_TIME_ROLE ( 'classification_date' ) ;
#120 = PERSON_AND_ORGANIZATION_ROLE ( 'design_supplier' ) ;
#121 = MANIFOLD_SOLID_BREP ( 'Austragung1', #131 ) ;
#122 = CALENDAR_DATE ( 2021, 26, 4 ) ;
#123 = APPROVAL ( #171, 'UNSPECIFIED' ) ;
#124 = COORDINATED_UNIVERSAL_TIME_OFFSET ( 1, 0, .AHEAD. ) ;
#125 = CC_DESIGN_PERSON_AND_ORGANIZATION_ASSIGNMENT ( #256, #63, ( #259 ) ) ;
#126 = UNCERTAINTY_MEASURE_WITH_UNIT (LENGTH_MEASURE( 1.000000000000000082E-05 ), #186, 'distance_accuracy_value', 'NONE');
#127 = PERSON_AND_ORGANIZATION_ROLE ( 'creator' ) ;
#128 = ORIENTED_EDGE ( 'NONE', *, *, #173, .T. ) ;
#129 = COORDINATED_UNIVERSAL_TIME_OFFSET ( 1, 0, .AHEAD. ) ;
#130 = APPROVAL ( #98, 'UNSPECIFIED' ) ;
#131 = CLOSED_SHELL ( 'NONE', ( #57, #61, #66, #261 ) ) ;
#132 = AXIS2_PLACEMENT_3D ( 'NONE', #112, #199, #5 ) ;
#133 = CALENDAR_DATE ( 2021, 26, 4 ) ;
#134 = CC_DESIGN_APPROVAL ( #123, ( #196 ) ) ;
#135 = EDGE_CURVE ( 'NONE', #88, #175, #101, .T. ) ;
#136 = CARTESIAN_POINT ( 'NONE',  ( 0.000000000000000000, 0.000000000000000000, 0.000000000000000000 ) ) ;
#137 = DATE_AND_TIME ( #251, #106 ) ;
#138 = CARTESIAN_POINT ( 'NONE',  ( 0.000000000000000000, 0.000000000000000000, 0.000000000000000000 ) ) ;
#139 = CARTESIAN_POINT ( 'NONE',  ( 0.000000000000000000, 0.000000000000000000, -31.00000000000000000 ) ) ;
#140 = CC_DESIGN_PERSON_AND_ORGANIZATION_ASSIGNMENT ( #270, #120, ( #15 ) ) ;
#141 =( NAMED_UNIT ( * ) PLANE_ANGLE_UNIT ( ) SI_UNIT ( $, .RADIAN. ) );
#142 = PERSON_AND_ORGANIZATION ( #23, #52 ) ;
#143 = AXIS2_PLACEMENT_3D ( 'NONE', #138, #43, #22 ) ;
#144 = COORDINATED_UNIVERSAL_TIME_OFFSET ( 1, 0, .AHEAD. ) ;
#145 = ORIENTED_EDGE ( 'NONE', *, *, #187, .F. ) ;
#146 = PERSON_AND_ORGANIZATION_ROLE ( 'design_owner' ) ;
#147 = LOCAL_TIME ( 14, 0, 34.00000000000000000, #203 ) ;
#148 = CC_DESIGN_SECURITY_CLASSIFICATION ( #196, ( #15 ) ) ;
#149 = EDGE_CURVE ( 'NONE', #163, #245, #46, .T. ) ;
#150 = DATE_AND_TIME ( #78, #227 ) ;
#151 = EDGE_LOOP ( 'NONE', ( #42, #8, #235, #12 ) ) ;
#152 = CARTESIAN_POINT ( 'NONE',  ( 3.184081677783118585E-15, 0.000000000000000000, 26.00000000000000355 ) ) ;
#153 = PERSON_AND_ORGANIZATION ( #23, #52 ) ;
#154 = ORIENTED_EDGE ( 'NONE', *, *, #149, .F. ) ;
#155 = DIRECTION ( 'NONE',  ( 0.000000000000000000, 0.000000000000000000, -1.000000000000000000 ) ) ;
#156 = LOCAL_TIME ( 14, 0, 34.00000000000000000, #144 ) ;
#157 = CC_DESIGN_APPROVAL ( #130, ( #259 ) ) ;
#158 = CARTESIAN_POINT ( 'NONE',  ( 0.000000000000000000, 0.000000000000000000, -26.00000000000000355 ) ) ;
#159 = CARTESIAN_POINT ( 'NONE',  ( 0.000000000000000000, 0.000000000000000000, -28.50000000000000000 ) ) ;
#160 = APPROVAL_STATUS ( 'not_yet_approved' ) ;
#161 = PERSON_AND_ORGANIZATION ( #23, #52 ) ;
#162 = CARTESIAN_POINT ( 'NONE',  ( 0.000000000000000000, 0.000000000000000000, -28.50000000000000000 ) ) ;
#163 = VERTEX_POINT ( 'NONE', #152 ) ;
#164 = APPROVAL ( #50, 'UNSPECIFIED' ) ;
#165 = APPLICATION_PROTOCOL_DEFINITION ( 'international standard', 'config_control_design', 1994, #39 ) ;
#166 = AXIS2_PLACEMENT_3D ( 'NONE', #237, #260, #35 ) ;
#167 = CALENDAR_DATE ( 2021, 26, 4 ) ;
#168 = PERSON_AND_ORGANIZATION ( #23, #52 ) ;
#169 = CC_DESIGN_APPROVAL ( #164, ( #72 ) ) ;
#170 = TOROIDAL_SURFACE ( 'NONE', #232, 28.50000000000000000, 2.499999999999998668 ) ;
#171 = APPROVAL_STATUS ( 'not_yet_approved' ) ;
#172 = APPROVAL ( #87, 'UNSPECIFIED' ) ;
#173 = EDGE_CURVE ( 'NONE', #175, #88, #31, .T. ) ;
#174 = APPROVAL_PERSON_ORGANIZATION ( #41, #164, #212 ) ;
#175 = VERTEX_POINT ( 'NONE', #139 ) ;
#176 = CC_DESIGN_APPROVAL ( #115, ( #244 ) ) ;
#177 = LOCAL_TIME ( 14, 0, 34.00000000000000000, #230 ) ;
#178 = CC_DESIGN_PERSON_AND_ORGANIZATION_ASSIGNMENT ( #67, #262, ( #244 ) ) ;
#179 = CARTESIAN_POINT ( 'NONE',  ( 3.796405077356795115E-15, 0.000000000000000000, 31.00000000000000000 ) ) ;
#180 = PRODUCT_DEFINITION_SHAPE ( 'NONE', 'NONE',  #72 ) ;
#181 = APPROVAL_PERSON_ORGANIZATION ( #247, #55, #89 ) ;
#182 = CARTESIAN_POINT ( 'NONE',  ( 0.000000000000000000, 0.000000000000000000, 0.000000000000000000 ) ) ;
#183 = ORIENTED_EDGE ( 'NONE', *, *, #13, .T. ) ;
#184 = APPLICATION_CONTEXT ( 'configuration controlled 3d designs of mechanical parts and assemblies' ) ;
#185 = APPROVAL_ROLE ( '' ) ;
#186 =( LENGTH_UNIT ( ) NAMED_UNIT ( * ) SI_UNIT ( .MILLI., .METRE. ) );
#187 = EDGE_CURVE ( 'NONE', #175, #245, #28, .T. ) ;
#188 = PERSON_AND_ORGANIZATION ( #23, #52 ) ;
#189 = PERSON_AND_ORGANIZATION ( #23, #52 ) ;
#190 = SECURITY_CLASSIFICATION_LEVEL ( 'unclassified' ) ;
#191 = CC_DESIGN_DATE_AND_TIME_ASSIGNMENT ( #56, #119, ( #244 ) ) ;
#192 = APPLICATION_PROTOCOL_DEFINITION ( 'international standard', 'config_control_design', 1994, #184 ) ;
#193 = DATE_AND_TIME ( #133, #75 ) ;
#194 = EDGE_LOOP ( 'NONE', ( #102, #252, #117, #154 ) ) ;
#195 = AXIS2_PLACEMENT_3D ( 'NONE', #162, #60, #21 ) ;
#196 = SECURITY_CLASSIFICATION ( '', '', #190 ) ;
#197 = APPROVAL_DATE_TIME ( #27, #130 ) ;
#198 = DATE_AND_TIME ( #208, #29 ) ;
#199 = DIRECTION ( 'NONE',  ( -0.000000000000000000, -1.000000000000000000, -0.000000000000000000 ) ) ;
#200 = DIRECTION ( 'NONE',  ( 0.000000000000000000, 0.000000000000000000, -1.000000000000000000 ) ) ;
#201 = APPLICATION_CONTEXT ( 'configuration controlled 3d designs of mechanical parts and assemblies' ) ;
#202 = DIRECTION ( 'NONE',  ( -0.000000000000000000, -1.000000000000000000, -0.000000000000000000 ) ) ;
#203 = COORDINATED_UNIVERSAL_TIME_OFFSET ( 1, 0, .AHEAD. ) ;
#204 = FACE_OUTER_BOUND ( 'NONE', #151, .T. ) ;
#205 = PERSON_AND_ORGANIZATION_ROLE ( 'creator' ) ;
#206 = EDGE_CURVE ( 'NONE', #245, #175, #216, .T. ) ;
#207 =( GEOMETRIC_REPRESENTATION_CONTEXT ( 3 ) GLOBAL_UNCERTAINTY_ASSIGNED_CONTEXT ( ( #126 ) ) GLOBAL_UNIT_ASSIGNED_CONTEXT ( ( #186, #141, #84 ) ) REPRESENTATION_CONTEXT ( 'NONE', 'WORKASPACE' ) );
#208 = CALENDAR_DATE ( 2021, 26, 4 ) ;
#209 = EDGE_CURVE ( 'NONE', #88, #163, #265, .T. ) ;
#210 = CALENDAR_DATE ( 2021, 26, 4 ) ;
#211 = CC_DESIGN_PERSON_AND_ORGANIZATION_ASSIGNMENT ( #153, #68, ( #196 ) ) ;
#212 = APPROVAL_ROLE ( '' ) ;
#213 = APPROVAL_DATE_TIME ( #198, #55 ) ;
#214 = PRODUCT_DEFINITION ( 'UNKNOWN', '', #15, #215 ) ;
#215 = DESIGN_CONTEXT ( 'detailed design', #201, 'design' ) ;
#216 = CIRCLE ( 'NONE', #195, 2.499999999999998668 ) ;
#217 = DIRECTION ( 'NONE',  ( -0.000000000000000000, -1.000000000000000000, -0.000000000000000000 ) ) ;
#218 = AXIS2_PLACEMENT_3D ( 'NONE', #219, #258, #155 ) ;
#219 = CARTESIAN_POINT ( 'NONE',  ( 0.000000000000000000, 0.000000000000000000, 0.000000000000000000 ) ) ;
#220 = LOCAL_TIME ( 14, 0, 34.00000000000000000, #129 ) ;
#221 = CIRCLE ( 'NONE', #166, 2.499999999999998668 ) ;
#222 = DIRECTION ( 'NONE',  ( -0.000000000000000000, -1.000000000000000000, -0.000000000000000000 ) ) ;
#223 = DIRECTION ( 'NONE',  ( -0.000000000000000000, -1.000000000000000000, -0.000000000000000000 ) ) ;
#224 = TOROIDAL_SURFACE ( 'NONE', #218, 28.50000000000000000, 2.499999999999998668 ) ;
#225 = AXIS2_PLACEMENT_3D ( 'NONE', #136, #222, #110 ) ;
#226 = APPROVAL_STATUS ( 'not_yet_approved' ) ;
#227 = LOCAL_TIME ( 14, 0, 34.00000000000000000, #124 ) ;
#228 = PERSON_AND_ORGANIZATION ( #23, #52 ) ;
#229 = CC_DESIGN_APPROVAL ( #172, ( #214 ) ) ;
#230 = COORDINATED_UNIVERSAL_TIME_OFFSET ( 1, 0, .AHEAD. ) ;
#231 = ORIENTED_EDGE ( 'NONE', *, *, #173, .F. ) ;
#232 = AXIS2_PLACEMENT_3D ( 'NONE', #17, #240, #108 ) ;
#233 = DATE_AND_TIME ( #167, #156 ) ;
#234 = DATE_TIME_ROLE ( 'creation_date' ) ;
#235 = ORIENTED_EDGE ( 'NONE', *, *, #149, .T. ) ;
#236 = AXIS2_PLACEMENT_3D ( 'NONE', #62, #19, #118 ) ;
#237 = CARTESIAN_POINT ( 'NONE',  ( 3.490243377569956456E-15, 0.000000000000000000, 28.50000000000000000 ) ) ;
#238 = LOCAL_TIME ( 14, 0, 34.00000000000000000, #107 ) ;
#239 = CARTESIAN_POINT ( 'NONE',  ( 0.000000000000000000, 3.061616997868381662E-16, 0.000000000000000000 ) ) ;
#240 = DIRECTION ( 'NONE',  ( -0.000000000000000000, -1.000000000000000000, -0.000000000000000000 ) ) ;
#241 = CC_DESIGN_DATE_AND_TIME_ASSIGNMENT ( #253, #65, ( #214 ) ) ;
#242 = DIRECTION ( 'NONE',  ( 0.000000000000000000, 0.000000000000000000, 1.000000000000000000 ) ) ;
#243 = SHAPE_DEFINITION_REPRESENTATION ( #180, #11 ) ;
#244 = SECURITY_CLASSIFICATION ( '', '', #113 ) ;
#245 = VERTEX_POINT ( 'NONE', #158 ) ;
#246 = MECHANICAL_CONTEXT ( 'NONE', #39, 'mechanical' ) ;
#247 = PERSON_AND_ORGANIZATION ( #23, #52 ) ;
#248 = PERSON_AND_ORGANIZATION_ROLE ( 'creator' ) ;
#249 = AXIS2_PLACEMENT_3D ( 'NONE', #182, #242, #263 ) ;
#250 = EDGE_LOOP ( 'NONE', ( #145, #128, #20, #59 ) ) ;
#251 = CALENDAR_DATE ( 2021, 26, 4 ) ;
#252 = ORIENTED_EDGE ( 'NONE', *, *, #135, .T. ) ;
#253 = DATE_AND_TIME ( #210, #238 ) ;
#254 = CC_DESIGN_PERSON_AND_ORGANIZATION_ASSIGNMENT ( #228, #205, ( #214 ) ) ;
#255 = DIRECTION ( 'NONE',  ( -0.000000000000000000, -1.000000000000000000, -0.000000000000000000 ) ) ;
#256 = PERSON_AND_ORGANIZATION ( #23, #52 ) ;
#257 = AXIS2_PLACEMENT_3D ( 'NONE', #58, #223, #6 ) ;
#258 = DIRECTION ( 'NONE',  ( -0.000000000000000000, -1.000000000000000000, -0.000000000000000000 ) ) ;
#259 = PRODUCT_DEFINITION_FORMATION_WITH_SPECIFIED_SOURCE ( 'ANY', '', #40, .NOT_KNOWN. ) ;
#260 = DIRECTION ( 'NONE',  ( 1.000000000000000000, 0.000000000000000000, -1.224646799147353207E-16 ) ) ;
#261 = ADVANCED_FACE ( 'NONE', ( #204 ), #79, .T. ) ;
#262 = PERSON_AND_ORGANIZATION_ROLE ( 'classification_officer' ) ;
#263 = DIRECTION ( 'NONE',  ( 1.000000000000000000, 0.000000000000000000, 0.000000000000000000 ) ) ;
#264 = CARTESIAN_POINT ( 'NONE',  ( 0.000000000000000000, 3.061616997868381662E-16, 0.000000000000000000 ) ) ;
#265 = CIRCLE ( 'NONE', #236, 2.499999999999998668 ) ;
#266 = DATE_TIME_ROLE ( 'classification_date' ) ;
#267 = LOCAL_TIME ( 14, 0, 34.00000000000000000, #92 ) ;
#268 = EDGE_LOOP ( 'NONE', ( #231, #82, #183, #69 ) ) ;
#269 = MECHANICAL_CONTEXT ( 'NONE', #184, 'mechanical' ) ;
#270 = PERSON_AND_ORGANIZATION ( #23, #52 ) ;
#271 = FACE_OUTER_BOUND ( 'NONE', #268, .T. ) ;
ENDSEC;
END-ISO-10303-21;
