ISO-10303-21;
HEADER;
FILE_DESCRIPTION (( 'STEP AP203' ),
    '1' );
FILE_NAME ('100053645.step',
    '2021-04-26T12:00:37',
    ( '' ),
    ( '' ),
    'SwSTEP 2.0',
    'SolidWorks 2018',
    '' );
FILE_SCHEMA (( 'CONFIG_CONTROL_DESIGN' ));
ENDSEC;

DATA;
#1 = ORIENTED_EDGE ( 'NONE', *, *, #239, .T. ) ;
#2 = APPROVAL_STATUS ( 'not_yet_approved' ) ;
#3 = DIRECTION ( 'NONE',  ( 0.000000000000000000, 0.000000000000000000, -1.000000000000000000 ) ) ;
#4 = CC_DESIGN_PERSON_AND_ORGANIZATION_ASSIGNMENT ( #80, #51, ( #88 ) ) ;
#5 = PERSON_AND_ORGANIZATION ( #170, #128 ) ;
#6 = PRODUCT ( '100053645', '100053645', '', ( #248 ) ) ;
#7 = CC_DESIGN_PERSON_AND_ORGANIZATION_ASSIGNMENT ( #254, #47, ( #58 ) ) ;
#8 = CALENDAR_DATE ( 2021, 26, 4 ) ;
#9 = PERSON_AND_ORGANIZATION ( #170, #128 ) ;
#10 = CC_DESIGN_PERSON_AND_ORGANIZATION_ASSIGNMENT ( #183, #173, ( #6 ) ) ;
#11 = COORDINATED_UNIVERSAL_TIME_OFFSET ( 1, 0, .AHEAD. ) ;
#12 = FACE_OUTER_BOUND ( 'NONE', #57, .T. ) ;
#13 = CARTESIAN_POINT ( 'NONE',  ( 4.163799117101001348E-15, 0.000000000000000000, 34.00000000000000711 ) ) ;
#14 = DIRECTION ( 'NONE',  ( 0.000000000000000000, 0.000000000000000000, -1.000000000000000000 ) ) ;
#15 = APPROVAL ( #2, 'UNSPECIFIED' ) ;
#16 = PERSON_AND_ORGANIZATION ( #170, #128 ) ;
#17 = AXIS2_PLACEMENT_3D ( 'NONE', #21, #228, #168 ) ;
#18 = DIRECTION ( 'NONE',  ( 0.000000000000000000, 0.000000000000000000, -1.000000000000000000 ) ) ;
#19 = CARTESIAN_POINT ( 'NONE',  ( 0.000000000000000000, 0.000000000000000000, -28.00000000000000355 ) ) ;
#20 = CC_DESIGN_APPROVAL ( #60, ( #218 ) ) ;
#21 = CARTESIAN_POINT ( 'NONE',  ( 0.000000000000000000, 0.000000000000000000, 0.000000000000000000 ) ) ;
#22 = CALENDAR_DATE ( 2021, 26, 4 ) ;
#23 = CC_DESIGN_PERSON_AND_ORGANIZATION_ASSIGNMENT ( #165, #26, ( #236 ) ) ;
#24 = ORIENTED_EDGE ( 'NONE', *, *, #155, .F. ) ;
#25 =( NAMED_UNIT ( * ) PLANE_ANGLE_UNIT ( ) SI_UNIT ( $, .RADIAN. ) );
#26 = PERSON_AND_ORGANIZATION_ROLE ( 'design_supplier' ) ;
#27 = AXIS2_PLACEMENT_3D ( 'NONE', #149, #195, #3 ) ;
#28 = APPROVAL ( #175, 'UNSPECIFIED' ) ;
#29 = EDGE_CURVE ( 'NONE', #87, #238, #62, .T. ) ;
#30 = APPROVAL_PERSON_ORGANIZATION ( #41, #180, #110 ) ;
#31 = EDGE_LOOP ( 'NONE', ( #199, #245, #253, #1 ) ) ;
#32 = CC_DESIGN_DATE_AND_TIME_ASSIGNMENT ( #257, #50, ( #194 ) ) ;
#33 =( GEOMETRIC_REPRESENTATION_CONTEXT ( 3 ) GLOBAL_UNCERTAINTY_ASSIGNED_CONTEXT ( ( #131 ) ) GLOBAL_UNIT_ASSIGNED_CONTEXT ( ( #147, #25, #108 ) ) REPRESENTATION_CONTEXT ( 'NONE', 'WORKASPACE' ) );
#34 = EDGE_CURVE ( 'NONE', #238, #87, #241, .T. ) ;
#35 = DATE_AND_TIME ( #61, #176 ) ;
#36 = ORIENTED_EDGE ( 'NONE', *, *, #226, .T. ) ;
#37 = DIRECTION ( 'NONE',  ( -0.000000000000000000, -1.000000000000000000, -0.000000000000000000 ) ) ;
#38 = CARTESIAN_POINT ( 'NONE',  ( 0.000000000000000000, 0.000000000000000000, -34.00000000000000711 ) ) ;
#39 = AXIS2_PLACEMENT_3D ( 'NONE', #107, #64, #188 ) ;
#40 = DIRECTION ( 'NONE',  ( -1.000000000000000000, 0.000000000000000000, 0.000000000000000000 ) ) ;
#41 = PERSON_AND_ORGANIZATION ( #170, #128 ) ;
#42 = ORIENTED_EDGE ( 'NONE', *, *, #267, .F. ) ;
#43 = CC_DESIGN_DATE_AND_TIME_ASSIGNMENT ( #124, #127, ( #218 ) ) ;
#44 = ADVANCED_FACE ( 'NONE', ( #133 ), #116, .T. ) ;
#45 = CARTESIAN_POINT ( 'NONE',  ( 3.796405077356795904E-15, 0.000000000000000000, 31.00000000000000711 ) ) ;
#46 = APPLICATION_CONTEXT ( 'configuration controlled 3d designs of mechanical parts and assemblies' ) ;
#47 = PERSON_AND_ORGANIZATION_ROLE ( 'design_supplier' ) ;
#48 = COORDINATED_UNIVERSAL_TIME_OFFSET ( 1, 0, .AHEAD. ) ;
#49 = CIRCLE ( 'NONE', #39, 28.00000000000000355 ) ;
#50 = DATE_TIME_ROLE ( 'classification_date' ) ;
#51 = PERSON_AND_ORGANIZATION_ROLE ( 'creator' ) ;
#52 = PRODUCT_RELATED_PRODUCT_CATEGORY ( 'detail', '', ( #6 ) ) ;
#53 = COORDINATED_UNIVERSAL_TIME_OFFSET ( 1, 0, .AHEAD. ) ;
#54 = CC_DESIGN_PERSON_AND_ORGANIZATION_ASSIGNMENT ( #237, #109, ( #218 ) ) ;
#55 = PRODUCT_RELATED_PRODUCT_CATEGORY ( 'detail', '', ( #76 ) ) ;
#56 = PERSON_AND_ORGANIZATION ( #170, #128 ) ;
#57 = EDGE_LOOP ( 'NONE', ( #122, #112, #152, #146 ) ) ;
#58 = PRODUCT_DEFINITION_FORMATION_WITH_SPECIFIED_SOURCE ( 'ANY', '', #76, .NOT_KNOWN. ) ;
#59 = COORDINATED_UNIVERSAL_TIME_OFFSET ( 1, 0, .AHEAD. ) ;
#60 = APPROVAL ( #95, 'UNSPECIFIED' ) ;
#61 = CALENDAR_DATE ( 2021, 26, 4 ) ;
#62 = CIRCLE ( 'NONE', #256, 3.000000000000002665 ) ;
#63 = CARTESIAN_POINT ( 'NONE',  ( 0.000000000000000000, 0.000000000000000000, 0.000000000000000000 ) ) ;
#64 = DIRECTION ( 'NONE',  ( -0.000000000000000000, -1.000000000000000000, -0.000000000000000000 ) ) ;
#65 = CALENDAR_DATE ( 2021, 26, 4 ) ;
#66 = CC_DESIGN_DATE_AND_TIME_ASSIGNMENT ( #35, #150, ( #85 ) ) ;
#67 = DIRECTION ( 'NONE',  ( -0.000000000000000000, -1.000000000000000000, -0.000000000000000000 ) ) ;
#68 = DIRECTION ( 'NONE',  ( -1.000000000000000000, 0.000000000000000000, 0.000000000000000000 ) ) ;
#69 = APPROVAL ( #269, 'UNSPECIFIED' ) ;
#70 = PRODUCT_DEFINITION_SHAPE ( 'NONE', 'NONE',  #88 ) ;
#71 = APPLICATION_CONTEXT ( 'configuration controlled 3d designs of mechanical parts and assemblies' ) ;
#72 = LOCAL_TIME ( 14, 0, 37.00000000000000000, #53 ) ;
#73 = SECURITY_CLASSIFICATION_LEVEL ( 'unclassified' ) ;
#74 = VERTEX_POINT ( 'NONE', #13 ) ;
#75 = APPROVAL_STATUS ( 'not_yet_approved' ) ;
#76 = PRODUCT ( '100053645', '100053645', '', ( #91 ) ) ;
#77 = APPLICATION_CONTEXT ( 'configuration controlled 3d designs of mechanical parts and assemblies' ) ;
#78 = LOCAL_TIME ( 14, 0, 37.00000000000000000, #126 ) ;
#79 = AXIS2_PLACEMENT_3D ( 'NONE', #184, #67, #202 ) ;
#80 = PERSON_AND_ORGANIZATION ( #170, #128 ) ;
#81 = ORIENTED_EDGE ( 'NONE', *, *, #29, .T. ) ;
#82 = DESIGN_CONTEXT ( 'detailed design', #71, 'design' ) ;
#83 = SHAPE_DEFINITION_REPRESENTATION ( #70, #220 ) ;
#84 = CC_DESIGN_APPROVAL ( #180, ( #85 ) ) ;
#85 = SECURITY_CLASSIFICATION ( '', '', #73 ) ;
#86 = DATE_AND_TIME ( #22, #97 ) ;
#87 = VERTEX_POINT ( 'NONE', #38 ) ;
#88 = PRODUCT_DEFINITION ( 'UNKNOWN', '', #236, #179 ) ;
#89 = AXIS2_PLACEMENT_3D ( 'NONE', #208, #125, #169 ) ;
#90 = DIRECTION ( 'NONE',  ( 1.000000000000000000, 0.000000000000000000, -1.224646799147353207E-16 ) ) ;
#91 = MECHANICAL_CONTEXT ( 'NONE', #192, 'mechanical' ) ;
#92 = PERSON_AND_ORGANIZATION ( #170, #128 ) ;
#93 = APPLICATION_PROTOCOL_DEFINITION ( 'international standard', 'config_control_design', 1994, #71 ) ;
#94 = PERSON_AND_ORGANIZATION_ROLE ( 'classification_officer' ) ;
#95 = APPROVAL_STATUS ( 'not_yet_approved' ) ;
#96 = AXIS2_PLACEMENT_3D ( 'NONE', #123, #186, #185 ) ;
#97 = LOCAL_TIME ( 14, 0, 37.00000000000000000, #159 ) ;
#98 = ORIENTED_EDGE ( 'NONE', *, *, #34, .T. ) ;
#99 = CC_DESIGN_PERSON_AND_ORGANIZATION_ASSIGNMENT ( #92, #233, ( #58 ) ) ;
#100 = APPROVAL_DATE_TIME ( #234, #28 ) ;
#101 = APPROVAL_PERSON_ORGANIZATION ( #16, #60, #247 ) ;
#102 = LOCAL_TIME ( 14, 0, 37.00000000000000000, #158 ) ;
#103 = ORIENTED_EDGE ( 'NONE', *, *, #267, .T. ) ;
#104 = ADVANCED_FACE ( 'NONE', ( #211 ), #198, .T. ) ;
#105 = DIRECTION ( 'NONE',  ( 0.000000000000000000, 0.000000000000000000, -1.000000000000000000 ) ) ;
#106 = CALENDAR_DATE ( 2021, 26, 4 ) ;
#107 = CARTESIAN_POINT ( 'NONE',  ( 0.000000000000000000, 3.673940397442061347E-16, 0.000000000000000000 ) ) ;
#108 =( NAMED_UNIT ( * ) SI_UNIT ( $, .STERADIAN. ) SOLID_ANGLE_UNIT ( ) );
#109 = PERSON_AND_ORGANIZATION_ROLE ( 'creator' ) ;
#110 = APPROVAL_ROLE ( '' ) ;
#111 = DATE_AND_TIME ( #8, #72 ) ;
#112 = ORIENTED_EDGE ( 'NONE', *, *, #160, .T. ) ;
#113 = APPROVAL_STATUS ( 'not_yet_approved' ) ;
#114 = COORDINATED_UNIVERSAL_TIME_OFFSET ( 1, 0, .AHEAD. ) ;
#115 = DATE_AND_TIME ( #145, #229 ) ;
#116 = TOROIDAL_SURFACE ( 'NONE', #235, 31.00000000000000711, 3.000000000000001332 ) ;
#117 = CC_DESIGN_APPROVAL ( #153, ( #88 ) ) ;
#118 = LOCAL_TIME ( 14, 0, 37.00000000000000000, #59 ) ;
#119 = CC_DESIGN_SECURITY_CLASSIFICATION ( #85, ( #58 ) ) ;
#120 = PRODUCT_DEFINITION_SHAPE ( 'NONE', 'NONE',  #218 ) ;
#121 = COORDINATED_UNIVERSAL_TIME_OFFSET ( 1, 0, .AHEAD. ) ;
#122 = ORIENTED_EDGE ( 'NONE', *, *, #29, .F. ) ;
#123 = CARTESIAN_POINT ( 'NONE',  ( 0.000000000000000000, 0.000000000000000000, 0.000000000000000000 ) ) ;
#124 = DATE_AND_TIME ( #224, #270 ) ;
#125 = DIRECTION ( 'NONE',  ( -0.000000000000000000, -1.000000000000000000, -0.000000000000000000 ) ) ;
#126 = COORDINATED_UNIVERSAL_TIME_OFFSET ( 1, 0, .AHEAD. ) ;
#127 = DATE_TIME_ROLE ( 'creation_date' ) ;
#128 = ORGANIZATION ( 'UNSPECIFIED', 'UNSPECIFIED', '' ) ;
#129 = ADVANCED_FACE ( 'NONE', ( #142 ), #140, .T. ) ;
#130 = PERSON_AND_ORGANIZATION_ROLE ( 'design_owner' ) ;
#131 = UNCERTAINTY_MEASURE_WITH_UNIT (LENGTH_MEASURE( 1.000000000000000082E-05 ), #147, 'distance_accuracy_value', 'NONE');
#132 = DATE_TIME_ROLE ( 'creation_date' ) ;
#133 = FACE_OUTER_BOUND ( 'NONE', #249, .T. ) ;
#134 = AXIS2_PLACEMENT_3D ( 'NONE', #45, #271, #210 ) ;
#135 = AXIS2_PLACEMENT_3D ( 'NONE', #141, #37, #105 ) ;
#136 = PERSON_AND_ORGANIZATION ( #170, #128 ) ;
#137 = MANIFOLD_SOLID_BREP ( 'Austragung1', #162 ) ;
#138 = PERSON_AND_ORGANIZATION ( #170, #128 ) ;
#139 = APPROVAL_DATE_TIME ( #206, #153 ) ;
#140 = TOROIDAL_SURFACE ( 'NONE', #79, 31.00000000000000711, 3.000000000000001332 ) ;
#141 = CARTESIAN_POINT ( 'NONE',  ( 0.000000000000000000, 0.000000000000000000, 0.000000000000000000 ) ) ;
#142 = FACE_OUTER_BOUND ( 'NONE', #31, .T. ) ;
#143 = DIRECTION ( 'NONE',  ( -0.000000000000000000, -1.000000000000000000, -0.000000000000000000 ) ) ;
#144 = CARTESIAN_POINT ( 'NONE',  ( 0.000000000000000000, 0.000000000000000000, 0.000000000000000000 ) ) ;
#145 = CALENDAR_DATE ( 2021, 26, 4 ) ;
#146 = ORIENTED_EDGE ( 'NONE', *, *, #243, .F. ) ;
#147 =( LENGTH_UNIT ( ) NAMED_UNIT ( * ) SI_UNIT ( .MILLI., .METRE. ) );
#148 = CC_DESIGN_PERSON_AND_ORGANIZATION_ASSIGNMENT ( #5, #94, ( #85 ) ) ;
#149 = CARTESIAN_POINT ( 'NONE',  ( 0.000000000000000000, 3.673940397442061347E-16, 0.000000000000000000 ) ) ;
#150 = DATE_TIME_ROLE ( 'classification_date' ) ;
#151 = PERSON_AND_ORGANIZATION_ROLE ( 'creator' ) ;
#152 = ORIENTED_EDGE ( 'NONE', *, *, #155, .T. ) ;
#153 = APPROVAL ( #75, 'UNSPECIFIED' ) ;
#154 = DIRECTION ( 'NONE',  ( 1.000000000000000000, 0.000000000000000000, 0.000000000000000000 ) ) ;
#155 = EDGE_CURVE ( 'NONE', #74, #201, #221, .T. ) ;
#156 = LOCAL_TIME ( 14, 0, 37.00000000000000000, #114 ) ;
#157 = CIRCLE ( 'NONE', #205, 34.00000000000000711 ) ;
#158 = COORDINATED_UNIVERSAL_TIME_OFFSET ( 1, 0, .AHEAD. ) ;
#159 = COORDINATED_UNIVERSAL_TIME_OFFSET ( 1, 0, .AHEAD. ) ;
#160 = EDGE_CURVE ( 'NONE', #87, #74, #157, .T. ) ;
#161 = PERSON_AND_ORGANIZATION ( #170, #128 ) ;
#162 = CLOSED_SHELL ( 'NONE', ( #44, #223, #129, #104 ) ) ;
#163 = DIRECTION ( 'NONE',  ( 0.000000000000000000, 0.000000000000000000, 1.000000000000000000 ) ) ;
#164 = AXIS2_PLACEMENT_3D ( 'NONE', #222, #204, #154 ) ;
#165 = PERSON_AND_ORGANIZATION ( #170, #128 ) ;
#166 = CARTESIAN_POINT ( 'NONE',  ( 3.429011037612589670E-15, 0.000000000000000000, 28.00000000000000355 ) ) ;
#167 = AXIS2_PLACEMENT_3D ( 'NONE', #263, #90, #225 ) ;
#168 = DIRECTION ( 'NONE',  ( 1.000000000000000000, 0.000000000000000000, 0.000000000000000000 ) ) ;
#169 = DIRECTION ( 'NONE',  ( 0.000000000000000000, 0.000000000000000000, -1.000000000000000000 ) ) ;
#170 = PERSON ( 'UNSPECIFIED', 'UNSPECIFIED', 'UNSPECIFIED', ('UNSPECIFIED'), ('UNSPECIFIED'), ('UNSPECIFIED') ) ;
#171 = APPROVAL_DATE_TIME ( #219, #69 ) ;
#172 = TOROIDAL_SURFACE ( 'NONE', #96, 31.00000000000000711, 3.000000000000001332 ) ;
#173 = PERSON_AND_ORGANIZATION_ROLE ( 'design_owner' ) ;
#174 = PERSON_AND_ORGANIZATION_ROLE ( 'classification_officer' ) ;
#175 = APPROVAL_STATUS ( 'not_yet_approved' ) ;
#176 = LOCAL_TIME ( 14, 0, 37.00000000000000000, #48 ) ;
#177 = APPROVAL_PERSON_ORGANIZATION ( #136, #15, #227 ) ;
#178 = CC_DESIGN_APPROVAL ( #15, ( #236 ) ) ;
#179 = DESIGN_CONTEXT ( 'detailed design', #77, 'design' ) ;
#180 = APPROVAL ( #113, 'UNSPECIFIED' ) ;
#181 = APPROVAL_DATE_TIME ( #86, #60 ) ;
#182 = APPROVAL_PERSON_ORGANIZATION ( #244, #69, #231 ) ;
#183 = PERSON_AND_ORGANIZATION ( #170, #128 ) ;
#184 = CARTESIAN_POINT ( 'NONE',  ( 0.000000000000000000, 0.000000000000000000, 0.000000000000000000 ) ) ;
#185 = DIRECTION ( 'NONE',  ( 0.000000000000000000, 0.000000000000000000, -1.000000000000000000 ) ) ;
#186 = DIRECTION ( 'NONE',  ( -0.000000000000000000, -1.000000000000000000, -0.000000000000000000 ) ) ;
#187 = DIRECTION ( 'NONE',  ( 0.000000000000000000, 0.000000000000000000, 1.000000000000000000 ) ) ;
#188 = DIRECTION ( 'NONE',  ( 0.000000000000000000, 0.000000000000000000, -1.000000000000000000 ) ) ;
#189 = CALENDAR_DATE ( 2021, 26, 4 ) ;
#190 = APPLICATION_PROTOCOL_DEFINITION ( 'international standard', 'config_control_design', 1994, #192 ) ;
#191 = ORIENTED_EDGE ( 'NONE', *, *, #239, .F. ) ;
#192 = APPLICATION_CONTEXT ( 'configuration controlled 3d designs of mechanical parts and assemblies' ) ;
#193 = APPLICATION_PROTOCOL_DEFINITION ( 'international standard', 'config_control_design', 1994, #77 ) ;
#194 = SECURITY_CLASSIFICATION ( '', '', #250 ) ;
#195 = DIRECTION ( 'NONE',  ( -0.000000000000000000, -1.000000000000000000, -0.000000000000000000 ) ) ;
#196 = AXIS2_PLACEMENT_3D ( 'NONE', #207, #68, #163 ) ;
#197 = COORDINATED_UNIVERSAL_TIME_OFFSET ( 1, 0, .AHEAD. ) ;
#198 = TOROIDAL_SURFACE ( 'NONE', #135, 31.00000000000000711, 3.000000000000001332 ) ;
#199 = ORIENTED_EDGE ( 'NONE', *, *, #160, .F. ) ;
#200 = APPROVAL_PERSON_ORGANIZATION ( #9, #153, #232 ) ;
#201 = VERTEX_POINT ( 'NONE', #166 ) ;
#202 = DIRECTION ( 'NONE',  ( 0.000000000000000000, 0.000000000000000000, -1.000000000000000000 ) ) ;
#203 = CC_DESIGN_PERSON_AND_ORGANIZATION_ASSIGNMENT ( #56, #174, ( #194 ) ) ;
#204 = DIRECTION ( 'NONE',  ( 0.000000000000000000, 0.000000000000000000, 1.000000000000000000 ) ) ;
#205 = AXIS2_PLACEMENT_3D ( 'NONE', #144, #143, #14 ) ;
#206 = DATE_AND_TIME ( #65, #118 ) ;
#207 = CARTESIAN_POINT ( 'NONE',  ( 0.000000000000000000, 0.000000000000000000, -31.00000000000000711 ) ) ;
#208 = CARTESIAN_POINT ( 'NONE',  ( 0.000000000000000000, 0.000000000000000000, 0.000000000000000000 ) ) ;
#209 = APPROVAL_PERSON_ORGANIZATION ( #265, #28, #212 ) ;
#210 = DIRECTION ( 'NONE',  ( -1.224646799147351975E-16, 0.000000000000000000, -1.000000000000000000 ) ) ;
#211 = FACE_OUTER_BOUND ( 'NONE', #261, .T. ) ;
#212 = APPROVAL_ROLE ( '' ) ;
#213 = CALENDAR_DATE ( 2021, 26, 4 ) ;
#214 = APPROVAL_DATE_TIME ( #111, #15 ) ;
#215 = ORIENTED_EDGE ( 'NONE', *, *, #226, .F. ) ;
#216 = CC_DESIGN_DATE_AND_TIME_ASSIGNMENT ( #217, #132, ( #88 ) ) ;
#217 = DATE_AND_TIME ( #189, #251 ) ;
#218 = PRODUCT_DEFINITION ( 'UNKNOWN', '', #58, #82 ) ;
#219 = DATE_AND_TIME ( #106, #78 ) ;
#220 = ADVANCED_BREP_SHAPE_REPRESENTATION ( '100053645', ( #137, #164 ), #33 ) ;
#221 = CIRCLE ( 'NONE', #167, 3.000000000000002665 ) ;
#222 = CARTESIAN_POINT ( 'NONE',  ( 0.000000000000000000, 0.000000000000000000, 0.000000000000000000 ) ) ;
#223 = ADVANCED_FACE ( 'NONE', ( #12 ), #172, .T. ) ;
#224 = CALENDAR_DATE ( 2021, 26, 4 ) ;
#225 = DIRECTION ( 'NONE',  ( -1.224646799147351975E-16, 0.000000000000000000, -1.000000000000000000 ) ) ;
#226 = EDGE_CURVE ( 'NONE', #201, #238, #49, .T. ) ;
#227 = APPROVAL_ROLE ( '' ) ;
#228 = DIRECTION ( 'NONE',  ( 0.000000000000000000, 0.000000000000000000, 1.000000000000000000 ) ) ;
#229 = LOCAL_TIME ( 14, 0, 37.00000000000000000, #197 ) ;
#230 = CIRCLE ( 'NONE', #134, 3.000000000000002665 ) ;
#231 = APPROVAL_ROLE ( '' ) ;
#232 = APPROVAL_ROLE ( '' ) ;
#233 = PERSON_AND_ORGANIZATION_ROLE ( 'creator' ) ;
#234 = DATE_AND_TIME ( #213, #102 ) ;
#235 = AXIS2_PLACEMENT_3D ( 'NONE', #63, #264, #18 ) ;
#236 = PRODUCT_DEFINITION_FORMATION_WITH_SPECIFIED_SOURCE ( 'ANY', '', #6, .NOT_KNOWN. ) ;
#237 = PERSON_AND_ORGANIZATION ( #170, #128 ) ;
#238 = VERTEX_POINT ( 'NONE', #19 ) ;
#239 = EDGE_CURVE ( 'NONE', #201, #74, #230, .T. ) ;
#240 = APPROVAL_DATE_TIME ( #115, #180 ) ;
#241 = CIRCLE ( 'NONE', #196, 3.000000000000002665 ) ;
#242 = CC_DESIGN_PERSON_AND_ORGANIZATION_ASSIGNMENT ( #161, #151, ( #236 ) ) ;
#243 = EDGE_CURVE ( 'NONE', #238, #201, #255, .T. ) ;
#244 = PERSON_AND_ORGANIZATION ( #170, #128 ) ;
#245 = ORIENTED_EDGE ( 'NONE', *, *, #34, .F. ) ;
#246 = CC_DESIGN_APPROVAL ( #28, ( #194 ) ) ;
#247 = APPROVAL_ROLE ( '' ) ;
#248 = MECHANICAL_CONTEXT ( 'NONE', #46, 'mechanical' ) ;
#249 = EDGE_LOOP ( 'NONE', ( #24, #103, #81, #215 ) ) ;
#250 = SECURITY_CLASSIFICATION_LEVEL ( 'unclassified' ) ;
#251 = LOCAL_TIME ( 14, 0, 37.00000000000000000, #11 ) ;
#252 = CC_DESIGN_PERSON_AND_ORGANIZATION_ASSIGNMENT ( #138, #130, ( #76 ) ) ;
#253 = ORIENTED_EDGE ( 'NONE', *, *, #243, .T. ) ;
#254 = PERSON_AND_ORGANIZATION ( #170, #128 ) ;
#255 = CIRCLE ( 'NONE', #27, 28.00000000000000355 ) ;
#256 = AXIS2_PLACEMENT_3D ( 'NONE', #262, #40, #187 ) ;
#257 = DATE_AND_TIME ( #260, #156 ) ;
#258 = CIRCLE ( 'NONE', #89, 34.00000000000000711 ) ;
#259 = CC_DESIGN_APPROVAL ( #69, ( #58 ) ) ;
#260 = CALENDAR_DATE ( 2021, 26, 4 ) ;
#261 = EDGE_LOOP ( 'NONE', ( #42, #191, #36, #98 ) ) ;
#262 = CARTESIAN_POINT ( 'NONE',  ( 0.000000000000000000, 0.000000000000000000, -31.00000000000000711 ) ) ;
#263 = CARTESIAN_POINT ( 'NONE',  ( 3.796405077356795904E-15, 0.000000000000000000, 31.00000000000000711 ) ) ;
#264 = DIRECTION ( 'NONE',  ( -0.000000000000000000, -1.000000000000000000, -0.000000000000000000 ) ) ;
#265 = PERSON_AND_ORGANIZATION ( #170, #128 ) ;
#266 = CC_DESIGN_SECURITY_CLASSIFICATION ( #194, ( #236 ) ) ;
#267 = EDGE_CURVE ( 'NONE', #74, #87, #258, .T. ) ;
#268 = APPLICATION_PROTOCOL_DEFINITION ( 'international standard', 'config_control_design', 1994, #46 ) ;
#269 = APPROVAL_STATUS ( 'not_yet_approved' ) ;
#270 = LOCAL_TIME ( 14, 0, 37.00000000000000000, #121 ) ;
#271 = DIRECTION ( 'NONE',  ( 1.000000000000000000, 0.000000000000000000, -1.224646799147353207E-16 ) ) ;
ENDSEC;
END-ISO-10303-21;
