  0
SECTION
  2
HEADER
  9
$ACADVER
  1
AC1015
  9
$ACADMAINTVER
 70
     6
  9
$DWGCODEPAGE
  3
ANSI_1252
  9
$INSBASE
 10
0.0
 20
0.0
 30
0.0
  9
$EXTMIN
 10
0.0
 20
0.0
 30
0.0
  9
$EXTMAX
 10
2970.0
 20
2100.0
 30
0.0
  9
$LIMMIN
 10
0.0
 20
0.0
  9
$LIMMAX
 10
2970.0
 20
2100.0
  9
$ORTHOMODE
 70
     0
  9
$REGENMODE
 70
     1
  9
$FILLMODE
 70
     1
  9
$QTEXTMODE
 70
     0
  9
$MIRRTEXT
 70
     1
  9
$LTSCALE
 40
10.0
  9
$ATTMODE
 70
     1
  9
$TEXTSIZE
 40
35.0
  9
$TRACEWID
 40
1.0
  9
$TEXTSTYLE
  7
Standard
  9
$CLAYER
  8
0
  9
$CELTYPE
  6
ByLayer
  9
$CECOLOR
 62
   256
  9
$CELTSCALE
 40
1.0
  9
$DISPSILH
 70
     0
  9
$DIMSCALE
 40
1.0
  9
$DIMASZ
 40
33.02
  9
$DIMEXO
 40
10.0
  9
$DIMDLI
 40
3.75
  9
$DIMRND
 40
0.0
  9
$DIMDLE
 40
0.0
  9
$DIMEXE
 40
10.0
  9
$DIMTP
 40
0.0
  9
$DIMTM
 40
0.0
  9
$DIMTXT
 40
35.0
  9
$DIMCEN
 40
2.5
  9
$DIMTSZ
 40
0.0
  9
$DIMTOL
 70
     0
  9
$DIMLIM
 70
     0
  9
$DIMTIH
 70
     1
  9
$DIMTOH
 70
     1
  9
$DIMSE1
 70
     0
  9
$DIMSE2
 70
     0
  9
$DIMTAD
 70
     1
  9
$DIMZIN
 70
     0
  9
$DIMBLK
  1

  9
$DIMASO
 70
     1
  9
$DIMSHO
 70
     1
  9
$DIMPOST
  1

  9
$DIMAPOST
  1

  9
$DIMALT
 70
     0
  9
$DIMALTD
 70
     3
  9
$DIMALTF
 40
0.0393700787
  9
$DIMLFAC
 40
1.0
  9
$DIMTOFL
 70
     1
  9
$DIMTVP
 40
0.0
  9
$DIMTIX
 70
     0
  9
$DIMSOXD
 70
     0
  9
$DIMSAH
 70
     0
  9
$DIMBLK1
  1

  9
$DIMBLK2
  1

  9
$DIMSTYLE
  2
ISO-25
  9
$DIMCLRD
 70
     0
  9
$DIMCLRE
 70
     0
  9
$DIMCLRT
 70
     0
  9
$DIMTFAC
 40
1.0
  9
$DIMGAP
 40
15.24
  9
$DIMJUST
 70
     0
  9
$DIMSD1
 70
     0
  9
$DIMSD2
 70
     0
  9
$DIMTOLJ
 70
     0
  9
$DIMTZIN
 70
     0
  9
$DIMALTZ
 70
     0
  9
$DIMALTTZ
 70
     0
  9
$DIMUPT
 70
     0
  9
$DIMDEC
 70
     2
  9
$DIMTDEC
 70
     2
  9
$DIMALTU
 70
     2
  9
$DIMALTTD
 70
     3
  9
$DIMTXSTY
  7
Standard
  9
$DIMAUNIT
 70
     0
  9
$DIMADEC
 70
     2
  9
$DIMALTRND
 40
0.0
  9
$DIMAZIN
 70
     0
  9
$DIMDSEP
 70
    44
  9
$DIMATFIT
 70
     3
  9
$DIMFRAC
 70
     0
  9
$DIMLDRBLK
  1

  9
$DIMLUNIT
 70
     2
  9
$DIMLWD
 70
    -2
  9
$DIMLWE
 70
    -2
  9
$DIMTMOVE
 70
     0
  9
$LUNITS
 70
     2
  9
$LUPREC
 70
     2
  9
$SKETCHINC
 40
1.0
  9
$FILLETRAD
 40
10.0
  9
$AUNITS
 70
     0
  9
$AUPREC
 70
     2
  9
$MENU
  1
.
  9
$ELEVATION
 40
0.0
  9
$PELEVATION
 40
0.0
  9
$THICKNESS
 40
0.0
  9
$LIMCHECK
 70
     0
  9
$CHAMFERA
 40
0.0
  9
$CHAMFERB
 40
0.0
  9
$CHAMFERC
 40
0.0
  9
$CHAMFERD
 40
0.0
  9
$SKPOLY
 70
     0
  9
$TDCREATE
 40
2456874.577115058
  9
$TDUCREATE
 40
2456874.493781724
  9
$TDUPDATE
 40
2456874.577116053
  9
$TDUUPDATE
 40
2456874.49378272
  9
$TDINDWG
 40
0.0000000116
  9
$TDUSRTIMER
 40
0.0000000116
  9
$USRTIMER
 70
     1
  9
$ANGBASE
 50
0.0
  9
$ANGDIR
 70
     0
  9
$PDMODE
 70
     0
  9
$PDSIZE
 40
-1.0
  9
$PLINEWID
 40
0.0
  9
$SPLFRAME
 70
     0
  9
$SPLINETYPE
 70
     6
  9
$SPLINESEGS
 70
     8
  9
$HANDSEED
  5
20F
  9
$SURFTAB1
 70
     6
  9
$SURFTAB2
 70
     6
  9
$SURFTYPE
 70
     6
  9
$SURFU
 70
     6
  9
$SURFV
 70
     6
  9
$UCSBASE
  2

  9
$UCSNAME
  2

  9
$UCSORG
 10
0.0
 20
0.0
 30
0.0
  9
$UCSXDIR
 10
1.0
 20
0.0
 30
0.0
  9
$UCSYDIR
 10
0.0
 20
1.0
 30
0.0
  9
$UCSORTHOREF
  2

  9
$UCSORTHOVIEW
 70
     0
  9
$UCSORGTOP
 10
0.0
 20
0.0
 30
0.0
  9
$UCSORGBOTTOM
 10
0.0
 20
0.0
 30
0.0
  9
$UCSORGLEFT
 10
0.0
 20
0.0
 30
0.0
  9
$UCSORGRIGHT
 10
0.0
 20
0.0
 30
0.0
  9
$UCSORGFRONT
 10
0.0
 20
0.0
 30
0.0
  9
$UCSORGBACK
 10
0.0
 20
0.0
 30
0.0
  9
$PUCSBASE
  2

  9
$PUCSNAME
  2

  9
$PUCSORG
 10
0.0
 20
0.0
 30
0.0
  9
$PUCSXDIR
 10
1.0
 20
0.0
 30
0.0
  9
$PUCSYDIR
 10
0.0
 20
1.0
 30
0.0
  9
$PUCSORTHOREF
  2

  9
$PUCSORTHOVIEW
 70
     0
  9
$PUCSORGTOP
 10
0.0
 20
0.0
 30
0.0
  9
$PUCSORGBOTTOM
 10
0.0
 20
0.0
 30
0.0
  9
$PUCSORGLEFT
 10
0.0
 20
0.0
 30
0.0
  9
$PUCSORGRIGHT
 10
0.0
 20
0.0
 30
0.0
  9
$PUCSORGFRONT
 10
0.0
 20
0.0
 30
0.0
  9
$PUCSORGBACK
 10
0.0
 20
0.0
 30
0.0
  9
$USERI1
 70
     0
  9
$USERI2
 70
     0
  9
$USERI3
 70
     0
  9
$USERI4
 70
     0
  9
$USERI5
 70
     0
  9
$USERR1
 40
0.0
  9
$USERR2
 40
0.0
  9
$USERR3
 40
0.0
  9
$USERR4
 40
0.0
  9
$USERR5
 40
0.0
  9
$WORLDVIEW
 70
     1
  9
$SHADEDGE
 70
     3
  9
$SHADEDIF
 70
    70
  9
$TILEMODE
 70
     1
  9
$MAXACTVP
 70
    64
  9
$PINSBASE
 10
0.0
 20
0.0
 30
0.0
  9
$PLIMCHECK
 70
     0
  9
$PEXTMIN
 10
1.0000000000E+20
 20
1.0000000000E+20
 30
1.0000000000E+20
  9
$PEXTMAX
 10
-1.0000000000E+20
 20
-1.0000000000E+20
 30
-1.0000000000E+20
  9
$PLIMMIN
 10
0.0
 20
0.0
  9
$PLIMMAX
 10
420.0
 20
297.0
  9
$UNITMODE
 70
     0
  9
$VISRETAIN
 70
     1
  9
$PLINEGEN
 70
     0
  9
$PSLTSCALE
 70
     1
  9
$TREEDEPTH
 70
  3020
  9
$CMLSTYLE
  2
Standard
  9
$CMLJUST
 70
     0
  9
$CMLSCALE
 40
20.0
  9
$PROXYGRAPHICS
 70
     1
  9
$MEASUREMENT
 70
     1
  9
$CELWEIGHT
370
    -1
  9
$ENDCAPS
280
     0
  9
$JOINSTYLE
280
     0
  9
$LWDISPLAY
290
     1
  9
$INSUNITS
 70
     4
  9
$HYPERLINKBASE
  1

  9
$STYLESHEET
  1

  9
$XEDIT
290
     1
  9
$CEPSNTYPE
380
     0
  9
$PSTYLEMODE
290
     1
  9
$FINGERPRINTGUID
  2
{B23214FE-B11E-4EFB-9D43-E780C24FD954}
  9
$VERSIONGUID
  2
{FAEB1C32-E019-11D5-929B-00C0DF256EC4}
  9
$EXTNAMES
290
     1
  9
$PSVPSCALE
 40
0.0
  9
$OLESTARTUP
290
     0
  0
ENDSEC
  0
SECTION
  2
CLASSES
  0
CLASS
  1
ACDBDICTIONARYWDFLT
  2
AcDbDictionaryWithDefault
  3
ObjectDBX Classes
 90
        0
280
     0
281
     0
  0
CLASS
  1
VISUALSTYLE
  2
AcDbVisualStyle
  3
ObjectDBX Classes
 90
     4095
280
     0
281
     0
  0
CLASS
  1
MATERIAL
  2
AcDbMaterial
  3
ObjectDBX Classes
 90
     1153
280
     0
281
     0
  0
CLASS
  1
SCALE
  2
AcDbScale
  3
ObjectDBX Classes
 90
     1153
280
     0
281
     0
  0
CLASS
  1
SUN
  2
AcDbSun
  3
SCENEOE
 90
     1153
280
     0
281
     0
  0
CLASS
  1
ACDBPLACEHOLDER
  2
AcDbPlaceHolder
  3
ObjectDBX Classes
 90
        0
280
     0
281
     0
  0
CLASS
  1
LAYOUT
  2
AcDbLayout
  3
ObjectDBX Classes
 90
        0
280
     0
281
     0
  0
ENDSEC
  0
SECTION
  2
TABLES
  0
TABLE
  2
VPORT
  5
8
330
0
100
AcDbSymbolTable
 70
     1
  0
VPORT
  5
29
330
8
100
AcDbSymbolTableRecord
100
AcDbViewportTableRecord
  2
*Active
 70
     0
 10
0.0
 20
0.0
 11
1.0
 21
1.0
 12
1485.0
 22
1050.0
 13
0.0
 23
0.0
 14
10.0
 24
10.0
 15
10.0
 25
10.0
 16
0.0
 26
0.0
 36
1.0
 17
0.0
 27
0.0
 37
0.0
 40
2100.0
 41
1.4142857143
 42
50.0
 43
0.0
 44
0.0
 50
0.0
 51
0.0
 71
     0
 72
  2000
 73
     1
 74
     3
 75
     0
 76
     0
 77
     0
 78
     0
281
     0
 65
     1
110
0.0
120
0.0
130
0.0
111
1.0
121
0.0
131
0.0
112
0.0
122
1.0
132
0.0
 79
     0
146
0.0
  0
ENDTAB
  0
TABLE
  2
LTYPE
  5
5
330
0
100
AcDbSymbolTable
 70
     6
  0
LTYPE
  5
14
330
5
100
AcDbSymbolTableRecord
100
AcDbLinetypeTableRecord
  2
ByBlock
 70
     0
  3

 72
    65
 73
     0
 40
0.0
  0
LTYPE
  5
15
330
5
100
AcDbSymbolTableRecord
100
AcDbLinetypeTableRecord
  2
ByLayer
 70
     0
  3

 72
    65
 73
     0
 40
0.0
  0
LTYPE
  5
16
330
5
100
AcDbSymbolTableRecord
100
AcDbLinetypeTableRecord
  2
Continuous
 70
     0
  3
Solid line
 72
    65
 73
     0
 40
0.0
  0
LTYPE
  5
6A
330
5
100
AcDbSymbolTableRecord
100
AcDbLinetypeTableRecord
  2
HIDDEN
 70
     0
  3
Hidden __ __ __ __ __ __ __ __ __ __ __ __ __ __
 72
    65
 73
     2
 40
1.905
 49
1.27
 74
     0
 49
-0.635
 74
     0
  0
LTYPE
  5
6B
330
5
100
AcDbSymbolTableRecord
100
AcDbLinetypeTableRecord
  2
PHANTOM
 70
     0
  3
Phantom ______  __  __  ______  __  __  ______
 72
    65
 73
     6
 40
12.7
 49
6.35
 74
     0
 49
-1.27
 74
     0
 49
1.27
 74
     0
 49
-1.27
 74
     0
 49
1.27
 74
     0
 49
-1.27
 74
     0
  0
LTYPE
  5
6C
330
5
100
AcDbSymbolTableRecord
100
AcDbLinetypeTableRecord
  2
CENTER
 70
     0
  3
Center ____ _ ____ _ ____ _ ____ _ ____ _ ____
 72
    65
 73
     4
 40
10.16
 49
6.35
 74
     0
 49
-1.27
 74
     0
 49
1.27
 74
     0
 49
-1.27
 74
     0
  0
LTYPE
  5
6D
330
5
100
AcDbSymbolTableRecord
100
AcDbLinetypeTableRecord
  2
CENTERX2
 70
     0
  3
Center (2x) ________  __  ________  __  _____
 72
    65
 73
     4
 40
20.32
 49
12.7
 74
     0
 49
-2.54
 74
     0
 49
2.54
 74
     0
 49
-2.54
 74
     0
  0
LTYPE
  5
6E
330
5
100
AcDbSymbolTableRecord
100
AcDbLinetypeTableRecord
  2
DOT2
 70
     0
  3
Dot (.5x) ........................................
 72
    65
 73
     2
 40
0.635
 49
0.0
 74
     0
 49
-0.635
 74
     0
  0
ENDTAB
  0
TABLE
  2
LAYER
  5
2
330
0
100
AcDbSymbolTable
 70
     2
  0
LAYER
  5
10
330
2
100
AcDbSymbolTableRecord
100
AcDbLayerTableRecord
  2
0
 70
     0
 62
     7
  6
Continuous
370
    -3
390
F
  0
LAYER
  5
6F
330
2
100
AcDbSymbolTableRecord
100
AcDbLayerTableRecord
  2
FORMAT
 70
     0
 62
     7
  6
Continuous
370
    -3
390
F
  0
ENDTAB
  0
TABLE
  2
STYLE
  5
3
330
0
100
AcDbSymbolTable
 70
     3
  0
STYLE
  5
11
330
3
100
AcDbSymbolTableRecord
100
AcDbTextStyleTableRecord
  2
Standard
 70
     0
 40
0.0
 41
1.0
 50
0.0
 71
     0
 42
35.0
  3
txt
  4

  0
STYLE
  5
8C
330
3
100
AcDbSymbolTableRecord
100
AcDbTextStyleTableRecord
  2
SLDTEXTSTYLE0
 70
     0
 40
0.0
 41
0.75
 50
0.0
 71
     0
 42
35.0
  3
TXT
  4

  0
STYLE
  5
94
330
3
100
AcDbSymbolTableRecord
100
AcDbTextStyleTableRecord
  2
SLDTEXTSTYLE1
 70
     0
 40
0.0
 41
0.6923076923
 50
0.0
 71
     0
 42
35.0
  3
TXT
  4

  0
ENDTAB
  0
TABLE
  2
VIEW
  5
6
330
0
100
AcDbSymbolTable
 70
     0
  0
ENDTAB
  0
TABLE
  2
UCS
  5
7
330
0
100
AcDbSymbolTable
 70
     0
  0
ENDTAB
  0
TABLE
  2
APPID
  5
9
330
0
100
AcDbSymbolTable
 70
     1
  0
APPID
  5
12
330
9
100
AcDbSymbolTableRecord
100
AcDbRegAppTableRecord
  2
ACAD
 70
     0
  0
ENDTAB
  0
TABLE
  2
DIMSTYLE
  5
A
330
0
100
AcDbSymbolTable
 70
     1
100
AcDbDimStyleTable
  0
DIMSTYLE
105
27
330
A
100
AcDbSymbolTableRecord
100
AcDbDimStyleTableRecord
  2
ISO-25
 70
     0
 41
2.5
 42
0.625
 43
3.75
 44
1.25
 73
     0
 74
     0
 77
     1
 78
     8
140
2.5
141
2.5
143
0.0393700787
147
0.625
171
     3
172
     1
178
     0
271
     2
272
     2
274
     3
278
    44
283
     0
284
     8
340
11
  0
ENDTAB
  0
TABLE
  2
BLOCK_RECORD
  5
1
330
0
100
AcDbSymbolTable
 70
     1
  0
BLOCK_RECORD
  5
1F
330
1
100
AcDbSymbolTableRecord
100
AcDbBlockTableRecord
  2
*Model_Space
340
22
  0
BLOCK_RECORD
  5
1B
330
1
100
AcDbSymbolTableRecord
100
AcDbBlockTableRecord
  2
*Paper_Space
340
1E
  0
BLOCK_RECORD
  5
23
330
1
100
AcDbSymbolTableRecord
100
AcDbBlockTableRecord
  2
*Paper_Space0
340
26
  0
ENDTAB
  0
ENDSEC
  0
SECTION
  2
BLOCKS
  0
BLOCK
  5
20
330
1F
100
AcDbEntity
  8
0
100
AcDbBlockBegin
  2
*Model_Space
 70
     0
 10
0.0
 20
0.0
 30
0.0
  3
*Model_Space
  1
*Model_Space
  0
ENDBLK
  5
21
330
1F
100
AcDbEntity
  8
0
100
AcDbBlockEnd
  0
BLOCK
  5
1C
330
1B
100
AcDbEntity
 67
     1
  8
0
100
AcDbBlockBegin
  2
*Paper_Space
 70
     0
 10
0.0
 20
0.0
 30
0.0
  3
*Paper_Space
  1
*Paper_Space
  0
ENDBLK
  5
1D
330
1B
100
AcDbEntity
 67
     1
  8
0
100
AcDbBlockEnd
  0
BLOCK
  5
24
330
23
100
AcDbEntity
  8
0
100
AcDbBlockBegin
  2
*Paper_Space0
 70
     0
 10
0.0
 20
0.0
 30
0.0
  3
*Paper_Space0
  1
*Paper_Space0
  0
ENDBLK
  5
25
330
23
100
AcDbEntity
  8
0
100
AcDbBlockEnd
  0
ENDSEC
  0
SECTION
  2
ENTITIES
  0
LINE
  5
70
330
1F
100
AcDbEntity
  8
0
  6
Continuous
 62
     7
370
     0
100
AcDbLine
 10
2920.0
 20
2050.0
 30
0.0
 11
2920.0
 21
50.0
 31
0.0
  0
LINE
  5
71
330
1F
100
AcDbEntity
  8
0
  6
Continuous
 62
     7
370
     0
100
AcDbLine
 10
1594.0
 20
347.5
 30
0.0
 11
1741.3
 21
347.5
 31
0.0
  0
LINE
  5
72
330
1F
100
AcDbEntity
  8
0
  6
Continuous
 62
     7
370
     0
100
AcDbLine
 10
2036.0
 20
347.5
 30
0.0
 11
2920.0
 21
347.5
 31
0.0
  0
LINE
  5
73
330
1F
100
AcDbEntity
  8
0
  6
Continuous
 62
     7
370
     0
100
AcDbLine
 10
1594.0
 20
92.5
 30
0.0
 11
2920.0
 21
92.5
 31
0.0
  0
LINE
  5
74
330
1F
100
AcDbEntity
  8
0
  6
Continuous
 62
     7
370
     0
100
AcDbLine
 10
1594.0
 20
347.5
 30
0.0
 11
1594.0
 21
283.75
 31
0.0
  0
LINE
  5
75
330
1F
100
AcDbEntity
  8
0
  6
Continuous
 62
     7
370
     0
100
AcDbLine
 10
2920.0
 20
220.0
 30
0.0
 11
2790.0
 21
220.0
 31
0.0
  0
LINE
  5
76
330
1F
100
AcDbEntity
  8
0
  6
Continuous
 62
     7
370
     0
100
AcDbLine
 10
1888.6
 20
220.0
 30
0.0
 11
2036.0
 21
220.0
 31
0.0
  0
LINE
  5
77
330
1F
100
AcDbEntity
  8
0
  6
Continuous
 62
     7
370
     0
100
AcDbLine
 10
2036.0
 20
347.5
 30
0.0
 11
2036.0
 21
50.0
 31
0.0
  0
LINE
  5
78
330
1F
100
AcDbEntity
  8
0
  6
Continuous
 62
     7
370
     0
100
AcDbLine
 10
2478.0
 20
50.0
 30
0.0
 11
2478.0
 21
92.5
 31
0.0
  0
LINE
  5
79
330
1F
100
AcDbEntity
  8
0
  6
Continuous
 62
     7
370
     0
100
AcDbLine
 10
1741.3
 20
347.5
 30
0.0
 11
1888.6
 21
347.5
 31
0.0
  0
LINE
  5
7A
330
1F
100
AcDbEntity
  8
0
  6
Continuous
 62
     7
370
     0
100
AcDbLine
 10
2790.0
 20
92.5
 30
0.0
 11
2790.0
 21
154.9496936018
 31
0.0
  0
LINE
  5
7B
330
1F
100
AcDbEntity
  8
0
  6
Continuous
 62
     7
370
     0
100
AcDbLine
 10
1888.6
 20
347.5
 30
0.0
 11
2036.0
 21
347.5
 31
0.0
  0
LINE
  5
7C
330
1F
100
AcDbEntity
  8
0
  6
Continuous
 62
     7
370
     0
100
AcDbLine
 10
2920.0
 20
154.9496936018
 30
0.0
 11
2790.0
 21
154.9496936018
 31
0.0
  0
LINE
  5
7D
330
1F
100
AcDbEntity
  8
0
  6
Continuous
 62
     7
370
     0
100
AcDbLine
 10
2036.0
 20
220.0
 30
0.0
 11
2790.0
 21
220.0
 31
0.0
  0
LINE
  5
7E
330
1F
100
AcDbEntity
  8
0
  6
Continuous
 62
     7
370
     0
100
AcDbLine
 10
1888.6
 20
347.5
 30
0.0
 11
1888.6
 21
220.0
 31
0.0
  0
LINE
  5
7F
330
1F
100
AcDbEntity
  8
0
  6
Continuous
 62
     7
370
     0
100
AcDbLine
 10
1888.6
 20
220.0
 30
0.0
 11
1741.3
 21
220.0
 31
0.0
  0
LINE
  5
80
330
1F
100
AcDbEntity
  8
0
  6
Continuous
 62
     7
370
     0
100
AcDbLine
 10
2920.0
 20
2050.0
 30
0.0
 11
50.0
 21
2050.0
 31
0.0
  0
LINE
  5
81
330
1F
100
AcDbEntity
  8
0
  6
Continuous
 62
     7
370
     0
100
AcDbLine
 10
50.0
 20
2050.0
 30
0.0
 11
50.0
 21
50.0
 31
0.0
  0
LINE
  5
82
330
1F
100
AcDbEntity
  8
0
  6
Continuous
 62
     7
370
     0
100
AcDbLine
 10
50.0
 20
50.0
 30
0.0
 11
2920.0
 21
50.0
 31
0.0
  0
LINE
  5
83
330
1F
100
AcDbEntity
  8
0
  6
Continuous
 62
     7
370
     0
100
AcDbLine
 10
1741.3
 20
220.0
 30
0.0
 11
1741.3
 21
347.5
 31
0.0
  0
LINE
  5
84
330
1F
100
AcDbEntity
  8
0
  6
Continuous
 62
     7
370
     0
100
AcDbLine
 10
1741.3
 20
220.0
 30
0.0
 11
1594.0
 21
220.0
 31
0.0
  0
LINE
  5
85
330
1F
100
AcDbEntity
  8
0
  6
Continuous
 62
     7
370
     0
100
AcDbLine
 10
2790.0
 20
154.9496936018
 30
0.0
 11
2790.0
 21
220.0
 31
0.0
  0
LINE
  5
86
330
1F
100
AcDbEntity
  8
0
  6
Continuous
 62
     7
370
     0
100
AcDbLine
 10
1594.0
 20
283.75
 30
0.0
 11
1741.3
 21
283.75
 31
0.0
  0
LINE
  5
87
330
1F
100
AcDbEntity
  8
0
  6
Continuous
 62
     7
370
     0
100
AcDbLine
 10
1741.3
 20
283.75
 30
0.0
 11
1888.6
 21
283.75
 31
0.0
  0
LINE
  5
88
330
1F
100
AcDbEntity
  8
0
  6
Continuous
 62
     7
370
     0
100
AcDbLine
 10
1888.6
 20
283.75
 30
0.0
 11
2036.0
 21
283.75
 31
0.0
  0
LINE
  5
89
330
1F
100
AcDbEntity
  8
0
  6
Continuous
 62
     7
370
     0
100
AcDbLine
 10
1594.0
 20
220.0
 30
0.0
 11
1594.0
 21
283.75
 31
0.0
  0
LINE
  5
8A
330
1F
100
AcDbEntity
  8
0
  6
Continuous
 62
     7
370
     0
100
AcDbLine
 10
1594.0
 20
220.0
 30
0.0
 11
1594.0
 21
92.5
 31
0.0
  0
LINE
  5
8B
330
1F
100
AcDbEntity
  8
0
  6
Continuous
 62
     7
370
     0
100
AcDbLine
 10
1594.0
 20
50.0
 30
0.0
 11
1594.0
 21
92.5
 31
0.0
  0
MTEXT
  5
8D
330
1F
100
AcDbEntity
  8
0
  6
Continuous
 62
     7
370
     0
100
AcDbMText
 10
2802.7693727994
 20
194.3244494768
 30
0.0
 40
15.0
 41
0.0
 71
     1
 72
     1
  1
Blattformat
  7
SLDTEXTSTYLE0
 73
     1
 44
1.0
  0
MTEXT
  5
8E
330
1F
100
AcDbEntity
  8
0
  6
Continuous
 62
     7
370
     0
100
AcDbMText
 10
1623.642408927
 20
258.7493046935
 30
0.0
 40
15.0
 41
0.0
 71
     1
 72
     1
  1
Ch. Höfig
  7
SLDTEXTSTYLE0
 73
     1
 44
1.0
  0
MTEXT
  5
8F
330
1F
100
AcDbEntity
  8
0
  6
Continuous
 62
     7
370
     0
100
AcDbMText
 10
1667.7619782589
 20
321.9836457437
 30
0.0
 40
15.0
 41
0.0
 71
     2
 72
     1
  1
Name
  7
SLDTEXTSTYLE0
 73
     1
 44
1.0
  0
MTEXT
  5
90
330
1F
100
AcDbEntity
  8
0
  6
Continuous
 62
     7
370
     0
100
AcDbMText
 10
1604.4586230876
 20
209.8605628925
 30
0.0
 40
15.0
 41
0.0
 71
     1
 72
     1
  1
Werkstoff:
  7
SLDTEXTSTYLE0
 73
     1
 44
1.0
  0
MTEXT
  5
91
330
1F
100
AcDbEntity
  8
0
  6
Continuous
 62
     7
370
     0
100
AcDbMText
 10
2048.6498590342
 20
322.4610146297
 30
0.0
 40
15.0
 41
0.0
 71
     1
 72
     1
  1
Artikelnummer
  7
SLDTEXTSTYLE0
 73
     1
 44
1.0
  0
MTEXT
  5
92
330
1F
100
AcDbEntity
  8
0
  6
Continuous
 62
     7
370
     0
100
AcDbMText
 10
2048.7396611749
 20
198.6863782703
 30
0.0
 40
15.0
 41
0.0
 71
     1
 72
     1
  1
Hersteller
  7
SLDTEXTSTYLE0
 73
     1
 44
1.0
  0
MTEXT
  5
93
330
1F
100
AcDbEntity
  8
0
  6
Continuous
 62
     7
370
     0
100
AcDbMText
 10
2048.7396611749
 20
79.0008727453
 30
0.0
 40
15.0
 41
0.0
 71
     1
 72
     1
  1
Massstab: 1:10
  7
SLDTEXTSTYLE0
 73
     1
 44
1.0
  0
MTEXT
  5
95
330
1F
100
AcDbEntity
  8
0
  6
Continuous
 62
     7
370
     0
100
AcDbMText
 10
2492.7829442782
 20
79.0008727453
 30
0.0
 40
15.0
 41
0.0
 71
     1
 72
     1
  1
Blatt 1 von 1
  7
SLDTEXTSTYLE1
 73
     1
 44
1.0
  0
MTEXT
  5
96
330
1F
100
AcDbEntity
  8
0
  6
Continuous
 62
     7
370
     0
100
AcDbMText
 10
2830.1820125196
 20
142.1449358799
 30
0.0
 40
29.1041666667
 41
0.0
 71
     1
 72
     1
  1
A4
  7
SLDTEXTSTYLE0
 73
     1
 44
1.0
  0
MTEXT
  5
97
330
1F
100
AcDbEntity
  8
0
  6
Continuous
 62
     7
370
     0
100
AcDbMText
 10
2447.8572108176
 20
182.8771937365
 30
0.0
 40
52.9166666667
 41
0.0
 71
     2
 72
     1
  1
Feldmann GmbH
  7
SLDTEXTSTYLE0
 73
     1
 44
1.0
  0
MTEXT
  5
98
330
1F
100
AcDbEntity
  8
0
  6
Continuous
 62
     7
370
     0
100
AcDbMText
 10
1962.5434899658
 20
321.9836457437
 30
0.0
 40
15.0
 41
0.0
 71
     2
 72
     1
  1
Datum
  7
SLDTEXTSTYLE0
 73
     1
 44
1.0
  0
MTEXT
  5
99
330
1F
100
AcDbEntity
  8
0
  6
Continuous
 62
     7
370
     0
100
AcDbMText
 10
1800.2675095033
 20
258.7493046935
 30
0.0
 40
15.0
 41
0.0
 71
     1
 72
     1
  1
CH
  7
SLDTEXTSTYLE0
 73
     1
 44
1.0
  0
MTEXT
  5
9A
330
1F
100
AcDbEntity
  8
0
  6
Continuous
 62
     7
370
     0
100
AcDbMText
 10
1913.972993064
 20
258.7696708294
 30
0.0
 40
15.0
 41
0.0
 71
     1
 72
     1
  1
04.08.2014
  7
SLDTEXTSTYLE0
 73
     1
 44
1.0
  0
MTEXT
  5
9B
330
1F
100
AcDbEntity
  8
0
  6
Continuous
 62
     7
370
     0
100
AcDbMText
 10
1816.5453081347
 20
78.5235038592
 30
0.0
 40
15.0
 41
0.0
 71
     2
 72
     1
  1
Gewicht 1.155 kg
  7
SLDTEXTSTYLE0
 73
     1
 44
1.0
  0
MTEXT
  5
9C
330
1F
100
AcDbEntity
  8
0
  6
Continuous
 62
     7
370
     0
100
AcDbMText
 10
1817.3958841428
 20
155.6193253792
 30
0.0
 40
23.8125
 41
0.0
 71
     2
 72
     1
  1
1.4301 (X5CrNi18-10)
  7
SLDTEXTSTYLE0
 73
     1
 44
1.0
  0
MTEXT
  5
9D
330
1F
100
AcDbEntity
  8
0
  6
Continuous
 62
     7
370
     0
100
AcDbMText
 10
2306.409086557
 20
294.0595208934
 30
0.0
 40
42.3333333333
 41
0.0
 71
     2
 72
     1
  1
18310-240
  7
SLDTEXTSTYLE0
 73
     1
 44
1.0
  0
MTEXT
  5
9E
330
1F
100
AcDbEntity
  8
0
  6
Continuous
 62
     7
370
     0
100
AcDbMText
 10
1817.5300178247
 20
320.696743843
 30
0.0
 40
15.0
 41
0.0
 71
     2
 72
     1
  1
Signatur
  7
SLDTEXTSTYLE0
 73
     1
 44
1.0
  0
LINE
  5
9F
330
1F
100
AcDbEntity
  8
0
  6
Continuous
 62
     7
370
    15
100
AcDbLine
 10
503.0686780643
 20
1818.1287128713
 30
0.0
 11
503.0686780643
 21
1553.1287128713
 31
0.0
  0
LINE
  5
A0
330
1F
100
AcDbEntity
  8
0
  6
Continuous
 62
     7
370
    15
100
AcDbLine
 10
515.0686780643
 20
1553.1287128713
 30
0.0
 11
515.0686780643
 21
1818.1287128713
 31
0.0
  0
ARC
  5
A1
330
1F
100
AcDbEntity
  8
0
  6
Continuous
 62
     7
370
    15
100
AcDbCircle
 10
553.4643091322
 20
1553.1287128713
 30
0.0
 40
38.39563106796135
100
AcDbArc
 50
180.0
 51
242.4218652994
  0
ARC
  5
A2
330
1F
100
AcDbEntity
  8
0
  6
Continuous
 62
     7
370
    15
100
AcDbCircle
 10
553.4643091322
 20
1553.1287128713
 30
0.0
 40
50.39563106796156
100
AcDbArc
 50
180.0
 51
242.4218652994
  0
ARC
  5
A3
330
1F
100
AcDbEntity
  8
0
  6
Continuous
 62
     7
370
    15
100
AcDbCircle
 10
509.0686780643
 20
1468.1287128713
 30
0.0
 40
45.49999999999981
100
AcDbArc
 50
284.3270949317
 51
62.4218652994
  0
ARC
  5
A4
330
1F
100
AcDbEntity
  8
0
  6
Continuous
 62
     7
370
    15
100
AcDbCircle
 10
509.0686780643
 20
1468.1287128713
 30
0.0
 40
57.49999999999989
100
AcDbArc
 50
284.3270949317
 51
0.0
  0
ARC
  5
A5
330
1F
100
AcDbEntity
  8
0
  6
Continuous
 62
     7
370
    15
100
AcDbCircle
 10
509.0686780643
 20
1468.1287128713
 30
0.0
 40
57.49999999999998
100
AcDbArc
 50
0.0
 51
62.4218652994
  0
ARC
  5
A6
330
1F
100
AcDbEntity
  8
0
  6
Continuous
 62
     7
370
    15
100
AcDbCircle
 10
519.2846974817
 20
1428.1287128713
 30
0.0
 40
4.216019417475758
100
AcDbArc
 50
180.0
 51
284.3270949317
  0
ARC
  5
A7
330
1F
100
AcDbEntity
  8
0
  6
Continuous
 62
     7
370
    15
100
AcDbCircle
 10
519.2846974817
 20
1428.1287128713
 30
0.0
 40
16.21601941747589
100
AcDbArc
 50
180.0
 51
284.3270949317
  0
LINE
  5
A8
330
1F
100
AcDbEntity
  8
0
  6
Continuous
 62
     7
370
    15
100
AcDbLine
 10
515.0686780643
 20
1428.1287128713
 30
0.0
 11
515.0686780643
 21
1508.1287128713
 31
0.0
  0
LINE
  5
A9
330
1F
100
AcDbEntity
  8
0
  6
Continuous
 62
     7
370
    15
100
AcDbLine
 10
503.0686780643
 20
1508.1287128713
 30
0.0
 11
503.0686780643
 21
1428.1287128713
 31
0.0
  0
ARC
  5
AA
330
1F
100
AcDbEntity
  8
0
  6
Continuous
 62
     7
370
    15
100
AcDbCircle
 10
498.8526586468
 20
1508.1287128713
 30
0.0
 40
4.21601941747582
100
AcDbArc
 50
0.0
 51
104.3270949317
  0
ARC
  5
AB
330
1F
100
AcDbEntity
  8
0
  6
Continuous
 62
     7
370
    15
100
AcDbCircle
 10
498.8526586468
 20
1508.1287128713
 30
0.0
 40
16.21601941747589
100
AcDbArc
 50
0.0
 51
104.3270949317
  0
ARC
  5
AC
330
1F
100
AcDbEntity
  8
0
  6
Continuous
 62
     7
370
    15
100
AcDbCircle
 10
509.0686780643
 20
1468.1287128713
 30
0.0
 40
45.49999999999989
100
AcDbArc
 50
180.0
 51
242.4218652994
  0
ARC
  5
AD
330
1F
100
AcDbEntity
  8
0
  6
Continuous
 62
     7
370
    15
100
AcDbCircle
 10
509.0686780643
 20
1468.1287128713
 30
0.0
 40
45.49999999999989
100
AcDbArc
 50
104.3270949317
 51
180.0
  0
ARC
  5
AE
330
1F
100
AcDbEntity
  8
0
  6
Continuous
 62
     7
370
    15
100
AcDbCircle
 10
509.0686780643
 20
1468.1287128713
 30
0.0
 40
57.49999999999993
100
AcDbArc
 50
104.3270949317
 51
242.4218652994
  0
ARC
  5
AF
330
1F
100
AcDbEntity
  8
0
  6
Continuous
 62
     7
370
    15
100
AcDbCircle
 10
464.6730469963
 20
1383.1287128713
 30
0.0
 40
38.39563106796145
100
AcDbArc
 50
0.0
 51
62.4218652994
  0
ARC
  5
B0
330
1F
100
AcDbEntity
  8
0
  6
Continuous
 62
     7
370
    15
100
AcDbCircle
 10
464.6730469963
 20
1383.1287128713
 30
0.0
 40
50.39563106796144
100
AcDbArc
 50
0.0
 51
62.4218652994
  0
LINE
  5
B1
330
1F
100
AcDbEntity
  8
0
  6
Continuous
 62
     7
370
    15
100
AcDbLine
 10
515.0686780643
 20
818.1287128713
 30
0.0
 11
515.0686780643
 21
1383.1287128713
 31
0.0
  0
LINE
  5
B2
330
1F
100
AcDbEntity
  8
0
  6
Continuous
 62
     7
370
    15
100
AcDbLine
 10
503.0686780643
 20
1383.1287128713
 30
0.0
 11
503.0686780643
 21
818.1287128713
 31
0.0
  0
LINE
  5
B3
330
1F
100
AcDbEntity
  8
0
  6
Continuous
 62
     7
370
    15
100
AcDbLine
 10
509.0686780643
 20
1818.1287128713
 30
0.0
 11
515.0686780643
 21
1818.1287128713
 31
0.0
  0
LINE
  5
B4
330
1F
100
AcDbEntity
  8
0
  6
Continuous
 62
     7
370
    15
100
AcDbLine
 10
503.0686780643
 20
1818.1287128713
 30
0.0
 11
509.0686780643
 21
1818.1287128713
 31
0.0
  0
LINE
  5
B5
330
1F
100
AcDbEntity
  8
0
  6
Continuous
 62
     7
370
    15
100
AcDbLine
 10
509.0686780643
 20
818.1287128713
 30
0.0
 11
515.0686780643
 21
818.1287128713
 31
0.0
  0
LINE
  5
B6
330
1F
100
AcDbEntity
  8
0
  6
Continuous
 62
     7
370
    15
100
AcDbLine
 10
503.0686780643
 20
818.1287128713
 30
0.0
 11
509.0686780643
 21
818.1287128713
 31
0.0
  0
LINE
  5
B7
330
1F
100
AcDbEntity
  8
0
  6
Continuous
 62
     8
370
    15
100
AcDbLine
 10
509.0686780643
 20
1553.1287128713
 30
0.0
 11
515.0686780643
 21
1553.1287128713
 31
0.0
  0
LINE
  5
B8
330
1F
100
AcDbEntity
  8
0
  6
Continuous
 62
     8
370
    15
100
AcDbLine
 10
503.0686780643
 20
1553.1287128713
 30
0.0
 11
509.0686780643
 21
1553.1287128713
 31
0.0
  0
LINE
  5
B9
330
1F
100
AcDbEntity
  8
0
  6
Continuous
 62
     8
370
    15
100
AcDbLine
 10
532.911005129
 20
1513.7772992693
 30
0.0
 11
535.6887519715
 21
1519.0955811798
 31
0.0
  0
LINE
  5
BA
330
1F
100
AcDbEntity
  8
0
  6
Continuous
 62
     8
370
    15
100
AcDbLine
 10
530.1332582865
 20
1508.4590173589
 30
0.0
 11
532.911005129
 21
1513.7772992693
 31
0.0
  0
LINE
  5
BB
330
1F
100
AcDbEntity
  8
0
  6
Continuous
 62
     8
370
    15
100
AcDbLine
 10
521.8127253334
 20
1418.2304237302
 30
0.0
 11
523.2974687045
 21
1412.4170308206
 31
0.0
  0
LINE
  5
BC
330
1F
100
AcDbEntity
  8
0
  6
Continuous
 62
     8
370
    15
100
AcDbLine
 10
520.3279819622
 20
1424.0438166399
 30
0.0
 11
521.8127253334
 21
1418.2304237302
 31
0.0
  0
LINE
  5
BD
330
1F
100
AcDbEntity
  8
0
  6
Continuous
 62
     8
370
    15
100
AcDbLine
 10
509.0686780643
 20
1428.1287128713
 30
0.0
 11
503.0686780643
 21
1428.1287128713
 31
0.0
  0
LINE
  5
BE
330
1F
100
AcDbEntity
  8
0
  6
Continuous
 62
     8
370
    15
100
AcDbLine
 10
515.0686780643
 20
1428.1287128713
 30
0.0
 11
509.0686780643
 21
1428.1287128713
 31
0.0
  0
LINE
  5
BF
330
1F
100
AcDbEntity
  8
0
  6
Continuous
 62
     8
370
    15
100
AcDbLine
 10
509.0686780643
 20
1508.1287128713
 30
0.0
 11
503.0686780643
 21
1508.1287128713
 31
0.0
  0
LINE
  5
C0
330
1F
100
AcDbEntity
  8
0
  6
Continuous
 62
     8
370
    15
100
AcDbLine
 10
515.0686780643
 20
1508.1287128713
 30
0.0
 11
509.0686780643
 21
1508.1287128713
 31
0.0
  0
LINE
  5
C1
330
1F
100
AcDbEntity
  8
0
  6
Continuous
 62
     8
370
    15
100
AcDbLine
 10
496.3246307952
 20
1518.0270020123
 30
0.0
 11
497.8093741663
 21
1512.2136091027
 31
0.0
  0
LINE
  5
C2
330
1F
100
AcDbEntity
  8
0
  6
Continuous
 62
     8
370
    15
100
AcDbLine
 10
494.839887424
 20
1523.840394922
 30
0.0
 11
496.3246307952
 21
1518.0270020123
 31
0.0
  0
LINE
  5
C3
330
1F
100
AcDbEntity
  8
0
  6
Continuous
 62
     8
370
    15
100
AcDbLine
 10
485.2263509995
 20
1422.4801264733
 30
0.0
 11
488.004097842
 21
1427.7984083837
 31
0.0
  0
LINE
  5
C4
330
1F
100
AcDbEntity
  8
0
  6
Continuous
 62
     8
370
    15
100
AcDbLine
 10
482.4486041571
 20
1417.1618445628
 30
0.0
 11
485.2263509995
 21
1422.4801264733
 31
0.0
  0
LINE
  5
C5
330
1F
100
AcDbEntity
  8
0
  6
Continuous
 62
     8
370
    15
100
AcDbLine
 10
509.0686780643
 20
1383.1287128713
 30
0.0
 11
515.0686780643
 21
1383.1287128713
 31
0.0
  0
LINE
  5
C6
330
1F
100
AcDbEntity
  8
0
  6
Continuous
 62
     8
370
    15
100
AcDbLine
 10
503.0686780643
 20
1383.1287128713
 30
0.0
 11
509.0686780643
 21
1383.1287128713
 31
0.0
  0
LINE
  5
C7
330
1F
100
AcDbEntity
  8
0
  6
Continuous
 62
     7
370
     0
100
AcDbLine
 10
451.2686780643
 20
1468.1287128713
 30
0.0
 11
451.5686780643
 21
1468.1287128713
 31
0.0
  0
LINE
  5
C8
330
1F
100
AcDbEntity
  8
0
  6
Continuous
 62
     7
370
     0
100
AcDbLine
 10
566.5686780643
 20
1468.1287128713
 30
0.0
 11
566.7807017774
 21
1468.1287128713
 31
0.0
  0
LINE
  5
C9
330
1F
100
AcDbEntity
  8
0
  6
Continuous
 62
     7
370
    15
100
AcDbLine
 10
1199.7815493514
 20
1418.2304237302
 30
0.0
 11
1199.7815493514
 21
1513.7772992693
 31
0.0
  0
LINE
  5
CA
330
1F
100
AcDbEntity
  8
0
  6
Continuous
 62
     7
370
    15
100
AcDbLine
 10
1187.7815493514
 20
1513.7772992693
 30
0.0
 11
1187.7815493514
 21
1418.2304237302
 31
0.0
  0
LINE
  5
CB
330
1F
100
AcDbEntity
  8
0
  6
Continuous
 62
     7
370
    15
100
AcDbLine
 10
1187.7815493514
 20
1553.1287128713
 30
0.0
 11
1187.7815493514
 21
1513.7772992693
 31
0.0
  0
LINE
  5
CC
330
1F
100
AcDbEntity
  8
0
  6
Continuous
 62
     7
370
    15
100
AcDbLine
 10
1199.7815493514
 20
1513.7772992693
 30
0.0
 11
1199.7815493514
 21
1553.1287128713
 31
0.0
  0
ARC
  5
CD
330
1F
100
AcDbEntity
  8
0
  6
Continuous
 62
     7
370
    15
100
AcDbCircle
 10
1193.7815493514
 20
1417.9126934538
 30
0.0
 40
6.0
100
AcDbArc
 50
180.0
 51
0.0
  0
LINE
  5
CE
330
1F
100
AcDbEntity
  8
0
  6
Continuous
 62
     7
370
    15
100
AcDbLine
 10
1199.7815493514
 20
1417.9126934538
 30
0.0
 11
1199.7815493514
 21
1418.2304237302
 31
0.0
  0
LINE
  5
CF
330
1F
100
AcDbEntity
  8
0
  6
Continuous
 62
     7
370
    15
100
AcDbLine
 10
1187.7815493514
 20
1418.2304237302
 30
0.0
 11
1187.7815493514
 21
1417.9126934538
 31
0.0
  0
LINE
  5
D0
330
1F
100
AcDbEntity
  8
0
  6
Continuous
 62
     7
370
    15
100
AcDbLine
 10
1199.7815493514
 20
818.1287128713
 30
0.0
 11
1199.7815493514
 21
1383.1287128713
 31
0.0
  0
LINE
  5
D1
330
1F
100
AcDbEntity
  8
0
  6
Continuous
 62
     7
370
    15
100
AcDbLine
 10
1187.7815493514
 20
1383.1287128713
 30
0.0
 11
1187.7815493514
 21
818.1287128713
 31
0.0
  0
LINE
  5
D2
330
1F
100
AcDbEntity
  8
0
  6
Continuous
 62
     7
370
    15
100
AcDbLine
 10
1199.7815493514
 20
1383.1287128713
 30
0.0
 11
1199.7815493514
 21
1417.9126934538
 31
0.0
  0
LINE
  5
D3
330
1F
100
AcDbEntity
  8
0
  6
Continuous
 62
     7
370
    15
100
AcDbLine
 10
1187.7815493514
 20
1417.9126934538
 30
0.0
 11
1187.7815493514
 21
1383.1287128713
 31
0.0
  0
LINE
  5
D4
330
1F
100
AcDbEntity
  8
0
  6
Continuous
 62
     7
370
    15
100
AcDbLine
 10
1187.7815493514
 20
1818.1287128713
 30
0.0
 11
1187.7815493514
 21
1553.1287128713
 31
0.0
  0
LINE
  5
D5
330
1F
100
AcDbEntity
  8
0
  6
Continuous
 62
     7
370
    15
100
AcDbLine
 10
1199.7815493514
 20
1553.1287128713
 30
0.0
 11
1199.7815493514
 21
1818.1287128713
 31
0.0
  0
LINE
  5
D6
330
1F
100
AcDbEntity
  8
0
  6
Continuous
 62
     7
370
    15
100
AcDbLine
 10
1187.7815493514
 20
818.1287128713
 30
0.0
 11
1199.7815493514
 21
818.1287128713
 31
0.0
  0
LINE
  5
D7
330
1F
100
AcDbEntity
  8
0
  6
Continuous
 62
     7
370
    15
100
AcDbLine
 10
1187.7815493514
 20
1818.1287128713
 30
0.0
 11
1199.7815493514
 21
1818.1287128713
 31
0.0
  0
LWPOLYLINE
  5
D8
330
1F
100
AcDbEntity
  8
0
  6
Continuous
 62
     8
370
    15
100
AcDbPolyline
 90
       14
 70
   128
 43
0.0
 10
1187.7815493514
 20
1513.7772992693
 10
1187.9700503846
 20
1515.0999021975
 10
1188.5237092711
 20
1516.3394011196
 10
1189.4077375869
 20
1517.4179137596
 10
1190.5665885815
 20
1518.267673202
 10
1191.9274473851
 20
1518.8352859358
 10
1193.4048062342
 20
1519.0850867653
 10
1194.9058372389
 20
1519.0013797857
 10
1196.3362251008
 20
1518.5894246145
 10
1197.6060932899
 20
1517.8751059101
 10
1198.6356513176
 20
1516.9033069438
 10
1199.3602082667
 20
1515.7350894187
 10
1199.7342375593
 20
1514.4438567382
 10
1199.7815493514
 20
1513.7772992693
  0
ARC
  5
D9
330
1F
100
AcDbEntity
  8
0
  6
Continuous
 62
     8
370
    15
100
AcDbCircle
 10
1193.7815493514
 20
1418.3729172594
 30
0.0
 40
6.001691795306878
100
AcDbArc
 50
181.3604572388
 51
358.6395427612
  0
LINE
  5
DA
330
1F
100
AcDbEntity
  8
0
  6
Continuous
 62
     8
370
    15
100
AcDbLine
 10
1187.7815493514
 20
1553.1287128713
 30
0.0
 11
1199.7815493514
 21
1553.1287128713
 31
0.0
  0
LINE
  5
DB
330
1F
100
AcDbEntity
  8
0
  6
Continuous
 62
     8
370
    15
100
AcDbLine
 10
1187.7815493514
 20
1383.1287128713
 30
0.0
 11
1199.7815493514
 21
1383.1287128713
 31
0.0
  0
LINE
  5
DC
330
1F
100
AcDbEntity
  8
0
  6
Continuous
 62
     7
370
    15
100
AcDbLine
 10
509.0686780643
 20
463.8118811881
 30
0.0
 11
532.911005129
 21
463.8118811881
 31
0.0
  0
LINE
  5
DD
330
1F
100
AcDbEntity
  8
0
  6
Continuous
 62
     7
370
    15
100
AcDbLine
 10
532.911005129
 20
475.8118811881
 30
0.0
 11
509.0686780643
 21
475.8118811881
 31
0.0
  0
LINE
  5
DE
330
1F
100
AcDbEntity
  8
0
  6
Continuous
 62
     7
370
    15
100
AcDbLine
 10
496.3246307952
 20
463.8118811881
 30
0.0
 11
509.0686780643
 21
463.8118811881
 31
0.0
  0
LINE
  5
DF
330
1F
100
AcDbEntity
  8
0
  6
Continuous
 62
     7
370
    15
100
AcDbLine
 10
509.0686780643
 20
475.8118811881
 30
0.0
 11
496.3246307952
 21
475.8118811881
 31
0.0
  0
ARC
  5
E0
330
1F
100
AcDbEntity
  8
0
  6
Continuous
 62
     7
370
    15
100
AcDbCircle
 10
457.5686780643
 20
469.8118811881
 30
0.0
 40
6.000000000000057
100
AcDbArc
 50
90.0
 51
270.0
  0
LINE
  5
E1
330
1F
100
AcDbEntity
  8
0
  6
Continuous
 62
     7
370
    15
100
AcDbLine
 10
457.5686780643
 20
463.8118811881
 30
0.0
 11
496.3246307952
 21
463.8118811881
 31
0.0
  0
LINE
  5
E2
330
1F
100
AcDbEntity
  8
0
  6
Continuous
 62
     7
370
    15
100
AcDbLine
 10
496.3246307952
 20
475.8118811881
 30
0.0
 11
457.5686780643
 21
475.8118811881
 31
0.0
  0
ARC
  5
E3
330
1F
100
AcDbEntity
  8
0
  6
Continuous
 62
     7
370
    15
100
AcDbCircle
 10
560.5686780643
 20
469.8118811881
 30
0.0
 40
6.000000000000057
100
AcDbArc
 50
270.0
 51
90.0
  0
LINE
  5
E4
330
1F
100
AcDbEntity
  8
0
  6
Continuous
 62
     7
370
    15
100
AcDbLine
 10
560.5686780643
 20
475.8118811881
 30
0.0
 11
532.911005129
 21
475.8118811881
 31
0.0
  0
LINE
  5
E5
330
1F
100
AcDbEntity
  8
0
  6
Continuous
 62
     7
370
    15
100
AcDbLine
 10
532.911005129
 20
463.8118811881
 30
0.0
 11
560.5686780643
 21
463.8118811881
 31
0.0
  0
LINE
  5
E6
330
1F
100
AcDbEntity
  8
0
  6
Continuous
 62
     7
370
    15
100
AcDbLine
 10
512.6558174873
 20
470.1614258763
 30
0.0
 11
512.6558174873
 21
469.8118811881
 31
0.0
  0
LINE
  5
E7
330
1F
100
AcDbEntity
  8
0
  6
Continuous
 62
     7
370
    15
100
AcDbLine
 10
513.2663944104
 20
469.8118811881
 30
0.0
 11
513.2663944104
 21
470.2666337923
 31
0.0
  0
LINE
  5
E8
330
1F
100
AcDbEntity
  8
0
  6
Continuous
 62
     7
370
    15
100
AcDbLine
 10
513.385117701
 20
469.8118811881
 30
0.0
 11
513.2663944104
 21
469.8118811881
 31
0.0
  0
LINE
  5
E9
330
1F
100
AcDbEntity
  8
0
  6
Continuous
 62
     7
370
    15
100
AcDbLine
 10
512.6558174873
 20
470.778627983
 30
0.0
 11
512.6558174873
 21
470.6042531499
 31
0.0
  0
LINE
  5
EA
330
1F
100
AcDbEntity
  8
0
  6
Continuous
 62
     7
370
    15
100
AcDbLine
 10
512.5370941967
 20
470.778627983
 30
0.0
 11
512.6558174873
 21
470.778627983
 31
0.0
  0
LINE
  5
EB
330
1F
100
AcDbEntity
  8
0
  6
Continuous
 62
     7
370
    15
100
AcDbLine
 10
512.5370941967
 20
469.8118811881
 30
0.0
 11
512.5370941967
 21
470.778627983
 31
0.0
  0
LINE
  5
EC
330
1F
100
AcDbEntity
  8
0
  6
Continuous
 62
     7
370
    15
100
AcDbLine
 10
512.6558174873
 20
469.8118811881
 30
0.0
 11
512.5370941967
 21
469.8118811881
 31
0.0
  0
LINE
  5
ED
330
1F
100
AcDbEntity
  8
0
  6
Continuous
 62
     7
370
    15
100
AcDbLine
 10
511.0276123591
 20
469.8118811881
 30
0.0
 11
511.0276123591
 21
469.9791008229
 31
0.0
  0
LINE
  5
EE
330
1F
100
AcDbEntity
  8
0
  6
Continuous
 62
     7
370
    15
100
AcDbLine
 10
511.1463356497
 20
469.8118811881
 30
0.0
 11
511.0276123591
 21
469.8118811881
 31
0.0
  0
LINE
  5
EF
330
1F
100
AcDbEntity
  8
0
  6
Continuous
 62
     7
370
    15
100
AcDbLine
 10
511.1463356497
 20
470.778627983
 30
0.0
 11
511.1463356497
 21
469.8118811881
 31
0.0
  0
LINE
  5
F0
330
1F
100
AcDbEntity
  8
0
  6
Continuous
 62
     7
370
    15
100
AcDbLine
 10
511.0276123591
 20
470.778627983
 30
0.0
 11
511.1463356497
 21
470.778627983
 31
0.0
  0
LINE
  5
F1
330
1F
100
AcDbEntity
  8
0
  6
Continuous
 62
     7
370
    15
100
AcDbLine
 10
511.0276123591
 20
470.5997480251
 30
0.0
 11
511.0276123591
 21
470.778627983
 31
0.0
  0
LINE
  5
F2
330
1F
100
AcDbEntity
  8
0
  6
Continuous
 62
     7
370
    15
100
AcDbLine
 10
508.1782533848
 20
471.168718795
 30
0.0
 11
508.1782533848
 21
469.8118811881
 31
0.0
  0
LINE
  5
F3
330
1F
100
AcDbEntity
  8
0
  6
Continuous
 62
     7
370
    15
100
AcDbLine
 10
508.0595300942
 20
471.168718795
 30
0.0
 11
508.1782533848
 21
471.168718795
 31
0.0
  0
LINE
  5
F4
330
1F
100
AcDbEntity
  8
0
  6
Continuous
 62
     7
370
    15
100
AcDbLine
 10
508.0595300942
 20
470.5915327974
 30
0.0
 11
508.0595300942
 21
471.168718795
 31
0.0
  0
LINE
  5
F5
330
1F
100
AcDbEntity
  8
0
  6
Continuous
 62
     7
370
    15
100
AcDbLine
 10
506.5839691967
 20
470.2698138804
 30
0.0
 11
505.7189852224
 21
470.2698138804
 31
0.0
  0
LINE
  5
F6
330
1F
100
AcDbEntity
  8
0
  6
Continuous
 62
     7
370
    15
100
AcDbLine
 10
506.4276148631
 20
470.1171696497
 30
0.0
 11
506.5330877865
 21
470.0617831145
 31
0.0
  0
CIRCLE
  5
F7
330
1F
100
AcDbEntity
  8
0
  6
Continuous
 62
     7
370
    15
100
AcDbCircle
 10
509.0686780643
 20
469.8118811881
 30
0.0
 40
6.0
  0
LINE
  5
F8
330
1F
100
AcDbEntity
  8
0
  6
Continuous
 62
     7
370
    15
100
AcDbLine
 10
504.9048826583
 20
470.4563790514
 30
0.0
 11
504.9048826583
 21
469.8118811881
 31
0.0
  0
LINE
  5
F9
330
1F
100
AcDbEntity
  8
0
  6
Continuous
 62
     7
370
    15
100
AcDbLine
 10
505.4306572309
 20
470.9991140941
 30
0.0
 11
504.9048826583
 21
470.9991140941
 31
0.0
  0
LINE
  5
FA
330
1F
100
AcDbEntity
  8
0
  6
Continuous
 62
     7
370
    15
100
AcDbLine
 10
505.4306572309
 20
471.1347978548
 30
0.0
 11
505.4306572309
 21
470.9991140941
 31
0.0
  0
LINE
  5
FB
330
1F
100
AcDbEntity
  8
0
  6
Continuous
 62
     7
370
    15
100
AcDbLine
 10
504.7861593677
 20
471.1347978548
 30
0.0
 11
505.4306572309
 21
471.1347978548
 31
0.0
  0
LINE
  5
FC
330
1F
100
AcDbEntity
  8
0
  6
Continuous
 62
     7
370
    15
100
AcDbLine
 10
504.7861593677
 20
469.8118811881
 30
0.0
 11
504.7861593677
 21
471.1347978548
 31
0.0
  0
LINE
  5
FD
330
1F
100
AcDbEntity
  8
0
  6
Continuous
 62
     7
370
    15
100
AcDbLine
 10
504.9048826583
 20
469.8118811881
 30
0.0
 11
504.7861593677
 21
469.8118811881
 31
0.0
  0
LINE
  5
FE
330
1F
100
AcDbEntity
  8
0
  6
Continuous
 62
     7
370
    15
100
AcDbLine
 10
506.9231785985
 20
471.168718795
 30
0.0
 11
506.9231785985
 21
469.8118811881
 31
0.0
  0
LINE
  5
FF
330
1F
100
AcDbEntity
  8
0
  6
Continuous
 62
     7
370
    15
100
AcDbLine
 10
506.8044553079
 20
471.168718795
 30
0.0
 11
506.9231785985
 21
471.168718795
 31
0.0
  0
LINE
  5
100
330
1F
100
AcDbEntity
  8
0
  6
Continuous
 62
     7
370
    15
100
AcDbLine
 10
506.9231785985
 20
469.8118811881
 30
0.0
 11
506.8044553079
 21
469.8118811881
 31
0.0
  0
LINE
  5
101
330
1F
100
AcDbEntity
  8
0
  6
Continuous
 62
     7
370
    15
100
AcDbLine
 10
509.1110792395
 20
469.8118811881
 30
0.0
 11
509.1110792395
 21
470.3034698133
 31
0.0
  0
LINE
  5
102
330
1F
100
AcDbEntity
  8
0
  6
Continuous
 62
     7
370
    15
100
AcDbLine
 10
509.2298025301
 20
469.8118811881
 30
0.0
 11
509.1110792395
 21
469.8118811881
 31
0.0
  0
LINE
  5
103
330
1F
100
AcDbEntity
  8
0
  6
Continuous
 62
     7
370
    15
100
AcDbLine
 10
509.7725375728
 20
469.8118811881
 30
0.0
 11
509.7725375728
 21
470.3360657167
 31
0.0
  0
LINE
  5
104
330
1F
100
AcDbEntity
  8
0
  6
Continuous
 62
     7
370
    15
100
AcDbLine
 10
509.8912608634
 20
469.8118811881
 30
0.0
 11
509.7725375728
 21
469.8118811881
 31
0.0
  0
LINE
  5
105
330
1F
100
AcDbEntity
  8
0
  6
Continuous
 62
     7
370
    15
100
AcDbLine
 10
508.5683441967
 20
470.778627983
 30
0.0
 11
508.5683441967
 21
470.6106133262
 31
0.0
  0
LINE
  5
106
330
1F
100
AcDbEntity
  8
0
  6
Continuous
 62
     7
370
    15
100
AcDbLine
 10
508.4496209061
 20
470.778627983
 30
0.0
 11
508.5683441967
 21
470.778627983
 31
0.0
  0
LINE
  5
107
330
1F
100
AcDbEntity
  8
0
  6
Continuous
 62
     7
370
    15
100
AcDbLine
 10
508.4496209061
 20
469.8118811881
 30
0.0
 11
508.4496209061
 21
470.778627983
 31
0.0
  0
LINE
  5
108
330
1F
100
AcDbEntity
  8
0
  6
Continuous
 62
     7
370
    15
100
AcDbLine
 10
508.5683441967
 20
469.8118811881
 30
0.0
 11
508.4496209061
 21
469.8118811881
 31
0.0
  0
LINE
  5
109
330
1F
100
AcDbEntity
  8
0
  6
Continuous
 62
     7
370
    15
100
AcDbLine
 10
511.5364264617
 20
470.1614258763
 30
0.0
 11
511.5364264617
 21
469.8118811881
 31
0.0
  0
LINE
  5
10A
330
1F
100
AcDbEntity
  8
0
  6
Continuous
 62
     7
370
    15
100
AcDbLine
 10
512.1470033848
 20
469.8118811881
 30
0.0
 11
512.1470033848
 21
470.2666337923
 31
0.0
  0
LINE
  5
10B
330
1F
100
AcDbEntity
  8
0
  6
Continuous
 62
     7
370
    15
100
AcDbLine
 10
512.2657266754
 20
469.8118811881
 30
0.0
 11
512.1470033848
 21
469.8118811881
 31
0.0
  0
LINE
  5
10C
330
1F
100
AcDbEntity
  8
0
  6
Continuous
 62
     7
370
    15
100
AcDbLine
 10
511.5364264617
 20
470.778627983
 30
0.0
 11
511.5364264617
 21
470.6042531499
 31
0.0
  0
LINE
  5
10D
330
1F
100
AcDbEntity
  8
0
  6
Continuous
 62
     7
370
    15
100
AcDbLine
 10
511.4177031711
 20
470.778627983
 30
0.0
 11
511.5364264617
 21
470.778627983
 31
0.0
  0
LINE
  5
10E
330
1F
100
AcDbEntity
  8
0
  6
Continuous
 62
     7
370
    15
100
AcDbLine
 10
511.5364264617
 20
469.8118811881
 30
0.0
 11
511.4177031711
 21
469.8118811881
 31
0.0
  0
LINE
  5
10F
330
1F
100
AcDbEntity
  8
0
  6
Continuous
 62
     7
370
    15
100
AcDbLine
 10
508.0595300942
 20
469.8118811881
 30
0.0
 11
508.0595300942
 21
469.9791008229
 31
0.0
  0
LINE
  5
110
330
1F
100
AcDbEntity
  8
0
  6
Continuous
 62
     7
370
    15
100
AcDbLine
 10
508.1782533848
 20
469.8118811881
 30
0.0
 11
508.0595300942
 21
469.8118811881
 31
0.0
  0
LINE
  5
111
330
1F
100
AcDbEntity
  8
0
  6
Continuous
 62
     7
370
    15
100
AcDbLine
 10
513.385117701
 20
470.305589872
 30
0.0
 11
513.385117701
 21
469.8118811881
 31
0.0
  0
LINE
  5
112
330
1F
100
AcDbEntity
  8
0
  6
Continuous
 62
     7
370
    15
100
AcDbLine
 10
509.2298025301
 20
470.1879266108
 30
0.0
 11
509.2298025301
 21
469.8118811881
 31
0.0
  0
LINE
  5
113
330
1F
100
AcDbEntity
  8
0
  6
Continuous
 62
     7
370
    15
100
AcDbLine
 10
504.9048826583
 20
470.5920628121
 30
0.0
 11
505.4306572309
 21
470.5920628121
 31
0.0
  0
LINE
  5
114
330
1F
100
AcDbEntity
  8
0
  6
Continuous
 62
     7
370
    15
100
AcDbLine
 10
505.4306572309
 20
470.4563790514
 30
0.0
 11
504.9048826583
 21
470.4563790514
 31
0.0
  0
LINE
  5
115
330
1F
100
AcDbEntity
  8
0
  6
Continuous
 62
     7
370
    15
100
AcDbLine
 10
504.9048826583
 20
470.9991140941
 30
0.0
 11
504.9048826583
 21
470.5920628121
 31
0.0
  0
LINE
  5
116
330
1F
100
AcDbEntity
  8
0
  6
Continuous
 62
     7
370
    15
100
AcDbLine
 10
505.4306572309
 20
470.5920628121
 30
0.0
 11
505.4306572309
 21
470.4563790514
 31
0.0
  0
LINE
  5
117
330
1F
100
AcDbEntity
  8
0
  6
Continuous
 62
     7
370
    15
100
AcDbLine
 10
506.8044553079
 20
469.8118811881
 30
0.0
 11
506.8044553079
 21
471.168718795
 31
0.0
  0
LINE
  5
118
330
1F
100
AcDbEntity
  8
0
  6
Continuous
 62
     7
370
    15
100
AcDbLine
 10
511.4177031711
 20
469.8118811881
 30
0.0
 11
511.4177031711
 21
470.778627983
 31
0.0
  0
SPLINE
  5
119
330
1F
100
AcDbEntity
  8
0
  6
Continuous
 62
     7
370
    15
100
AcDbSpline
210
0.0
220
0.0
230
1.0
 70
     8
 71
     3
 72
    15
 73
    11
 74
     0
 42
0.000000001
 43
0.00000001
 40
0.0
 40
0.0
 40
0.0
 40
0.0
 40
0.140975966268771
 40
0.2735687809631695
 40
0.3989883138042537
 40
0.5199297813924317
 40
0.6381100215247456
 40
0.7565889007405953
 40
0.8768597544106077
 40
0.9999999999999999
 40
0.9999999999999999
 40
0.9999999999999999
 40
0.9999999999999999
 10
511.5364264617006
 20
470.6042531499244
 30
0.0
 10
511.5491028892654
 20
470.6200687029017
 30
0.0
 10
511.5737019392145
 20
470.6507593352327
 30
0.0
 10
511.6146686366133
 20
470.6910971714503
 30
0.0
 10
511.6579635036995
 20
470.7243383725834
 30
0.0
 10
511.7033214038271
 20
470.7508359375564
 30
0.0
 10
511.7508039106208
 20
470.7708107039875
 30
0.0
 10
511.8001215900414
 20
470.7852365172253
 30
0.0
 10
511.8515697081162
 20
470.7938864375364
 30
0.0
 10
511.8865568613393
 20
470.7950166733937
 30
0.0
 10
511.9042566566792
 20
470.7955884530761
 30
0.0
  0
SPLINE
  5
11A
330
1F
100
AcDbEntity
  8
0
  6
Continuous
 62
     7
370
    15
100
AcDbSpline
210
0.0
220
0.0
230
1.0
 70
     8
 71
     3
 72
    15
 73
    11
 74
     0
 42
0.000000001
 43
0.00000001
 40
0.0
 40
0.0
 40
0.0
 40
0.0
 40
0.1409759662687709
 40
0.2735687809631692
 40
0.3989883138042533
 40
0.5199297813924313
 40
0.6381100215247449
 40
0.7565889007405945
 40
0.8768597544106068
 40
0.9999999999999999
 40
0.9999999999999999
 40
0.9999999999999999
 40
0.9999999999999999
 10
512.6558174873416
 20
470.6042531499244
 30
0.0
 10
512.6684939149064
 20
470.6200687029017
 30
0.0
 10
512.6930929648556
 20
470.6507593352327
 30
0.0
 10
512.7340596622543
 20
470.6910971714503
 30
0.0
 10
512.7773545293405
 20
470.7243383725834
 30
0.0
 10
512.8227124294681
 20
470.7508359375564
 30
0.0
 10
512.8701949362619
 20
470.7708107039875
 30
0.0
 10
512.9195126156824
 20
470.7852365172253
 30
0.0
 10
512.9709607337572
 20
470.7938864375364
 30
0.0
 10
513.0059478869803
 20
470.7950166733937
 30
0.0
 10
513.0236476823202
 20
470.7955884530761
 30
0.0
  0
SPLINE
  5
11B
330
1F
100
AcDbEntity
  8
0
  6
Continuous
 62
     7
370
    15
100
AcDbSpline
210
0.0
220
0.0
230
1.0
 70
     8
 71
     3
 72
    19
 73
    15
 74
     0
 42
0.000000001
 43
0.00000001
 40
0.0
 40
0.0
 40
0.0
 40
0.0
 40
0.0933698567361952
 40
0.1816607660710048
 40
0.2658742270426187
 40
0.3463547840343077
 40
0.4245998617178937
 40
0.501903183837377
 40
0.579992090987348
 40
0.6584434305294311
 40
0.7386722364878345
 40
0.821894148436244
 40
0.9088007920466156
 40
0.9999999999999999
 40
0.9999999999999999
 40
0.9999999999999999
 40
0.9999999999999999
 10
506.5330877864869
 20
470.0617831145344
 30
0.0
 10
506.5246828829289
 20
470.0468744744393
 30
0.0
 10
506.5083302690077
 20
470.0178681647433
 30
0.0
 10
506.4802085577513
 20
469.9780174317673
 30
0.0
 10
506.4507294112709
 20
469.9421672534592
 30
0.0
 10
506.4185621376504
 20
469.911275390084
 30
0.0
 10
506.3846691339982
 20
469.8843440630253
 30
0.0
 10
506.3488624460286
 20
469.8607818495155
 30
0.0
 10
506.3109556607536
 20
469.8407043135514
 30
0.0
 10
506.270946985019
 20
469.8237889235519
 30
0.0
 10
506.2285004284863
 20
469.8107829540528
 30
0.0
 10
506.183513129129
 20
469.8015965372165
 30
0.0
 10
506.1358989031971
 20
469.7959180993636
 30
0.0
 10
506.1032621030685
 20
469.7952584777008
 30
0.0
 10
506.0865504100179
 20
469.7949207180334
 30
0.0
  0
SPLINE
  5
11C
330
1F
100
AcDbEntity
  8
0
  6
Continuous
 62
     7
370
    15
100
AcDbSpline
210
0.0
220
0.0
230
1.0
 70
     8
 71
     3
 72
    15
 73
    11
 74
     0
 42
0.000000001
 43
0.00000001
 40
0.0
 40
0.0
 40
0.0
 40
0.0
 40
0.1320402344259815
 40
0.2590328407793701
 40
0.3818798239250169
 40
0.502258443714985
 40
0.6227521895274793
 40
0.7447426318590014
 40
0.8701089273418184
 40
1.0
 40
1.0
 40
1.0
 40
1.0
 10
506.0894654908138
 20
470.7955884530761
 30
0.0
 10
506.109289436866
 20
470.795076654834
 30
0.0
 10
506.1481795000632
 20
470.7940726233497
 30
0.0
 10
506.2048880696217
 20
470.7847644556623
 30
0.0
 10
506.258545840457
 20
470.7700035198601
 30
0.0
 10
506.3091313405975
 20
470.7491567002364
 30
0.0
 10
506.3566496986797
 20
470.7222600839347
 30
0.0
 10
506.4007920447987
 20
470.6889445664701
 30
0.0
 10
506.4423133010299
 20
470.650232968025
 30
0.0
 10
506.4664692222033
 20
470.6204623501759
 30
0.0
 10
506.4787612807443
 20
470.6053131793047
 30
0.0
  0
LINE
  5
11D
330
1F
100
AcDbEntity
  8
0
  6
Continuous
 62
     7
370
    15
100
AcDbLine
 10
508.5683441967
 20
470.2186674628
 30
0.0
 11
508.5683441967
 21
469.8118811881
 31
0.0
  0
SPLINE
  5
11E
330
1F
100
AcDbEntity
  8
0
  6
Continuous
 62
     7
370
    15
100
AcDbSpline
210
0.0
220
0.0
230
1.0
 70
     8
 71
     3
 72
    15
 73
    11
 74
     0
 42
0.000000001
 43
0.00000001
 40
0.0
 40
0.0
 40
0.0
 40
0.0
 40
0.1280448079611199
 40
0.2537679000244898
 40
0.3774284265813012
 40
0.5005508414825327
 40
0.6232958832424765
 40
0.7465783319335079
 40
0.8723475406047168
 40
1.0
 40
1.0
 40
1.0
 40
1.0
 10
505.6002619317861
 20
470.2926045121039
 30
0.0
 10
505.6006622619914
 20
470.3074570224106
 30
0.0
 10
505.6014556635914
 20
470.3368927364439
 30
0.0
 10
505.6064565862075
 20
470.3804603678587
 30
0.0
 10
505.6153194826945
 20
470.4228044555704
 30
0.0
 10
505.6274813670443
 20
470.4639601844157
 30
0.0
 10
505.6431867487862
 20
470.5038586457728
 30
0.0
 10
505.662400117359
 20
470.5425241222018
 30
0.0
 10
505.6851514030113
 20
470.5799154697086
 30
0.0
 10
505.702716967199
 20
470.6035023684612
 30
0.0
 10
505.711565016722
 20
470.615383458418
 30
0.0
  0
SPLINE
  5
11F
330
1F
100
AcDbEntity
  8
0
  6
Continuous
 62
     7
370
    15
100
AcDbSpline
210
0.0
220
0.0
230
1.0
 70
     8
 71
     3
 72
    19
 73
    15
 74
     0
 42
0.000000001
 43
0.00000001
 40
0.0
 40
0.0
 40
0.0
 40
0.0
 40
0.0825922633314363
 40
0.1638788940984966
 40
0.2456587396295034
 40
0.327725695354122
 40
0.4086099609103186
 40
0.4857490859539308
 40
0.5591690561972783
 40
0.6302684758575456
 40
0.7053060284320706
 40
0.792064966096608
 40
0.8897964374100897
 40
0.9999999999999999
 40
0.9999999999999999
 40
0.9999999999999999
 40
0.9999999999999999
 10
506.0717099986931
 20
469.9136440086316
 30
0.0
 10
506.0835599860315
 20
469.9138738395715
 30
0.0
 10
506.1070726340904
 20
469.9143298682447
 30
0.0
 10
506.1420886724314
 20
469.9187642512379
 30
0.0
 10
506.1765372437997
 20
469.9259345637494
 30
0.0
 10
506.2102757702132
 20
469.9357203635727
 30
0.0
 10
506.2426195125686
 20
469.9476556618393
 30
0.0
 10
506.272572443693
 20
469.9620576348197
 30
0.0
 10
506.3001194299564
 20
469.9779892355231
 30
0.0
 10
506.3258660214934
 20
469.996211344842
 30
0.0
 10
506.3508392838617
 20
470.0185150345723
 30
0.0
 10
506.375612783191
 20
470.0463475838745
 30
0.0
 10
506.4021756849087
 20
470.0792645958642
 30
0.0
 10
506.4188027035946
 20
470.1040392969928
 30
0.0
 10
506.4276148631429
 20
470.1171696496573
 30
0.0
  0
SPLINE
  5
120
330
1F
100
AcDbEntity
  8
0
  6
Continuous
 62
     7
370
    15
100
AcDbSpline
210
0.0
220
0.0
230
1.0
 70
     8
 71
     3
 72
    11
 73
     7
 74
     0
 42
0.000000001
 43
0.00000001
 40
0.0
 40
0.0
 40
0.0
 40
0.0
 40
0.283594808138694
 40
0.5433948405759664
 40
0.7806456291745597
 40
0.9999999999999999
 40
0.9999999999999999
 40
0.9999999999999999
 40
0.9999999999999999
 10
508.5683441967433
 20
470.6106133262065
 30
0.0
 10
508.5790348563834
 20
470.625311913765
 30
0.0
 10
508.5995191851657
 20
470.6534758166783
 30
0.0
 10
508.6331082859589
 20
470.6905894062555
 30
0.0
 10
508.6666635427591
 20
470.7220854647111
 30
0.0
 10
508.6908288388441
 20
470.7386192286805
 30
0.0
 10
508.7024379133565
 20
470.7465620942353
 30
0.0
  0
SPLINE
  5
121
330
1F
100
AcDbEntity
  8
0
  6
Continuous
 62
     7
370
    15
100
AcDbSpline
210
0.0
220
0.0
230
1.0
 70
     8
 71
     3
 72
    23
 73
    19
 74
     0
 42
0.000000001
 43
0.00000001
 40
0.0
 40
0.0
 40
0.0
 40
0.0
 40
0.0681582441559977
 40
0.1347066022023566
 40
0.2018649976035981
 40
0.2707882662774627
 40
0.3400242943604918
 40
0.4080827390537216
 40
0.4768131952581442
 40
0.547346064307095
 40
0.5856397954238958
 40
0.6288649531777641
 40
0.6771532033637911
 40
0.7308028113651058
 40
0.789806615532502
 40
0.8543250087420141
 40
0.9243651340575436
 40
1.0
 40
1.0
 40
1.0
 40
1.0
 10
509.5433062193127
 20
470.6768651624778
 30
0.0
 10
509.5283119210824
 20
470.6763298887037
 30
0.0
 10
509.4986774873901
 20
470.6752719842309
 30
0.0
 10
509.4554198184959
 20
470.6644717405811
 30
0.0
 10
509.413853392576
 20
470.6481884315521
 30
0.0
 10
509.375218506024
 20
470.6245904492464
 30
0.0
 10
509.3396782399278
 20
470.5963146688619
 30
0.0
 10
509.3091001257053
 20
470.5626938395123
 30
0.0
 10
509.2838391507677
 20
470.5246581230815
 30
0.0
 10
509.2667342253376
 20
470.4894508873849
 30
0.0
 10
509.2559281501647
 20
470.4578258297274
 30
0.0
 10
509.2487931254636
 20
470.4301967635258
 30
0.0
 10
509.2432431530925
 20
470.3987939090174
 30
0.0
 10
509.2380382209204
 20
470.36382828003
 30
0.0
 10
509.2346410737425
 20
470.3250591940041
 30
0.0
 10
509.231553623489
 20
470.2826659888643
 30
0.0
 10
509.2301094283183
 20
470.2365211589585
 30
0.0
 10
509.2299074156323
 20
470.2045342855836
 30
0.0
 10
509.2298025300767
 20
470.1879266107952
 30
0.0
  0
SPLINE
  5
122
330
1F
100
AcDbEntity
  8
0
  6
Continuous
 62
     7
370
    15
100
AcDbSpline
210
0.0
220
0.0
230
1.0
 70
     8
 71
     3
 72
    15
 73
    11
 74
     0
 42
0.000000001
 43
0.00000001
 40
0.0
 40
0.0
 40
0.0
 40
0.0
 40
0.1342983790141679
 40
0.2620849753823011
 40
0.3862699121345002
 40
0.5071645966228003
 40
0.6273002357255065
 40
0.748144941602994
 40
0.8723701771613523
 40
1.0
 40
1.0
 40
1.0
 40
1.0
 10
508.0595300941792
 20
469.9791008228678
 30
0.0
 10
508.046142634627
 20
469.9639668096754
 30
0.0
 10
508.0200168389703
 20
469.9344325926277
 30
0.0
 10
507.9763828449751
 20
469.895847961954
 30
0.0
 10
507.930130587256
 20
469.8639549654195
 30
0.0
 10
507.8814845521858
 20
469.8381959199018
 30
0.0
 10
507.8304886685406
 20
469.8188465414648
 30
0.0
 10
507.7772559807904
 20
469.8050934396524
 30
0.0
 10
507.7217647743323
 20
469.7962511269533
 30
0.0
 10
507.6838717711825
 20
469.7953681663064
 30
0.0
 10
507.6646691500018
 20
469.7949207180334
 30
0.0
  0
LINE
  5
123
330
1F
100
AcDbEntity
  8
0
  6
Continuous
 62
     7
370
    15
100
AcDbLine
 10
509.8912608634
 20
470.335535702
 30
0.0
 11
509.8912608634
 21
469.8118811881
 31
0.0
  0
LINE
  5
124
330
1F
100
AcDbEntity
  8
0
  6
Continuous
 62
     7
370
    15
100
AcDbLine
 10
512.2657266754
 20
470.305589872
 30
0.0
 11
512.2657266754
 21
469.8118811881
 31
0.0
  0
SPLINE
  5
125
330
1F
100
AcDbEntity
  8
0
  6
Continuous
 62
     7
370
    15
100
AcDbSpline
210
0.0
220
0.0
230
1.0
 70
     8
 71
     3
 72
    23
 73
    19
 74
     0
 42
0.000000001
 43
0.00000001
 40
0.0
 40
0.0
 40
0.0
 40
0.0
 40
0.0756043304957459
 40
0.1479650154827365
 40
0.2187969985237005
 40
0.2894704453213774
 40
0.3597242180875002
 40
0.4297077387530454
 40
0.5004965198485857
 40
0.5744290198679488
 40
0.6139472962286696
 40
0.6571552698261109
 40
0.7039727697209368
 40
0.7549389848168006
 40
0.8097066112894875
 40
0.8688329536985496
 40
0.9323854739325979
 40
1.0
 40
1.0
 40
1.0
 40
1.0
 10
509.5639767922294
 20
470.7955884530761
 30
0.0
 10
509.5801849641876
 20
470.7949771820971
 30
0.0
 10
509.6119059304208
 20
470.7937808654409
 30
0.0
 10
509.6580860278778
 20
470.7843868442694
 30
0.0
 10
509.7011533173903
 20
470.7682557097934
 30
0.0
 10
509.7410211408083
 20
470.7462447816849
 30
0.0
 10
509.7769892845671
 20
470.7185847927574
 30
0.0
 10
509.8082540800027
 20
470.6856748452053
 30
0.0
 10
509.8346256161445
 20
470.6477477228171
 30
0.0
 10
509.8518532567443
 20
470.6120697985191
 30
0.0
 10
509.8635384905455
 20
470.580571026877
 30
0.0
 10
509.8707431832817
 20
470.5537323393885
 30
0.0
 10
509.8771081870793
 20
470.5241929131359
 30
0.0
 10
509.882392764902
 20
470.4919174273892
 30
0.0
 10
509.8862551342953
 20
470.4567918700843
 30
0.0
 10
509.8891166844945
 20
470.4188737235452
 30
0.0
 10
509.8910534622978
 20
470.3781335176643
 30
0.0
 10
509.8911903169919
 20
470.3500251291856
 30
0.0
 10
509.8912608634099
 20
470.3355357020077
 30
0.0
  0
SPLINE
  5
126
330
1F
100
AcDbEntity
  8
0
  6
Continuous
 62
     7
370
    15
100
AcDbSpline
210
0.0
220
0.0
230
1.0
 70
     8
 71
     3
 72
    23
 73
    19
 74
     0
 42
0.000000001
 43
0.00000001
 40
0.0
 40
0.0
 40
0.0
 40
0.0
 40
0.0683846151037681
 40
0.1344755875434509
 40
0.1983910577839565
 40
0.2607534774484865
 40
0.321829222807649
 40
0.3830372384795246
 40
0.4446531231064264
 40
0.5073980112040047
 40
0.5698252379730248
 40
0.6307776406313128
 40
0.6909286865237168
 40
0.7509451326917356
 40
0.8110494767293276
 40
0.8723308525469933
 40
0.9350040935894052
 40
1.0
 40
1.0
 40
1.0
 40
1.0
 10
505.7189852223843
 20
470.2698138804266
 30
0.0
 10
505.7195671569573
 20
470.2570759073332
 30
0.0
 10
505.7207115078246
 20
470.2320271969872
 30
0.0
 10
505.7260466958666
 20
470.1953745498103
 30
0.0
 10
505.7344562026206
 20
470.1604596258377
 30
0.0
 10
505.7462751637964
 20
470.1275443093775
 30
0.0
 10
505.7605879297113
 20
470.0961986957035
 30
0.0
 10
505.7781206262345
 20
470.0666553067303
 30
0.0
 10
505.7990376600201
 20
470.0390487081697
 30
0.0
 10
505.8223685047279
 20
470.0131319627104
 30
0.0
 10
505.8483381508815
 20
469.9900524488168
 30
0.0
 10
505.8756593083133
 20
469.9693953786329
 30
0.0
 10
505.9047232450801
 20
469.9520819536787
 30
0.0
 10
505.935300794496
 20
469.9380288405873
 30
0.0
 10
505.9673425109046
 20
469.9270273461245
 30
0.0
 10
506.0008584894156
 20
469.9195177829498
 30
0.0
 10
506.0357827774426
 20
469.9144880133869
 30
0.0
 10
506.0595898852466
 20
469.9139287351712
 30
0.0
 10
506.0717099986931
 20
469.9136440086316
 30
0.0
  0
SPLINE
  5
127
330
1F
100
AcDbEntity
  8
0
  6
Continuous
 62
     7
370
    15
100
AcDbSpline
210
0.0
220
0.0
230
1.0
 70
     8
 71
     3
 72
    15
 73
    11
 74
     0
 42
0.000000001
 43
0.00000001
 40
0.0
 40
0.0
 40
0.0
 40
0.0
 40
0.1342983790141682
 40
0.262084975382301
 40
0.3862699121345002
 40
0.5071645966228003
 40
0.6273002357255065
 40
0.7481449416029937
 40
0.872370177161352
 40
1.0
 40
1.0
 40
1.0
 40
1.0
 10
511.0276123591365
 20
469.9791008228678
 30
0.0
 10
511.0142248995843
 20
469.9639668096754
 30
0.0
 10
510.9880991039275
 20
469.9344325926277
 30
0.0
 10
510.9444651099324
 20
469.895847961954
 30
0.0
 10
510.8982128522132
 20
469.8639549654195
 30
0.0
 10
510.8495668171431
 20
469.8381959199018
 30
0.0
 10
510.7985709334979
 20
469.8188465414648
 30
0.0
 10
510.7453382457477
 20
469.8050934396524
 30
0.0
 10
510.6898470392895
 20
469.7962511269533
 30
0.0
 10
510.6519540361398
 20
469.7953681663064
 30
0.0
 10
510.6327514149591
 20
469.7949207180334
 30
0.0
  0
SPLINE
  5
128
330
1F
100
AcDbEntity
  8
0
  6
Continuous
 62
     7
370
    15
100
AcDbSpline
210
0.0
220
0.0
230
1.0
 70
     8
 71
     3
 72
    15
 73
    11
 74
     0
 42
0.000000001
 43
0.00000001
 40
0.0
 40
0.0
 40
0.0
 40
0.0
 40
0.0769954547170576
 40
0.1676150771831734
 40
0.2710523936342343
 40
0.3894595025720741
 40
0.5208428024655765
 40
0.6663987586080736
 40
0.8260936125153155
 40
1.0
 40
1.0
 40
1.0
 40
1.0
 10
511.5547119685115
 20
470.4208680671253
 30
0.0
 10
511.553222875151
 20
470.414346011209
 30
0.0
 10
511.5499811968018
 20
470.400147836657
 30
0.0
 10
511.546479935367
 20
470.3768477138539
 30
0.0
 10
511.5433020720455
 20
470.3498942411634
 30
0.0
 10
511.5406422692344
 20
470.3193188713239
 30
0.0
 10
511.5390149243184
 20
470.2850145554312
 30
0.0
 10
511.5372405541093
 20
470.2471277953089
 30
0.0
 10
511.5365945697182
 20
470.20550751846
 30
0.0
 10
511.5364840668603
 20
470.1765312238884
 30
0.0
 10
511.5364264617006
 20
470.1614258762866
 30
0.0
  0
SPLINE
  5
129
330
1F
100
AcDbEntity
  8
0
  6
Continuous
 62
     7
370
    15
100
AcDbSpline
210
0.0
220
0.0
230
1.0
 70
     8
 71
     3
 72
    15
 73
    11
 74
     0
 42
0.000000001
 43
0.00000001
 40
0.0
 40
0.0
 40
0.0
 40
0.0
 40
0.17885001941116
 40
0.3421096489422995
 40
0.489825663368392
 40
0.6232544282245641
 40
0.7400796760857922
 40
0.8414826730699851
 40
0.9289076721840648
 40
0.9999999999999999
 40
0.9999999999999999
 40
0.9999999999999999
 40
0.9999999999999999
 10
513.2663944104185
 20
470.2666337922855
 30
0.0
 10
513.2663213823876
 20
470.2797958473628
 30
0.0
 10
513.2661816921928
 20
470.304972618697
 30
0.0
 10
513.2657411054996
 20
470.3410198387719
 30
0.0
 10
513.2646790655037
 20
470.3737097062038
 30
0.0
 10
513.263186697229
 20
470.4029640682887
 30
0.0
 10
513.2610023612848
 20
470.4287548338945
 30
0.0
 10
513.2587259500306
 20
470.4511345307569
 30
0.0
 10
513.2559421641579
 20
470.4700747447122
 30
0.0
 10
513.2534615392519
 20
470.4814764276367
 30
0.0
 10
513.2523490211289
 20
470.4865898887065
 30
0.0
  0
SPLINE
  5
12A
330
1F
100
AcDbEntity
  8
0
  6
Continuous
 62
     7
370
    15
100
AcDbSpline
210
0.0
220
0.0
230
1.0
 70
     8
 71
     3
 72
    15
 73
    11
 74
     0
 42
0.000000001
 43
0.00000001
 40
0.0
 40
0.0
 40
0.0
 40
0.0
 40
0.0769954547170576
 40
0.1676150771831734
 40
0.2710523936342343
 40
0.3894595025720741
 40
0.5208428024655765
 40
0.6663987586080736
 40
0.8260936125153155
 40
1.0
 40
1.0
 40
1.0
 40
1.0
 10
512.6741029941525
 20
470.4208680671253
 30
0.0
 10
512.672613900792
 20
470.414346011209
 30
0.0
 10
512.6693722224428
 20
470.400147836657
 30
0.0
 10
512.6658709610081
 20
470.3768477138539
 30
0.0
 10
512.6626930976865
 20
470.3498942411634
 30
0.0
 10
512.6600332948753
 20
470.3193188713239
 30
0.0
 10
512.6584059499594
 20
470.2850145554312
 30
0.0
 10
512.6566315797503
 20
470.2471277953089
 30
0.0
 10
512.6559855953592
 20
470.20550751846
 30
0.0
 10
512.6558750925013
 20
470.1765312238884
 30
0.0
 10
512.6558174873416
 20
470.1614258762866
 30
0.0
  0
SPLINE
  5
12B
330
1F
100
AcDbEntity
  8
0
  6
Continuous
 62
     7
370
    15
100
AcDbSpline
210
0.0
220
0.0
230
1.0
 70
     8
 71
     3
 72
    15
 73
    11
 74
     0
 42
0.000000001
 43
0.00000001
 40
0.0
 40
0.0
 40
0.0
 40
0.0
 40
0.1355195283706055
 40
0.2608331631936787
 40
0.3784760291245026
 40
0.493177646474676
 40
0.6092809649289397
 40
0.7299810378566454
 40
0.8592613089300654
 40
1.0
 40
1.0
 40
1.0
 40
1.0
 10
513.2523490211289
 20
470.4865898887065
 30
0.0
 10
513.2483328232084
 20
470.5015997711122
 30
0.0
 10
513.2406028847986
 20
470.5304891507769
 30
0.0
 10
513.2215022423675
 20
470.5696755876308
 30
0.0
 10
513.197382001415
 20
470.6030124026735
 30
0.0
 10
513.1679384690657
 20
470.6302934849541
 30
0.0
 10
513.1334560505945
 20
470.6515247238277
 30
0.0
 10
513.0940304341317
 20
470.6662559507632
 30
0.0
 10
513.0500420788776
 20
470.6754696001331
 30
0.0
 10
513.0191030711409
 20
470.676386998246
 30
0.0
 10
513.0029771094036
 20
470.6768651624778
 30
0.0
  0
SPLINE
  5
12C
330
1F
100
AcDbEntity
  8
0
  6
Continuous
 62
     7
370
    15
100
AcDbSpline
210
0.0
220
0.0
230
1.0
 70
     8
 71
     3
 72
    23
 73
    19
 74
     0
 42
0.000000001
 43
0.00000001
 40
0.0
 40
0.0
 40
0.0
 40
0.0
 40
0.0639861098164667
 40
0.1266268580894775
 40
0.1889843719814873
 40
0.2502301939603986
 40
0.312351162962322
 40
0.3745736184579387
 40
0.4381475308782041
 40
0.5029204126073704
 40
0.5679740951402718
 40
0.6307713337491905
 40
0.6929346089254588
 40
0.7543975343123296
 40
0.8152183520172955
 40
0.8761169254810909
 40
0.938014604793953
 40
1.0
 40
1.0
 40
1.0
 40
1.0
 10
513.0029771094036
 20
470.6768651624778
 30
0.0
 10
512.9934265266124
 20
470.6766852440485
 30
0.0
 10
512.9745261700314
 20
470.6763291901253
 30
0.0
 10
512.9464992461265
 20
470.6727568245036
 30
0.0
 10
512.9193136211454
 20
470.6669138963458
 30
0.0
 10
512.8926964588171
 20
470.6590260482435
 30
0.0
 10
512.8671801201136
 20
470.6481923929123
 30
0.0
 10
512.8419448076735
 20
470.6358970654761
 30
0.0
 10
512.8179407628983
 20
470.6205708067793
 30
0.0
 10
512.7946561455312
 20
470.6034898278422
 30
0.0
 10
512.772993268829
 20
470.5845610798836
 30
0.0
 10
512.7528364266321
 20
470.5645871132484
 30
0.0
 10
512.7348681868348
 20
470.5433162749088
 30
0.0
 10
512.7185892530222
 20
470.5210912947416
 30
0.0
 10
512.7045367546623
 20
470.4976069393082
 30
0.0
 10
512.6922702600673
 20
470.4730897758474
 30
0.0
 10
512.6818624230478
 20
470.4475075350718
 30
0.0
 10
512.6766906910725
 20
470.4297520803803
 30
0.0
 10
512.6741029941525
 20
470.4208680671253
 30
0.0
  0
SPLINE
  5
12D
330
1F
100
AcDbEntity
  8
0
  6
Continuous
 62
     7
370
    15
100
AcDbSpline
210
0.0
220
0.0
230
1.0
 70
     8
 71
     3
 72
    15
 73
    11
 74
     0
 42
0.000000001
 43
0.00000001
 40
0.0
 40
0.0
 40
0.0
 40
0.0
 40
0.1298621417207367
 40
0.2546535308972875
 40
0.3760145541937128
 40
0.4952552518176071
 40
0.6147977192994579
 40
0.7381055541683321
 40
0.8651963000723575
 40
1.0
 40
1.0
 40
1.0
 40
1.0
 10
510.6364615177903
 20
470.7955884530761
 30
0.0
 10
510.6561918216623
 20
470.7950450172254
 30
0.0
 10
510.6948820163573
 20
470.7939793651705
 30
0.0
 10
510.7514756389076
 20
470.7851110128803
 30
0.0
 10
510.8050138790675
 20
470.7701286160689
 30
0.0
 10
510.8559100180789
 20
470.7497490855659
 30
0.0
 10
510.9039812893112
 20
470.722667571895
 30
0.0
 10
510.948772595883
 20
470.6885060985319
 30
0.0
 10
510.990752704157
 20
470.6474801141712
 30
0.0
 10
511.0150869215401
 20
470.6159680711725
 30
0.0
 10
511.0276123591365
 20
470.599748025058
 30
0.0
  0
SPLINE
  5
12E
330
1F
100
AcDbEntity
  8
0
  6
Continuous
 62
     7
370
    15
100
AcDbSpline
210
0.0
220
0.0
230
1.0
 70
     8
 71
     3
 72
    23
 73
    19
 74
     0
 42
0.000000001
 43
0.00000001
 40
0.0
 40
0.0
 40
0.0
 40
0.0
 40
0.0646199913407678
 40
0.1274334841444695
 40
0.1890041265579399
 40
0.249930070686047
 40
0.310668453740672
 40
0.3723289611368242
 40
0.4349391099970084
 40
0.499575544194034
 40
0.5641912077719239
 40
0.6267352169294786
 40
0.6881093335614016
 40
0.7492936065367515
 40
0.8103305278109454
 40
0.8719011702244159
 40
0.9350459146845316
 40
1.0
 40
1.0
 40
1.0
 40
1.0
 10
510.6327514149591
 20
469.7949207180334
 30
0.0
 10
510.6156790038379
 20
469.7953842575517
 30
0.0
 10
510.5820114531808
 20
469.7962983780065
 30
0.0
 10
510.5324855817622
 20
469.8033900820527
 30
0.0
 10
510.4848257136656
 20
469.8147787396376
 30
0.0
 10
510.4389868126892
 20
469.8306162782253
 30
0.0
 10
510.3952654958138
 20
469.8516245054516
 30
0.0
 10
510.3532874235597
 20
469.8767755128959
 30
0.0
 10
510.3132700667549
 20
469.9067266599799
 30
0.0
 10
510.2758233838727
 20
469.9409667778394
 30
0.0
 10
510.2413398599211
 20
469.9781577402571
 30
0.0
 10
510.2110786050907
 20
470.0178246582724
 30
0.0
 10
510.1858475302646
 20
470.0597960052795
 30
0.0
 10
510.1647488688068
 20
470.1035403818981
 30
0.0
 10
510.1484972743307
 20
470.1493945330315
 30
0.0
 10
510.1371679542391
 20
470.1971998911516
 30
0.0
 10
510.1300845115874
 20
470.2468999326384
 30
0.0
 10
510.1291707690071
 20
470.2807437404751
 30
0.0
 10
510.1287074446066
 20
470.2979046590056
 30
0.0
  0
SPLINE
  5
12F
330
1F
100
AcDbEntity
  8
0
  6
Continuous
 62
     7
370
    15
100
AcDbSpline
210
0.0
220
0.0
230
1.0
 70
     8
 71
     3
 72
    15
 73
    11
 74
     0
 42
0.000000001
 43
0.00000001
 40
0.0
 40
0.0
 40
0.0
 40
0.0
 40
0.1288352544875544
 40
0.2535893349864763
 40
0.3746432573141701
 40
0.4953400422377924
 40
0.6163247746357905
 40
0.7397593354405149
 40
0.8668423203805463
 40
0.9999999999999999
 40
0.9999999999999999
 40
0.9999999999999999
 40
0.9999999999999999
 10
505.711565016722
 20
470.615383458418
 30
0.0
 10
505.7235497658664
 20
470.6296969896715
 30
0.0
 10
505.7471396177094
 20
470.6578706358239
 30
0.0
 10
505.7870374067866
 20
470.6948889911044
 30
0.0
 10
505.8302401595707
 20
470.7258995846981
 30
0.0
 10
505.8762064587217
 20
470.7516046629409
 30
0.0
 10
505.9254705426673
 20
470.7711360711792
 30
0.0
 10
505.9773701854106
 20
470.7856910204159
 30
0.0
 10
506.0324963444903
 20
470.7938469948243
 30
0.0
 10
506.0701825440333
 20
470.7949990033659
 30
0.0
 10
506.0894654908138
 20
470.7955884530761
 30
0.0
  0
SPLINE
  5
130
330
1F
100
AcDbEntity
  8
0
  6
Continuous
 62
     7
370
    15
100
AcDbSpline
210
0.0
220
0.0
230
1.0
 70
     8
 71
     3
 72
    15
 73
    11
 74
     0
 42
0.000000001
 43
0.00000001
 40
0.0
 40
0.0
 40
0.0
 40
0.0
 40
0.1288840014739258
 40
0.252984971857837
 40
0.374210437182597
 40
0.4941015128996903
 40
0.6147527632399877
 40
0.738511070373329
 40
0.8662425140769306
 40
0.9999999999999999
 40
0.9999999999999999
 40
0.9999999999999999
 40
0.9999999999999999
 10
507.6683792528331
 20
470.7955884530761
 30
0.0
 10
507.6881159628966
 20
470.7949961280866
 30
0.0
 10
507.726856931387
 20
470.7938334599579
 30
0.0
 10
507.7835150035127
 20
470.7841170652866
 30
0.0
 10
507.8371073444004
 20
470.7678025251619
 30
0.0
 10
507.8879424914498
 20
470.7454674277631
 30
0.0
 10
507.9357173817697
 20
470.7164385723661
 30
0.0
 10
507.9807822131827
 20
470.6813807334487
 30
0.0
 10
508.022353290593
 20
470.6393017228748
 30
0.0
 10
508.0469488901841
 20
470.607698538859
 30
0.0
 10
508.0595300941792
 20
470.5915327973603
 30
0.0
  0
SPLINE
  5
131
330
1F
100
AcDbEntity
  8
0
  6
Continuous
 62
     7
370
    15
100
AcDbSpline
210
0.0
220
0.0
230
1.0
 70
     8
 71
     3
 72
    23
 73
    19
 74
     0
 42
0.000000001
 43
0.00000001
 40
0.0
 40
0.0
 40
0.0
 40
0.0
 40
0.0715786576891421
 40
0.139629224692848
 40
0.2047966973966659
 40
0.2681349633966817
 40
0.3298137469867307
 40
0.39130139777456
 40
0.4534335150970542
 40
0.5165516903197667
 40
0.5796312707049233
 40
0.641118921492753
 40
0.7012940466987745
 40
0.7608103356761337
 40
0.819931721778144
 40
0.8789195754993825
 40
0.9389828222504467
 40
1.0
 40
1.0
 40
1.0
 40
1.0
 10
506.0865504100179
 20
469.7949207180334
 30
0.0
 10
506.0679759125566
 20
469.7953543229943
 30
0.0
 10
506.031742449073
 20
469.7962001606568
 30
0.0
 10
505.9789997470392
 20
469.8034922528687
 30
0.0
 10
505.9293414549663
 20
469.815388055113
 30
0.0
 10
505.8827703647107
 20
469.8320059829981
 30
0.0
 10
505.8394005251948
 20
469.8537121441869
 30
0.0
 10
505.7991457378105
 20
469.8801551626069
 30
0.0
 10
505.7617943098779
 20
469.9111991993493
 30
0.0
 10
505.7285232546204
 20
469.947113152691
 30
0.0
 10
505.698570953715
 20
469.9855465115497
 30
0.0
 10
505.6721406586647
 20
470.0255953131262
 30
0.0
 10
505.6500451415716
 20
470.0671587938054
 30
0.0
 10
505.6320713871226
 20
470.1099723549766
 30
0.0
 10
505.6175552625655
 20
470.1537661480718
 30
0.0
 10
505.6074380858433
 20
470.1989386373019
 30
0.0
 10
505.601606008481
 20
470.2453675634878
 30
0.0
 10
505.6007123043642
 20
470.2767763778812
 30
0.0
 10
505.6002619317861
 20
470.2926045121039
 30
0.0
  0
SPLINE
  5
132
330
1F
100
AcDbEntity
  8
0
  6
Continuous
 62
     7
370
    15
100
AcDbSpline
210
0.0
220
0.0
230
1.0
 70
     8
 71
     3
 72
    23
 73
    19
 74
     0
 42
0.000000001
 43
0.00000001
 40
0.0
 40
0.0
 40
0.0
 40
0.0
 40
0.064619991340768
 40
0.1274334841444695
 40
0.1890041265579399
 40
0.249930070686047
 40
0.310668453740672
 40
0.3723289611368242
 40
0.4349391099970084
 40
0.499575544194034
 40
0.5641912077719239
 40
0.6267352169294786
 40
0.6881093335614016
 40
0.7492936065367515
 40
0.8103305278109454
 40
0.8719011702244159
 40
0.9350459146845316
 40
1.0
 40
1.0
 40
1.0
 40
1.0
 10
507.6646691500018
 20
469.7949207180334
 30
0.0
 10
507.6475967388806
 20
469.7953842575517
 30
0.0
 10
507.6139291882236
 20
469.7962983780065
 30
0.0
 10
507.5644033168049
 20
469.8033900820527
 30
0.0
 10
507.5167434487083
 20
469.8147787396376
 30
0.0
 10
507.4709045477319
 20
469.8306162782253
 30
0.0
 10
507.4271832308565
 20
469.8516245054516
 30
0.0
 10
507.3852051586024
 20
469.8767755128959
 30
0.0
 10
507.3451878017976
 20
469.9067266599799
 30
0.0
 10
507.3077411189154
 20
469.9409667778394
 30
0.0
 10
507.2732575949638
 20
469.9781577402571
 30
0.0
 10
507.2429963401334
 20
470.0178246582724
 30
0.0
 10
507.2177652653074
 20
470.0597960052795
 30
0.0
 10
507.1966666038495
 20
470.1035403818981
 30
0.0
 10
507.1804150093735
 20
470.1493945330315
 30
0.0
 10
507.1690856892819
 20
470.1971998911516
 30
0.0
 10
507.1620022466302
 20
470.2468999326384
 30
0.0
 10
507.1610885040499
 20
470.2807437404751
 30
0.0
 10
507.1606251796493
 20
470.2979046590056
 30
0.0
  0
SPLINE
  5
133
330
1F
100
AcDbEntity
  8
0
  6
Continuous
 62
     7
370
    15
100
AcDbSpline
210
0.0
220
0.0
230
1.0
 70
     8
 71
     3
 72
    15
 73
    11
 74
     0
 42
0.000000001
 43
0.00000001
 40
0.0
 40
0.0
 40
0.0
 40
0.0
 40
0.1185218400132604
 40
0.236254763161746
 40
0.3561744339909311
 40
0.4772496548985579
 40
0.601539870821702
 40
0.7296183821680424
 40
0.8621582661414385
 40
1.0
 40
1.0
 40
1.0
 40
1.0
 10
506.4787612807443
 20
470.6053131793047
 30
0.0
 10
506.4871247365946
 20
470.5938969446736
 30
0.0
 10
506.5037959786281
 20
470.5711404652882
 30
0.0
 10
506.5246780670342
 20
470.5340341053127
 30
0.0
 10
506.5428048204953
 20
470.4952119461387
 30
0.0
 10
506.5572937670694
 20
470.4540464469421
 30
0.0
 10
506.5690259594859
 20
470.4110253556267
 30
0.0
 10
506.5775141022835
 20
470.3658411199758
 30
0.0
 10
506.5824919045452
 20
470.3185071951459
 30
0.0
 10
506.5834703705073
 20
470.2862557887604
 30
0.0
 10
506.5839691967433
 20
470.2698138804266
 30
0.0
  0
SPLINE
  5
134
330
1F
100
AcDbEntity
  8
0
  6
Continuous
 62
     7
370
    15
100
AcDbSpline
210
0.0
220
0.0
230
1.0
 70
     8
 71
     3
 72
    23
 73
    19
 74
     0
 42
0.000000001
 43
0.00000001
 40
0.0
 40
0.0
 40
0.0
 40
0.0
 40
0.0772404236164789
 40
0.1511781404663829
 40
0.2234879838003995
 40
0.29554264419887
 40
0.3669762546197899
 40
0.4371305254863862
 40
0.5070436156432692
 40
0.578559733523678
 40
0.6166135446965534
 40
0.658756236977529
 40
0.7044912261144044
 40
0.75480311490515
 40
0.8093316253185657
 40
0.868274455472821
 40
0.932072883409294
 40
1.0
 40
1.0
 40
1.0
 40
1.0
 10
511.9042566566792
 20
470.7955884530761
 30
0.0
 10
511.9221465094554
 20
470.7949288107516
 30
0.0
 10
511.9571612666161
 20
470.7936377316078
 30
0.0
 10
512.0081419624361
 20
470.7834260656223
 30
0.0
 10
512.0557569058832
 20
470.7659842578818
 30
0.0
 10
512.099836321315
 20
470.7420916003188
 30
0.0
 10
512.1395719049373
 20
470.7123802249548
 30
0.0
 10
512.1744685005845
 20
470.6777660038732
 30
0.0
 10
512.2033319899206
 20
470.6379514724121
 30
0.0
 10
512.2226833741497
 20
470.6010144460965
 30
0.0
 10
512.2354308659852
 20
470.5682481458803
 30
0.0
 10
512.2434561840336
 20
470.5401846421227
 30
0.0
 10
512.2502714657162
 20
470.5089191504606
 30
0.0
 10
512.2561798942825
 20
470.4745461510263
 30
0.0
 10
512.2601777907323
 20
470.4368248112584
 30
0.0
 10
512.2633309783051
 20
470.3959097609883
 30
0.0
 10
512.2655907823962
 20
470.3518142533308
 30
0.0
 10
512.2656804409895
 20
470.32131662928
 30
0.0
 10
512.2657266753757
 20
470.3055898720131
 30
0.0
  0
SPLINE
  5
135
330
1F
100
AcDbEntity
  8
0
  6
Continuous
 62
     7
370
    15
100
AcDbSpline
210
0.0
220
0.0
230
1.0
 70
     8
 71
     3
 72
    23
 73
    19
 74
     0
 42
0.000000001
 43
0.00000001
 40
0.0
 40
0.0
 40
0.0
 40
0.0
 40
0.0825297038220665
 40
0.1587788549175701
 40
0.2277380621151794
 40
0.289945652796676
 40
0.3454988386981375
 40
0.3938963373401232
 40
0.4363737851900879
 40
0.4721222744615227
 40
0.5363836155048269
 40
0.5990779017254959
 40
0.661948234024458
 40
0.7263105423531546
 40
0.7917711030502105
 40
0.8586473037978581
 40
0.9273053338076842
 40
1.0
 40
1.0
 40
1.0
 40
1.0
 10
509.1110792394783
 20
470.3034698132524
 30
0.0
 10
509.1110492164605
 20
470.3173390140952
 30
0.0
 10
509.1109914551919
 20
470.344021962494
 30
0.0
 10
509.1099798709682
 20
470.3822858814358
 30
0.0
 10
509.1080572490771
 20
470.4170903373043
 30
0.0
 10
509.1058345418078
 20
470.4483948786937
 30
0.0
 10
509.1026367957608
 20
470.4761426130764
 30
0.0
 10
509.0990045344871
 20
470.5004822983929
 30
0.0
 10
509.094715029913
 20
470.5213529156177
 30
0.0
 10
509.0876129009045
 20
470.5442444331106
 30
0.0
 10
509.0767595155689
 20
470.5694633534052
 30
0.0
 10
509.059301452258
 20
470.5963529655784
 30
0.0
 10
509.037527158483
 20
470.6198888238682
 30
0.0
 10
509.0119869762366
 20
470.6399815650923
 30
0.0
 10
508.9832586380278
 20
470.6565903987974
 30
0.0
 10
508.9515149121268
 20
470.668557031169
 30
0.0
 10
508.9170416266202
 20
470.6755209739728
 30
0.0
 10
508.8932753508748
 20
470.6764086497996
 30
0.0
 10
508.8810528639442
 20
470.6768651624778
 30
0.0
  0
SPLINE
  5
136
330
1F
100
AcDbEntity
  8
0
  6
Continuous
 62
     7
370
    15
100
AcDbSpline
210
0.0
220
0.0
230
1.0
 70
     8
 71
     3
 72
    23
 73
    19
 74
     0
 42
0.000000001
 43
0.00000001
 40
0.0
 40
0.0
 40
0.0
 40
0.0
 40
0.0639861098164676
 40
0.1266268580894775
 40
0.1889843719814873
 40
0.2502301939603977
 40
0.3123511629623219
 40
0.3745736184579385
 40
0.438147530878204
 40
0.5029204126073703
 40
0.5679740951402716
 40
0.6307713337491904
 40
0.6929346089254587
 40
0.7543975343123295
 40
0.8152183520172954
 40
0.8761169254810907
 40
0.9380146047939529
 40
0.9999999999999999
 40
0.9999999999999999
 40
0.9999999999999999
 40
0.9999999999999999
 10
511.8835860837626
 20
470.6768651624778
 30
0.0
 10
511.8740355009714
 20
470.6766852440485
 30
0.0
 10
511.8551351443904
 20
470.6763291901253
 30
0.0
 10
511.8271082204854
 20
470.6727568245036
 30
0.0
 10
511.7999225955044
 20
470.6669138963458
 30
0.0
 10
511.7733054331761
 20
470.6590260482435
 30
0.0
 10
511.7477890944726
 20
470.6481923929123
 30
0.0
 10
511.7225537820325
 20
470.6358970654761
 30
0.0
 10
511.6985497372572
 20
470.6205708067793
 30
0.0
 10
511.6752651198902
 20
470.6034898278422
 30
0.0
 10
511.653602243188
 20
470.5845610798836
 30
0.0
 10
511.6334454009911
 20
470.5645871132484
 30
0.0
 10
511.6154771611938
 20
470.5433162749088
 30
0.0
 10
511.5991982273812
 20
470.5210912947416
 30
0.0
 10
511.5851457290212
 20
470.4976069393082
 30
0.0
 10
511.5728792344262
 20
470.4730897758474
 30
0.0
 10
511.5624713974067
 20
470.4475075350718
 30
0.0
 10
511.5572996654316
 20
470.4297520803803
 30
0.0
 10
511.5547119685115
 20
470.4208680671253
 30
0.0
  0
SPLINE
  5
137
330
1F
100
AcDbEntity
  8
0
  6
Continuous
 62
     7
370
    15
100
AcDbSpline
210
0.0
220
0.0
230
1.0
 70
     8
 71
     3
 72
    15
 73
    11
 74
     0
 42
0.000000001
 43
0.00000001
 40
0.0
 40
0.0
 40
0.0
 40
0.0
 40
0.1355195283706055
 40
0.2608331631936792
 40
0.3784760291245037
 40
0.4931776464746772
 40
0.6092809649289387
 40
0.7299810378566467
 40
0.8592613089300667
 40
1.0
 40
1.0
 40
1.0
 40
1.0
 10
512.1329579954879
 20
470.4865898887065
 30
0.0
 10
512.1289417975673
 20
470.5015997711122
 30
0.0
 10
512.1212118591576
 20
470.5304891507769
 30
0.0
 10
512.1021112167264
 20
470.5696755876308
 30
0.0
 10
512.077990975774
 20
470.6030124026735
 30
0.0
 10
512.0485474434247
 20
470.6302934849541
 30
0.0
 10
512.0140650249535
 20
470.6515247238277
 30
0.0
 10
511.9746394084906
 20
470.6662559507632
 30
0.0
 10
511.9306510532365
 20
470.6754696001331
 30
0.0
 10
511.8997120454998
 20
470.676386998246
 30
0.0
 10
511.8835860837626
 20
470.6768651624778
 30
0.0
  0
SPLINE
  5
138
330
1F
100
AcDbEntity
  8
0
  6
Continuous
 62
     7
370
    15
100
AcDbSpline
210
0.0
220
0.0
230
1.0
 70
     8
 71
     3
 72
    15
 73
    11
 74
     0
 42
0.000000001
 43
0.00000001
 40
0.0
 40
0.0
 40
0.0
 40
0.0
 40
0.17885001941116
 40
0.3421096489422997
 40
0.4898256633683923
 40
0.6232544282245646
 40
0.7400796760857924
 40
0.8414826730699856
 40
0.9289076721840652
 40
1.0
 40
1.0
 40
1.0
 40
1.0
 10
512.1470033847775
 20
470.2666337922855
 30
0.0
 10
512.1469303567465
 20
470.2797958473628
 30
0.0
 10
512.1467906665519
 20
470.304972618697
 30
0.0
 10
512.1463500798585
 20
470.3410198387719
 30
0.0
 10
512.1452880398627
 20
470.3737097062038
 30
0.0
 10
512.143795671588
 20
470.4029640682887
 30
0.0
 10
512.1416113356438
 20
470.4287548338945
 30
0.0
 10
512.1393349243896
 20
470.4511345307569
 30
0.0
 10
512.1365511385169
 20
470.4700747447122
 30
0.0
 10
512.1340705136108
 20
470.4814764276367
 30
0.0
 10
512.1329579954879
 20
470.4865898887065
 30
0.0
  0
SPLINE
  5
139
330
1F
100
AcDbEntity
  8
0
  6
Continuous
 62
     7
370
    15
100
AcDbSpline
210
0.0
220
0.0
230
1.0
 70
     8
 71
     3
 72
    23
 73
    19
 74
     0
 42
0.000000001
 43
0.00000001
 40
0.0
 40
0.0
 40
0.0
 40
0.0
 40
0.063774532305632
 40
0.1260788099895059
 40
0.1869040927472074
 40
0.2475739349176197
 40
0.3080033561644468
 40
0.3691318984609778
 40
0.4320332277442045
 40
0.496790794437091
 40
0.5616108232295655
 40
0.6249138657484625
 40
0.6867263492419248
 40
0.7480788332577711
 40
0.8095822911398957
 40
0.8716307425688271
 40
0.934885820828554
 40
1.0
 40
1.0
 40
1.0
 40
1.0
 10
510.1287074446066
 20
470.2979046590056
 30
0.0
 10
510.1291810379574
 20
470.3147108802952
 30
0.0
 10
510.1301173064635
 20
470.347935873157
 30
0.0
 10
510.1370921842008
 20
470.3968001429315
 30
0.0
 10
510.1488211666403
 20
470.4438650807681
 30
0.0
 10
510.1652812162046
 20
470.4889791634747
 30
0.0
 10
510.1863881456103
 20
470.5321969800487
 30
0.0
 10
510.2120633451688
 20
470.5735490966466
 30
0.0
 10
510.2423086690877
 20
470.6131494343778
 30
0.0
 10
510.277177882454
 20
470.6500668326099
 30
0.0
 10
510.3149508461761
 20
470.6841680766938
 30
0.0
 10
510.3553598010162
 20
470.7138048289891
 30
0.0
 10
510.3973995531821
 20
470.7394001855357
 30
0.0
 10
510.4417221791832
 20
470.7596799221157
 30
0.0
 10
510.4876716503479
 20
470.7760875300834
 30
0.0
 10
510.5356570301394
 20
470.7874392769547
 30
0.0
 10
510.5854786685077
 20
470.7941284430187
 30
0.0
 10
510.6193039437821
 20
470.7950971068495
 30
0.0
 10
510.6364615177903
 20
470.7955884530761
 30
0.0
  0
SPLINE
  5
13A
330
1F
100
AcDbEntity
  8
0
  6
Continuous
 62
     7
370
    15
100
AcDbSpline
210
0.0
220
0.0
230
1.0
 70
     8
 71
     3
 72
    23
 73
    19
 74
     0
 42
0.000000001
 43
0.00000001
 40
0.0
 40
0.0
 40
0.0
 40
0.0
 40
0.078342985193701
 40
0.1505633028794202
 40
0.216151056659977
 40
0.2756797924514263
 40
0.3287070503654625
 40
0.3759044348322083
 40
0.4173018977400331
 40
0.4526927480535834
 40
0.5172652917530132
 40
0.5812165680623068
 40
0.645321893972802
 40
0.712024493379763
 40
0.7801300447160445
 40
0.8502182262116653
 40
0.922648521734738
 40
1.0
 40
1.0
 40
1.0
 40
1.0
 10
509.7725375728117
 20
470.3360657166979
 30
0.0
 10
509.7725081349011
 20
470.348433314585
 30
0.0
 10
509.7724515597139
 20
470.3722019568183
 30
0.0
 10
509.7714334311168
 20
470.4063152345069
 30
0.0
 10
509.7695150832445
 20
470.4374107147743
 30
0.0
 10
509.7672719310916
 20
470.4654459980905
 30
0.0
 10
509.7641559674269
 20
470.4904864627901
 30
0.0
 10
509.7601320587057
 20
470.5124818114751
 30
0.0
 10
509.7558693642202
 20
470.5316050675549
 30
0.0
 10
509.7487876056761
 20
470.5528042581649
 30
0.0
 10
509.7374680156904
 20
470.5761897246273
 30
0.0
 10
509.7202256943683
 20
470.6014096476213
 30
0.0
 10
509.698503362536
 20
470.6233628072144
 30
0.0
 10
509.673420803359
 20
470.6424197305356
 30
0.0
 10
509.6448652900373
 20
470.6579143508314
 30
0.0
 10
509.6133932071743
 20
470.6689799854512
 30
0.0
 10
509.5791999495777
 20
470.6758300019939
 30
0.0
 10
509.5555300265772
 20
470.6765126328814
 30
0.0
 10
509.5433062193127
 20
470.6768651624778
 30
0.0
  0
SPLINE
  5
13B
330
1F
100
AcDbEntity
  8
0
  6
Continuous
 62
     7
370
    15
100
AcDbSpline
210
0.0
220
0.0
230
1.0
 70
     8
 71
     3
 72
    23
 73
    19
 74
     0
 42
0.000000001
 43
0.00000001
 40
0.0
 40
0.0
 40
0.0
 40
0.0
 40
0.0686770684130349
 40
0.1368709585090958
 40
0.2061143571452995
 40
0.2775381819697278
 40
0.3497719775548986
 40
0.4212508361555695
 40
0.4929107569233712
 40
0.5670265889927393
 40
0.6066141532413348
 40
0.649703953518988
 40
0.6973031504846854
 40
0.7490856597091363
 40
0.8048806474593089
 40
0.8654850057023366
 40
0.9302371271531362
 40
1.0
 40
1.0
 40
1.0
 40
1.0
 10
508.8810528639442
 20
470.6768651624778
 30
0.0
 10
508.8666836411628
 20
470.676286685031
 30
0.0
 10
508.8380462904349
 20
470.675133800022
 30
0.0
 10
508.7959767959522
 20
470.6647567381803
 30
0.0
 10
508.7553497667276
 20
470.6485022218281
 30
0.0
 10
508.7168133180766
 20
470.6259522306855
 30
0.0
 10
508.6814067203537
 20
470.5980201384778
 30
0.0
 10
508.6504095478942
 20
470.5651683772783
 30
0.0
 10
508.6243509147348
 20
470.527805796159
 30
0.0
 10
508.6070653775545
 20
470.4929698033094
 30
0.0
 10
508.5959156566812
 20
470.4621370476191
 30
0.0
 10
508.5885090867288
 20
470.4359240406114
 30
0.0
 10
508.5821441091152
 20
470.4068197801
 30
0.0
 10
508.5774141068639
 20
470.3747344732318
 30
0.0
 10
508.5728479973932
 20
470.3398770953889
 30
0.0
 10
508.5706442793788
 20
470.3020739995761
 30
0.0
 10
508.5685005639217
 20
470.2613576152363
 30
0.0
 10
508.5683975976513
 20
470.2332465639098
 30
0.0
 10
508.5683441967433
 20
470.218667462825
 30
0.0
  0
SPLINE
  5
13C
330
1F
100
AcDbEntity
  8
0
  6
Continuous
 62
     7
370
    15
100
AcDbSpline
210
0.0
220
0.0
230
1.0
 70
     8
 71
     3
 72
    19
 73
    15
 74
     0
 42
0.000000001
 43
0.00000001
 40
0.0
 40
0.0
 40
0.0
 40
0.0
 40
0.0717660641583407
 40
0.1412255357663695
 40
0.2091158524974625
 40
0.2748396534685271
 40
0.3394829303752205
 40
0.4024762667354
 40
0.4649418891713276
 40
0.5268326406463836
 40
0.6474148160608225
 40
0.7655615117859493
 40
0.8816150870393313
 40
0.9999999999999999
 40
0.9999999999999999
 40
0.9999999999999999
 40
0.9999999999999999
 10
509.2093969645051
 20
470.5621169820558
 30
0.0
 10
509.2145794910592
 20
470.5714622238651
 30
0.0
 10
509.2247779755073
 20
470.5898523473431
 30
0.0
 10
509.2419024276151
 20
470.6158791309892
 30
0.0
 10
509.2598441244983
 20
470.6402233648117
 30
0.0
 10
509.2787559715778
 20
470.6629043644991
 30
0.0
 10
509.2985712171991
 20
470.6838101256974
 30
0.0
 10
509.3193831155268
 20
470.7030097670965
 30
0.0
 10
509.3410731966006
 20
470.7205857407213
 30
0.0
 10
509.3712327634724
 20
470.7411186016089
 30
0.0
 10
509.4104714573358
 20
470.7629282743263
 30
0.0
 10
509.4599440483079
 20
470.7818378350081
 30
0.0
 10
509.5114055714978
 20
470.7935233954295
 30
0.0
 10
509.5463372610367
 20
470.7948955521264
 30
0.0
 10
509.5639767922294
 20
470.7955884530761
 30
0.0
  0
SPLINE
  5
13D
330
1F
100
AcDbEntity
  8
0
  6
Continuous
 62
     7
370
    15
100
AcDbSpline
210
0.0
220
0.0
230
1.0
 70
     8
 71
     3
 72
    23
 73
    19
 74
     0
 42
0.000000001
 43
0.00000001
 40
0.0
 40
0.0
 40
0.0
 40
0.0
 40
0.063774532305632
 40
0.1260788099895059
 40
0.1869040927472074
 40
0.2475739349176197
 40
0.3080033561644469
 40
0.3691318984609777
 40
0.4320332277442044
 40
0.4967907944370909
 40
0.5616108232295652
 40
0.6249138657484625
 40
0.6867263492419248
 40
0.7480788332577711
 40
0.8095822911398957
 40
0.8716307425688273
 40
0.9348858208285536
 40
1.0
 40
1.0
 40
1.0
 40
1.0
 10
507.1606251796493
 20
470.2979046590056
 30
0.0
 10
507.1610987730001
 20
470.3147108802952
 30
0.0
 10
507.1620350415063
 20
470.347935873157
 30
0.0
 10
507.1690099192435
 20
470.3968001429315
 30
0.0
 10
507.1807389016832
 20
470.4438650807681
 30
0.0
 10
507.1971989512473
 20
470.4889791634747
 30
0.0
 10
507.218305880653
 20
470.5321969800487
 30
0.0
 10
507.2439810802115
 20
470.5735490966466
 30
0.0
 10
507.2742264041304
 20
470.6131494343778
 30
0.0
 10
507.3090956174967
 20
470.6500668326099
 30
0.0
 10
507.3468685812189
 20
470.6841680766938
 30
0.0
 10
507.3872775360589
 20
470.7138048289891
 30
0.0
 10
507.4293172882249
 20
470.7394001855357
 30
0.0
 10
507.4736399142259
 20
470.7596799221157
 30
0.0
 10
507.5195893853906
 20
470.7760875300834
 30
0.0
 10
507.5675747651821
 20
470.7874392769547
 30
0.0
 10
507.6173964035505
 20
470.7941284430187
 30
0.0
 10
507.6512216788249
 20
470.7950971068495
 30
0.0
 10
507.6683792528331
 20
470.7955884530761
 30
0.0
  0
SPLINE
  5
13E
330
1F
100
AcDbEntity
  8
0
  6
Continuous
 62
     7
370
    15
100
AcDbSpline
210
0.0
220
0.0
230
1.0
 70
     8
 71
     3
 72
    19
 73
    15
 74
     0
 42
0.000000001
 43
0.00000001
 40
0.0
 40
0.0
 40
0.0
 40
0.0
 40
0.0841520188443168
 40
0.1665323202984584
 40
0.2488363311465306
 40
0.3312461454872607
 40
0.4129571090216171
 40
0.4904942776695666
 40
0.5661557919819237
 40
0.6399873346864665
 40
0.7167654882718498
 40
0.8021439047100982
 40
0.8958332007101922
 40
1.0
 40
1.0
 40
1.0
 40
1.0
 10
508.9017234368608
 20
470.7955884530761
 30
0.0
 10
508.9134002540158
 20
470.795193358049
 30
0.0
 10
508.9365080472836
 20
470.7944114862352
 30
0.0
 10
508.9707466765774
 20
470.7893239134154
 30
0.0
 10
509.0039551399786
 20
470.7805298539705
 30
0.0
 10
509.0359372284453
 20
470.7682806571137
 30
0.0
 10
509.0660697471013
 20
470.7534463439052
 30
0.0
 10
509.0936957236319
 20
470.7360406507343
 30
0.0
 10
509.1185001118439
 20
470.7165003871137
 30
0.0
 10
509.1404703752848
 20
470.6939431713723
 30
0.0
 10
509.1602268223838
 20
470.667735588003
 30
0.0
 10
509.1783994816755
 20
470.6371708272566
 30
0.0
 10
509.195191154211
 20
470.6015625744171
 30
0.0
 10
509.2044974227279
 20
470.5757216497022
 30
0.0
 10
509.2093969645051
 20
470.5621169820558
 30
0.0
  0
SPLINE
  5
13F
330
1F
100
AcDbEntity
  8
0
  6
Continuous
 62
     7
370
    15
100
AcDbSpline
210
0.0
220
0.0
230
1.0
 70
     8
 71
     3
 72
    11
 73
     7
 74
     0
 42
0.000000001
 43
0.00000001
 40
0.0
 40
0.0
 40
0.0
 40
0.0
 40
0.253734075690661
 40
0.5030351201318565
 40
0.7500135973308791
 40
1.0
 40
1.0
 40
1.0
 40
1.0
 10
508.7024379133565
 20
470.7465620942353
 30
0.0
 10
508.7182617588849
 20
470.7541236459798
 30
0.0
 10
508.7496329888414
 20
470.7691146403105
 30
0.0
 10
508.7993063268327
 20
470.7843219676568
 30
0.0
 10
508.8501345501396
 20
470.7936674672586
 30
0.0
 10
508.8844578928948
 20
470.7949455459075
 30
0.0
 10
508.9017234368608
 20
470.7955884530761
 30
0.0
  0
SPLINE
  5
140
330
1F
100
AcDbEntity
  8
0
  6
Continuous
 62
     7
370
    15
100
AcDbSpline
210
0.0
220
0.0
230
1.0
 70
     8
 71
     3
 72
    23
 73
    19
 74
     0
 42
0.000000001
 43
0.00000001
 40
0.0
 40
0.0
 40
0.0
 40
0.0
 40
0.0772404236164777
 40
0.151178140466383
 40
0.223487983800399
 40
0.2955426441988695
 40
0.3669762546197894
 40
0.4371305254863863
 40
0.5070436156432693
 40
0.5785597335236778
 40
0.6166135446965532
 40
0.6587562369775289
 40
0.7044912261144043
 40
0.7548031149051498
 40
0.8093316253185656
 40
0.8682744554728209
 40
0.9320728834092938
 40
1.0
 40
1.0
 40
1.0
 40
1.0
 10
513.0236476823202
 20
470.7955884530761
 30
0.0
 10
513.0415375350964
 20
470.7949288107516
 30
0.0
 10
513.0765522922571
 20
470.7936377316078
 30
0.0
 10
513.1275329880772
 20
470.7834260656223
 30
0.0
 10
513.1751479315242
 20
470.7659842578818
 30
0.0
 10
513.219227346956
 20
470.7420916003188
 30
0.0
 10
513.2589629305783
 20
470.7123802249548
 30
0.0
 10
513.2938595262254
 20
470.6777660038732
 30
0.0
 10
513.3227230155617
 20
470.6379514724121
 30
0.0
 10
513.3420743997907
 20
470.6010144460965
 30
0.0
 10
513.3548218916262
 20
470.5682481458803
 30
0.0
 10
513.3628472096747
 20
470.5401846421227
 30
0.0
 10
513.3696624913572
 20
470.5089191504606
 30
0.0
 10
513.3755709199235
 20
470.4745461510263
 30
0.0
 10
513.3795688163733
 20
470.4368248112584
 30
0.0
 10
513.3827220039461
 20
470.3959097609883
 30
0.0
 10
513.3849818080373
 20
470.3518142533308
 30
0.0
 10
513.3850714666305
 20
470.32131662928
 30
0.0
 10
513.3851177010168
 20
470.3055898720131
 30
0.0
  0
LINE
  5
141
330
1F
100
AcDbEntity
  8
0
  6
Continuous
 62
     7
370
    15
100
AcDbLine
 10
505.7314405676
 20
470.388537171
 30
0.0
 11
506.4652459061
 21
470.388537171
 31
0.0
  0
SPLINE
  5
142
330
1F
100
AcDbEntity
  8
0
  6
Continuous
 62
     7
370
    15
100
AcDbSpline
210
0.0
220
0.0
230
1.0
 70
     8
 71
     3
 72
    19
 73
    15
 74
     0
 42
0.000000001
 43
0.00000001
 40
0.0
 40
0.0
 40
0.0
 40
0.0
 40
0.0962401251801507
 40
0.1852312611287011
 40
0.2675005230774393
 40
0.3444003817777766
 40
0.4195948685557301
 40
0.4968906265927774
 40
0.5766379188385165
 40
0.6602678524196381
 40
0.7453866150876284
 40
0.8300403273864532
 40
0.9144742116388019
 40
0.9999999999999999
 40
0.9999999999999999
 40
0.9999999999999999
 40
0.9999999999999999
 10
506.465245906145
 20
470.3885371710248
 30
0.0
 10
506.460900455793
 20
470.4042847453195
 30
0.0
 10
506.4525368626723
 20
470.4345937566686
 30
0.0
 10
506.4350606177773
 20
470.4765645694256
 30
0.0
 10
506.4153788151928
 20
470.5138662462954
 30
0.0
 10
506.3920872679171
 20
470.5462133099803
 30
0.0
 10
506.3656974519809
 20
470.5749408282801
 30
0.0
 10
506.3352154930634
 20
470.6000454720786
 30
0.0
 10
506.3010328785585
 20
470.6225038538809
 30
0.0
 10
506.2633262986
 20
470.6414603045722
 30
0.0
 10
506.2233962191218
 20
470.657596054744
 30
0.0
 10
506.1815897120374
 20
470.6684156669471
 30
0.0
 10
506.1389321553124
 20
470.6758276070424
 30
0.0
 10
506.110079612556
 20
470.6765178325505
 30
0.0
 10
506.0955606597508
 20
470.6768651624778
 30
0.0
  0
SPLINE
  5
143
330
1F
100
AcDbEntity
  8
0
  6
Continuous
 62
     7
370
    15
100
AcDbSpline
210
0.0
220
0.0
230
1.0
 70
     8
 71
     3
 72
    15
 73
    11
 74
     0
 42
0.000000001
 43
0.00000001
 40
0.0
 40
0.0
 40
0.0
 40
0.0
 40
0.1099838451118727
 40
0.2225804973638886
 40
0.3384998709624456
 40
0.4587085654776341
 40
0.5855353464579961
 40
0.7175177429458921
 40
0.854666819751022
 40
1.0
 40
1.0
 40
1.0
 40
1.0
 10
505.8464537553704
 20
470.5862326504586
 30
0.0
 10
505.840144092247
 20
470.580527358541
 30
0.0
 10
505.8273748718693
 20
470.5689812381873
 30
0.0
 10
505.8103128295207
 20
470.5490886511874
 30
0.0
 10
505.7939765199043
 20
470.5276379119179
 30
0.0
 10
505.7791093356793
 20
470.5038083558941
 30
0.0
 10
505.7654728669876
 20
470.4778713352577
 30
0.0
 10
505.7527123994223
 20
470.4500456219398
 30
0.0
 10
505.7412270591414
 20
470.4201200637755
 30
0.0
 10
505.7347651365989
 20
470.3992661953767
 30
0.0
 10
505.7314405676033
 20
470.3885371710248
 30
0.0
  0
SPLINE
  5
144
330
1F
100
AcDbEntity
  8
0
  6
Continuous
 62
     7
370
    15
100
AcDbSpline
210
0.0
220
0.0
230
1.0
 70
     8
 71
     3
 72
    15
 73
    11
 74
     0
 42
0.000000001
 43
0.00000001
 40
0.0
 40
0.0
 40
0.0
 40
0.0
 40
0.1310919762569281
 40
0.2591412763281413
 40
0.3841617634834039
 40
0.5059919524977761
 40
0.6290980893898571
 40
0.7506691234237093
 40
0.8740389376151269
 40
1.0
 40
1.0
 40
1.0
 40
1.0
 10
506.0955606597508
 20
470.6768651624778
 30
0.0
 10
506.0837113184067
 20
470.6766339651974
 30
0.0
 10
506.0602876617709
 20
470.6761769367808
 30
0.0
 10
506.0257780318288
 20
470.6718415009913
 30
0.0
 10
505.9926371932497
 20
470.6646751310547
 30
0.0
 10
505.9606206113251
 20
470.6548609956723
 30
0.0
 10
505.9301478426249
 20
470.6417797679406
 30
0.0
 10
505.9005920820185
 20
470.6264402745495
 30
0.0
 10
505.8727048489141
 20
470.6077147354337
 30
0.0
 10
505.855264537826
 20
470.5934427873275
 30
0.0
 10
505.8464537553704
 20
470.5862326504586
 30
0.0
  0
SPLINE
  5
145
330
1F
100
AcDbEntity
  8
0
  6
Continuous
 62
     7
370
    15
100
AcDbSpline
210
0.0
220
0.0
230
1.0
 70
     8
 71
     3
 72
    19
 73
    15
 74
     0
 42
0.000000001
 43
0.00000001
 40
0.0
 40
0.0
 40
0.0
 40
0.0
 40
0.0859205174117674
 40
0.1695934351247438
 40
0.2524755148685386
 40
0.3362444769570506
 40
0.4195045210415722
 40
0.5020359066440894
 40
0.5847746476768716
 40
0.669846474705801
 40
0.7541848663887865
 40
0.8366582383293273
 40
0.9180097257088055
 40
1.0
 40
1.0
 40
1.0
 40
1.0
 10
507.6699692969036
 20
470.6768651624778
 30
0.0
 10
507.6526147703864
 20
470.6762476863118
 30
0.0
 10
507.6183596953978
 20
470.6750288865739
 30
0.0
 10
507.5680722303325
 20
470.6655139047631
 30
0.0
 10
507.519950791079
 20
470.6496825253458
 30
0.0
 10
507.474236054674
 20
470.628031330559
 30
0.0
 10
507.4316501513672
 20
470.6008061830876
 30
0.0
 10
507.393590341262
 20
470.567876374522
 30
0.0
 10
507.3597453321186
 20
470.5301403602433
 30
0.0
 10
507.3312806012925
 20
470.4877684316137
 30
0.0
 10
507.3080764551354
 20
470.4423439745729
 30
0.0
 10
507.2917603448498
 20
470.3948609280287
 30
0.0
 10
507.2809996471683
 20
470.3461757132974
 30
0.0
 10
507.2799002956465
 20
470.3131546981374
 30
0.0
 10
507.2793484702476
 20
470.2965796222801
 30
0.0
  0
SPLINE
  5
146
330
1F
100
AcDbEntity
  8
0
  6
Continuous
 62
     7
370
    15
100
AcDbSpline
210
0.0
220
0.0
230
1.0
 70
     8
 71
     3
 72
    19
 73
    15
 74
     0
 42
0.000000001
 43
0.00000001
 40
0.0
 40
0.0
 40
0.0
 40
0.0
 40
0.0815893489321834
 40
0.162858895167935
 40
0.2454836892755793
 40
0.330807139158011
 40
0.4164933737762847
 40
0.4998932031606322
 40
0.583048155995021
 40
0.6671578520621577
 40
0.7513119292929142
 40
0.833784789357615
 40
0.9162564885439797
 40
1.0
 40
1.0
 40
1.0
 40
1.0
 10
507.2793484702476
 20
470.2965796222801
 30
0.0
 10
507.2800533555164
 20
470.2801035996243
 30
0.0
 10
507.2814603631419
 20
470.2472161347578
 30
0.0
 10
507.2915714887031
 20
470.1984645477054
 30
0.0
 10
507.3085350122926
 20
470.1509703115691
 30
0.0
 10
507.3316830538594
 20
470.1051365431852
 30
0.0
 10
507.3606687721348
 20
470.0625824338215
 30
0.0
 10
507.3942665664031
 20
470.0241270898771
 30
0.0
 10
507.4328013453517
 20
469.9910581085954
 30
0.0
 10
507.4754852542755
 20
469.9633760495244
 30
0.0
 10
507.5210721954685
 20
469.9410140252573
 30
0.0
 10
507.5690124017098
 20
469.9254543936579
 30
0.0
 10
507.6184046816082
 20
469.9154086253878
 30
0.0
 10
507.6519887482725
 20
469.9142352070596
 30
0.0
 10
507.6689092675232
 20
469.9136440086316
 30
0.0
  0
SPLINE
  5
147
330
1F
100
AcDbEntity
  8
0
  6
Continuous
 62
     7
370
    15
100
AcDbSpline
210
0.0
220
0.0
230
1.0
 70
     8
 71
     3
 72
    19
 73
    15
 74
     0
 42
0.000000001
 43
0.00000001
 40
0.0
 40
0.0
 40
0.0
 40
0.0
 40
0.0848023883688278
 40
0.1686635395998416
 40
0.2525519243727825
 40
0.338239689464245
 40
0.4231026613931558
 40
0.5055560510576226
 40
0.5861756559890524
 40
0.6671357203303606
 40
0.748499180305534
 40
0.830452398758279
 40
0.9134557062010135
 40
1.0
 40
1.0
 40
1.0
 40
1.0
 10
507.6689092675232
 20
469.9136440086316
 30
0.0
 10
507.6860869635077
 20
469.9142714354726
 30
0.0
 10
507.7202516971036
 20
469.91551932523
 30
0.0
 10
507.7706883515701
 20
469.925075041576
 30
0.0
 10
507.8196343642944
 20
469.940862652857
 30
0.0
 10
507.8664229893064
 20
469.9627471442118
 30
0.0
 10
507.9100097412581
 20
469.9898697162325
 30
0.0
 10
507.949129474762
 20
470.0216223964734
 30
0.0
 10
507.9822084270936
 20
470.0585518738052
 30
0.0
 10
508.0102514670235
 20
470.099137616474
 30
0.0
 10
508.0322403894066
 20
470.1436299484696
 30
0.0
 10
508.0482575308293
 20
470.1910032884242
 30
0.0
 10
508.0577273106911
 20
470.2412592854909
 30
0.0
 10
508.058920857312
 20
470.2756036864544
 30
0.0
 10
508.0595300941792
 20
470.2931345267941
 30
0.0
  0
SPLINE
  5
148
330
1F
100
AcDbEntity
  8
0
  6
Continuous
 62
     7
370
    15
100
AcDbSpline
210
0.0
220
0.0
230
1.0
 70
     8
 71
     3
 72
    23
 73
    19
 74
     0
 42
0.000000001
 43
0.00000001
 40
0.0
 40
0.0
 40
0.0
 40
0.0
 40
0.06563379967569
 40
0.1291880880571289
 40
0.1912186831121887
 40
0.2519128178811572
 40
0.3125074743865506
 40
0.3734944337751983
 40
0.4351515996540498
 40
0.4987414744066493
 40
0.5620952169966309
 40
0.6241865668116559
 40
0.6854757184651954
 40
0.7460968148060529
 40
0.8076116364477851
 40
0.86996658065719
 40
0.9339510189149071
 40
1.0
 40
1.0
 40
1.0
 40
1.0
 10
508.0595300941792
 20
470.2931345267941
 30
0.0
 10
508.0591673669197
 20
470.3064913853491
 30
0.0
 10
508.0584534048853
 20
470.3327819098608
 30
0.0
 10
508.0529989931877
 20
470.3713836798955
 30
0.0
 10
508.0443225775498
 20
470.4083247013377
 30
0.0
 10
508.0320964954306
 20
470.4436438129759
 30
0.0
 10
508.0160358016187
 20
470.4771457384393
 30
0.0
 10
507.9966653662986
 20
470.5090710287569
 30
0.0
 10
507.973644556429
 20
470.5392536413952
 30
0.0
 10
507.9473439540341
 20
470.5672779569139
 30
0.0
 10
507.9185553209291
 20
470.592839149494
 30
0.0
 10
507.8880925034878
 20
470.6156553952392
 30
0.0
 10
507.8555945842509
 20
470.6343987706498
 30
0.0
 10
507.8216080851779
 20
470.6499113941028
 30
0.0
 10
507.7860740391163
 20
470.6622557751653
 30
0.0
 10
507.7487032988873
 20
470.670491004655
 30
0.0
 10
507.7098930865666
 20
470.6761456498083
 30
0.0
 10
507.68341734539
 20
470.6766227996824
 30
0.0
 10
507.6699692969036
 20
470.6768651624778
 30
0.0
  0
SPLINE
  5
149
330
1F
100
AcDbEntity
  8
0
  6
Continuous
 62
     7
370
    15
100
AcDbSpline
210
0.0
220
0.0
230
1.0
 70
     8
 71
     3
 72
    23
 73
    19
 74
     0
 42
0.000000001
 43
0.00000001
 40
0.0
 40
0.0
 40
0.0
 40
0.0
 40
0.0656337996756899
 40
0.1291880880571289
 40
0.1912186831121886
 40
0.2519128178811572
 40
0.3125074743865504
 40
0.3734944337751978
 40
0.4351515996540498
 40
0.498741474406649
 40
0.5620952169966309
 40
0.6241865668116553
 40
0.6854757184651952
 40
0.7460968148060529
 40
0.8076116364477851
 40
0.8699665806571897
 40
0.9339510189149071
 40
1.0
 40
1.0
 40
1.0
 40
1.0
 10
511.0276123591365
 20
470.2931345267941
 30
0.0
 10
511.027249631877
 20
470.3064913853491
 30
0.0
 10
511.0265356698426
 20
470.3327819098608
 30
0.0
 10
511.021081258145
 20
470.3713836798955
 30
0.0
 10
511.0124048425071
 20
470.4083247013377
 30
0.0
 10
511.0001787603878
 20
470.4436438129759
 30
0.0
 10
510.984118066576
 20
470.4771457384393
 30
0.0
 10
510.9647476312558
 20
470.5090710287569
 30
0.0
 10
510.9417268213863
 20
470.5392536413952
 30
0.0
 10
510.9154262189913
 20
470.5672779569139
 30
0.0
 10
510.8866375858864
 20
470.592839149494
 30
0.0
 10
510.8561747684451
 20
470.6156553952392
 30
0.0
 10
510.8236768492082
 20
470.6343987706498
 30
0.0
 10
510.7896903501351
 20
470.6499113941028
 30
0.0
 10
510.7541563040735
 20
470.6622557751653
 30
0.0
 10
510.7167855638446
 20
470.670491004655
 30
0.0
 10
510.6779753515239
 20
470.6761456498083
 30
0.0
 10
510.6514996103473
 20
470.6766227996824
 30
0.0
 10
510.6380515618608
 20
470.6768651624778
 30
0.0
  0
SPLINE
  5
14A
330
1F
100
AcDbEntity
  8
0
  6
Continuous
 62
     7
370
    15
100
AcDbSpline
210
0.0
220
0.0
230
1.0
 70
     8
 71
     3
 72
    19
 73
    15
 74
     0
 42
0.000000001
 43
0.00000001
 40
0.0
 40
0.0
 40
0.0
 40
0.0
 40
0.0815893489321834
 40
0.1628588951679349
 40
0.2454836892755791
 40
0.3308071391580109
 40
0.4164933737762843
 40
0.4998932031606321
 40
0.5830481559950208
 40
0.6671578520621574
 40
0.751311929292914
 40
0.8337847893576147
 40
0.9162564885439797
 40
0.9999999999999999
 40
0.9999999999999999
 40
0.9999999999999999
 40
0.9999999999999999
 10
510.2474307352048
 20
470.2965796222801
 30
0.0
 10
510.2481356204737
 20
470.2801035996243
 30
0.0
 10
510.2495426280992
 20
470.2472161347578
 30
0.0
 10
510.2596537536604
 20
470.1984645477054
 30
0.0
 10
510.2766172772498
 20
470.1509703115691
 30
0.0
 10
510.2997653188167
 20
470.1051365431852
 30
0.0
 10
510.3287510370921
 20
470.0625824338215
 30
0.0
 10
510.3623488313604
 20
470.0241270898771
 30
0.0
 10
510.400883610309
 20
469.9910581085954
 30
0.0
 10
510.4435675192328
 20
469.9633760495244
 30
0.0
 10
510.4891544604258
 20
469.9410140252573
 30
0.0
 10
510.537094666667
 20
469.9254543936579
 30
0.0
 10
510.5864869465655
 20
469.9154086253878
 30
0.0
 10
510.6200710132297
 20
469.9142352070596
 30
0.0
 10
510.6369915324805
 20
469.9136440086316
 30
0.0
  0
SPLINE
  5
14B
330
1F
100
AcDbEntity
  8
0
  6
Continuous
 62
     7
370
    15
100
AcDbSpline
210
0.0
220
0.0
230
1.0
 70
     8
 71
     3
 72
    19
 73
    15
 74
     0
 42
0.000000001
 43
0.00000001
 40
0.0
 40
0.0
 40
0.0
 40
0.0
 40
0.0848023883688275
 40
0.1686635395998409
 40
0.2525519243727819
 40
0.3382396894642444
 40
0.4231026613931553
 40
0.5055560510576222
 40
0.5861756559890521
 40
0.6671357203303606
 40
0.7484991803055339
 40
0.830452398758279
 40
0.9134557062010135
 40
1.0
 40
1.0
 40
1.0
 40
1.0
 10
510.6369915324805
 20
469.9136440086316
 30
0.0
 10
510.654169228465
 20
469.9142714354726
 30
0.0
 10
510.6883339620609
 20
469.91551932523
 30
0.0
 10
510.7387706165274
 20
469.925075041576
 30
0.0
 10
510.7877166292516
 20
469.940862652857
 30
0.0
 10
510.8345052542637
 20
469.9627471442118
 30
0.0
 10
510.8780920062154
 20
469.9898697162325
 30
0.0
 10
510.9172117397193
 20
470.0216223964734
 30
0.0
 10
510.9502906920509
 20
470.0585518738052
 30
0.0
 10
510.9783337319807
 20
470.099137616474
 30
0.0
 10
511.0003226543639
 20
470.1436299484696
 30
0.0
 10
511.0163397957866
 20
470.1910032884242
 30
0.0
 10
511.0258095756484
 20
470.2412592854909
 30
0.0
 10
511.0270031222693
 20
470.2756036864544
 30
0.0
 10
511.0276123591365
 20
470.2931345267941
 30
0.0
  0
SPLINE
  5
14C
330
1F
100
AcDbEntity
  8
0
  6
Continuous
 62
     7
370
    15
100
AcDbSpline
210
0.0
220
0.0
230
1.0
 70
     8
 71
     3
 72
    19
 73
    15
 74
     0
 42
0.000000001
 43
0.00000001
 40
0.0
 40
0.0
 40
0.0
 40
0.0
 40
0.0859205174117674
 40
0.1695934351247436
 40
0.2524755148685384
 40
0.3362444769570504
 40
0.419504521041572
 40
0.5020359066440893
 40
0.5847746476768715
 40
0.669846474705801
 40
0.7541848663887865
 40
0.8366582383293272
 40
0.9180097257088055
 40
1.0
 40
1.0
 40
1.0
 40
1.0
 10
510.6380515618608
 20
470.6768651624778
 30
0.0
 10
510.6206970353437
 20
470.6762476863118
 30
0.0
 10
510.5864419603551
 20
470.6750288865739
 30
0.0
 10
510.5361544952898
 20
470.6655139047631
 30
0.0
 10
510.4880330560363
 20
470.6496825253458
 30
0.0
 10
510.4423183196312
 20
470.628031330559
 30
0.0
 10
510.3997324163245
 20
470.6008061830876
 30
0.0
 10
510.3616726062193
 20
470.567876374522
 30
0.0
 10
510.3278275970759
 20
470.5301403602433
 30
0.0
 10
510.2993628662498
 20
470.4877684316137
 30
0.0
 10
510.2761587200926
 20
470.4423439745729
 30
0.0
 10
510.259842609807
 20
470.3948609280287
 30
0.0
 10
510.2490819121256
 20
470.3461757132974
 30
0.0
 10
510.2479825606038
 20
470.3131546981374
 30
0.0
 10
510.2474307352048
 20
470.2965796222801
 30
0.0
  0
LWPOLYLINE
  5
14D
330
1F
100
AcDbEntity
  8
0
  6
Continuous
 62
     8
370
    15
100
AcDbPolyline
 90
       14
 70
   128
 43
0.0
 10
532.911005129
 20
463.8118811881
 10
533.6018026778
 20
464.0003822213
 10
534.2491948761
 20
464.5540411079
 10
534.812503691
 20
465.4380694236
 10
535.2563343581
 20
466.5969204182
 10
535.5527993642
 20
467.9577792219
 10
535.6832707226
 20
469.4351380709
 10
535.6395504381
 20
470.9361690756
 10
535.424385617
 20
472.3665569375
 10
535.0512958562
 20
473.6364251266
 10
534.5437237576
 20
474.6659831544
 10
533.9335619428
 20
475.3905401034
 10
533.2591491228
 20
475.764569396
 10
532.911005129
 20
475.8118811881
  0
LWPOLYLINE
  5
14E
330
1F
100
AcDbEntity
  8
0
  6
Continuous
 62
     8
370
    15
100
AcDbPolyline
 90
       14
 70
   128
 43
0.0
 10
496.3246307952
 20
475.8118811881
 10
496.1385431074
 20
475.764569396
 10
495.7780603058
 20
475.3905401034
 10
495.4519205382
 20
474.6659831544
 10
495.1806163656
 20
473.6364251266
 10
494.981194827
 20
472.3665569375
 10
494.8661863111
 20
470.9361690756
 10
494.8428172259
 20
469.4351380709
 10
494.912555937
 20
467.9577792219
 10
495.0710205047
 20
466.5969204182
 10
495.3082540174
 20
465.4380694236
 10
495.609350221
 20
464.5540411079
 10
495.9553901337
 20
464.0003822213
 10
496.3246307952
 20
463.8118811881
  0
LINE
  5
14F
330
1F
100
AcDbEntity
  8
0
  6
Continuous
 62
     7
370
    15
100
AcDbLine
 10
2423.9003612326
 20
1428.5935513412
 30
0.0
 11
2423.9003612326
 21
1201.4442166551
 31
0.0
  0
LINE
  5
150
330
1F
100
AcDbEntity
  8
0
  6
Continuous
 62
     7
370
    15
100
AcDbLine
 10
2435.9003612326
 20
1201.4442166551
 30
0.0
 11
2435.9003612326
 21
1428.5935513412
 31
0.0
  0
LINE
  5
151
330
1F
100
AcDbEntity
  8
0
  6
Continuous
 62
     7
370
    15
100
AcDbLine
 10
2433.9259921383
 20
1427.759132072
 30
0.0
 11
2433.9259921383
 21
1427.933879771
 31
0.0
  0
LINE
  5
152
330
1F
100
AcDbEntity
  8
0
  6
Continuous
 62
     7
370
    15
100
AcDbLine
 10
2432.93598243
 20
1428.0281954974
 30
0.0
 11
2432.93598243
 21
1428.2029431964
 31
0.0
  0
LINE
  5
153
330
1F
100
AcDbEntity
  8
0
  6
Continuous
 62
     7
370
    15
100
AcDbLine
 10
2431.1266973058
 20
1428.440979137
 30
0.0
 11
2431.1266973058
 21
1428.274163287
 31
0.0
  0
LINE
  5
154
330
1F
100
AcDbEntity
  8
0
  6
Continuous
 62
     7
370
    15
100
AcDbLine
 10
2431.904299566
 20
1428.2565846453
 30
0.0
 11
2431.904299566
 21
1428.4341138302
 31
0.0
  0
LINE
  5
155
330
1F
100
AcDbEntity
  8
0
  6
Continuous
 62
     7
370
    15
100
AcDbLine
 10
2430.8479519127
 20
1428.6106387785
 30
0.0
 11
2430.8479519127
 21
1428.7768203603
 31
0.0
  0
LINE
  5
156
330
1F
100
AcDbEntity
  8
0
  6
Continuous
 62
     7
370
    15
100
AcDbLine
 10
2430.2601645007
 20
1428.7554895676
 30
0.0
 11
2430.2601645007
 21
1428.9361799928
 31
0.0
  0
LINE
  5
157
330
1F
100
AcDbEntity
  8
0
  6
Continuous
 62
     7
370
    15
100
AcDbLine
 10
2428.5016715641
 20
1429.1544048861
 30
0.0
 11
2428.5016715641
 21
1428.9875890361
 31
0.0
  0
LINE
  5
158
330
1F
100
AcDbEntity
  8
0
  6
Continuous
 62
     7
370
    15
100
AcDbLine
 10
2429.2792738243
 20
1428.9700103944
 30
0.0
 11
2429.2792738243
 21
1429.1475395793
 31
0.0
  0
LINE
  5
159
330
1F
100
AcDbEntity
  8
0
  6
Continuous
 62
     7
370
    15
100
AcDbLine
 10
2427.1079259467
 20
1429.517628374
 30
0.0
 11
2427.1079259467
 21
1429.3639348377
 31
0.0
  0
LINE
  5
15A
330
1F
100
AcDbEntity
  8
0
  6
Continuous
 62
     7
370
    15
100
AcDbLine
 10
2427.8811554204
 20
1429.4090038587
 30
0.0
 11
2427.8811554204
 21
1429.5394252542
 31
0.0
  0
SPLINE
  5
15B
330
1F
100
AcDbEntity
  8
0
  6
Continuous
 62
     7
370
    15
100
AcDbSpline
210
0.0
220
0.0
230
1.0
 70
     8
 71
     3
 72
    20
 73
    16
 74
     0
 42
0.000000001
 43
0.00000001
 40
0.0
 40
0.0
 40
0.0
 40
0.0
 40
0.0408893539197172
 40
0.1210258339268957
 40
0.2011836540145778
 40
0.2813254072685905
 40
0.3614328735783823
 40
0.4414934721945448
 40
0.5214986580892768
 40
0.6014463338378782
 40
0.6813440627054281
 40
0.7612125142535593
 40
0.841077257376166
 40
0.9209936387933768
 40
1.0
 40
1.0
 40
1.0
 40
1.0
 10
2454.671208000029
 20
1166.718222779084
 30
0.0
 10
2454.213549620106
 20
1167.081898225403
 30
0.0
 10
2452.858955287493
 20
1168.158318367818
 30
0.0
 10
2450.702482461804
 20
1170.091402202646
 30
0.0
 10
2448.271878587818
 20
1172.562094371699
 30
0.0
 10
2446.015345750227
 20
1175.18523716214
 30
0.0
 10
2443.950107670874
 20
1177.934498018646
 30
0.0
 10
2442.093504331106
 20
1180.786874929673
 30
0.0
 10
2440.460064460179
 20
1183.717222326251
 30
0.0
 10
2439.061983182707
 20
1186.700087277751
 30
0.0
 10
2437.909493375704
 20
1189.709367372607
 30
0.0
 10
2437.008226127778
 20
1192.719714146506
 30
0.0
 10
2436.369036380305
 20
1195.703007405031
 30
0.0
 10
2435.972669538493
 20
1198.630986485642
 30
0.0
 10
2435.924371814063
 20
1200.510059902743
 30
0.0
 10
2435.900361232577
 20
1201.4442166551
 30
0.0
  0
SPLINE
  5
15C
330
1F
100
AcDbEntity
  8
0
  6
Continuous
 62
     7
370
    15
100
AcDbSpline
210
0.0
220
0.0
230
1.0
 70
     8
 71
     3
 72
    21
 73
    17
 74
     0
 42
0.000000001
 43
0.00000001
 40
0.0
 40
0.0
 40
0.0
 40
0.0
 40
0.0411927979497167
 40
0.115342019457907
 40
0.1896279934577757
 40
0.2641020818293899
 40
0.3387108375591636
 40
0.4134097663467623
 40
0.4881646205651266
 40
0.562951118148015
 40
0.6377513076394287
 40
0.7125600447500223
 40
0.7873774733677432
 40
0.8622074024128532
 40
0.937055790150615
 40
0.9999999999999999
 40
0.9999999999999999
 40
0.9999999999999999
 40
0.9999999999999999
 10
2423.900361232577
 20
1201.4442166551
 30
0.0
 10
2423.909348385349
 20
1200.788912815058
 30
0.0
 10
2423.934512889862
 20
1198.954027300331
 30
0.0
 10
2424.205022847762
 20
1195.900205162932
 30
0.0
 10
2424.792997951804
 20
1192.290986394632
 30
0.0
 10
2425.666909239125
 20
1188.671817446322
 30
0.0
 10
2426.815952782434
 20
1185.065752408245
 30
0.0
 10
2428.233639466634
 20
1181.495880967667
 30
0.0
 10
2429.909931144864
 20
1177.985124434032
 30
0.0
 10
2431.833683771768
 20
1174.555693133981
 30
0.0
 10
2433.992160601488
 20
1171.228897151284
 30
0.0
 10
2436.371707435784
 20
1168.0256139399
 30
0.0
 10
2438.956554115191
 20
1164.964194129623
 30
0.0
 10
2441.733786697864
 20
1162.068148731518
 30
0.0
 10
2444.518805429736
 20
1159.482670288823
 30
0.0
 10
2446.429756574833
 20
1157.947999694074
 30
0.0
 10
2447.302686703122
 20
1157.246956026583
 30
0.0
  0
SPLINE
  5
15D
330
1F
100
AcDbEntity
  8
0
  6
Continuous
 62
     7
370
    15
100
AcDbSpline
210
0.0
220
0.0
230
1.0
 70
     8
 71
     3
 72
    40
 73
    36
 74
     0
 42
0.000000001
 43
0.00000001
 40
0.0
 40
0.0
 40
0.0
 40
0.0
 40
0.0170984975921859
 40
0.0481252468746381
 40
0.079081356835836
 40
0.1099109857705381
 40
0.1405986237135063
 40
0.1711371732498955
 40
0.2015301355677974
 40
0.2317926295984627
 40
0.2619508516254712
 40
0.2920400144235464
 40
0.3221008198086946
 40
0.3521623631033845
 40
0.3822665532477926
 40
0.4124503674246229
 40
0.4427426808082257
 40
0.4731622445482005
 40
0.5037170282531226
 40
0.5344049345633717
 40
0.565215649387117
 40
0.5961331917975735
 40
0.6271386435503244
 40
0.6582125963234088
 40
0.689337018934413
 40
0.7204964423619008
 40
0.7516785187448897
 40
0.7828740986440638
 40
0.8140762664009432
 40
0.8452813631042679
 40
0.8764884100822077
 40
0.9076978552173963
 40
0.9389111286106461
 40
0.9701302296809504
 40
1.0
 40
1.0
 40
1.0
 40
1.0
 10
2441.025985184081
 20
1076.752343008934
 30
0.0
 10
2441.715631612079
 20
1076.74446883159
 30
0.0
 10
2443.656703008829
 20
1076.722306256979
 30
0.0
 10
2446.799488809314
 20
1076.916580597552
 30
0.0
 10
2450.407680808332
 20
1077.423242007819
 30
0.0
 10
2453.899399984702
 20
1078.223889278202
 30
0.0
 10
2457.253022553806
 20
1079.307279568835
 30
0.0
 10
2460.448636808055
 20
1080.666733318295
 30
0.0
 10
2463.468240303893
 20
1082.292031757125
 30
0.0
 10
2466.29555193323
 20
1084.172004576205
 30
0.0
 10
2468.916090705691
 20
1086.294355972715
 30
0.0
 10
2471.316992000566
 20
1088.646156885276
 30
0.0
 10
2473.486453251112
 20
1091.213639903122
 30
0.0
 10
2475.413993739309
 20
1093.982573548536
 30
0.0
 10
2477.090266375654
 20
1096.938281071403
 30
0.0
 10
2478.507066688731
 20
1100.066029343043
 30
0.0
 10
2479.656945458133
 20
1103.350373310886
 30
0.0
 10
2480.533296061082
 20
1106.77488736123
 30
0.0
 10
2481.130559826102
 20
1110.32196642452
 30
0.0
 10
2481.444496842793
 20
1113.972752804524
 30
0.0
 10
2481.472457583314
 20
1117.70721101517
 30
0.0
 10
2481.213596810304
 20
1121.504334673355
 30
0.0
 10
2480.668993177405
 20
1125.342440010202
 30
0.0
 10
2479.841666490724
 20
1129.199488988676
 30
0.0
 10
2478.736508655035
 20
1133.053391454054
 30
0.0
 10
2477.360158619145
 20
1136.882256057722
 30
0.0
 10
2475.720849015546
 20
1140.664574603701
 30
0.0
 10
2473.828274808589
 20
1144.379334417893
 30
0.0
 10
2471.693419746264
 20
1148.006094433123
 30
0.0
 10
2469.328518249253
 20
1151.525224066186
 30
0.0
 10
2466.746547258239
 20
1154.917383406218
 30
0.0
 10
2463.962557444087
 20
1158.165683921809
 30
0.0
 10
2460.988370059065
 20
1161.247626078065
 30
0.0
 10
2457.897558205015
 20
1164.12298315865
 30
0.0
 10
2455.730704247793
 20
1165.865975978458
 30
0.0
 10
2454.671208000029
 20
1166.718222779084
 30
0.0
  0
SPLINE
  5
15E
330
1F
100
AcDbEntity
  8
0
  6
Continuous
 62
     7
370
    15
100
AcDbSpline
210
0.0
220
0.0
230
1.0
 70
     8
 71
     3
 72
    37
 73
    33
 74
     0
 42
0.000000001
 43
0.00000001
 40
0.0
 40
0.0
 40
0.0
 40
0.0
 40
0.017311131155715
 40
0.0510931305038937
 40
0.0848832402723564
 40
0.1186689015384038
 40
0.1524448680749474
 40
0.1862069468495059
 40
0.2199521327570058
 40
0.2536789631550675
 40
0.2873882950263277
 40
0.3210842408330336
 40
0.3547735819216898
 40
0.3884670699654125
 40
0.4221835993295684
 40
0.4559502283960432
 40
0.4898034919675578
 40
0.5237900727009969
 40
0.5579660134893156
 40
0.5923931749429814
 40
0.6271311794422367
 40
0.6622231547516643
 40
0.6976753978653176
 40
0.7334361686480791
 40
0.7693863696952697
 40
0.8053181501426483
 40
0.8410469868098205
 40
0.8764655579281952
 40
0.9115357089914796
 40
0.946274328932896
 40
0.9807296441626363
 40
1.0
 40
1.0
 40
1.0
 40
1.0
 10
2447.302686703122
 20
1157.246956026583
 30
0.0
 10
2447.803827606521
 20
1156.849329010499
 30
0.0
 10
2449.282925497232
 20
1155.675748333308
 30
0.0
 10
2451.643966281704
 20
1153.580824833245
 30
0.0
 10
2454.317829956536
 20
1150.91564183166
 30
0.0
 10
2456.820226924599
 20
1148.092678694722
 30
0.0
 10
2459.135183042975
 20
1145.135997219239
 30
0.0
 10
2461.246123281962
 20
1142.066164233902
 30
0.0
 10
2463.138884800807
 20
1138.905811861413
 30
0.0
 10
2464.80101026908
 20
1135.677936621537
 30
0.0
 10
2466.222073628835
 20
1132.406060085111
 30
0.0
 10
2467.393683366092
 20
1129.113904978742
 30
0.0
 10
2468.309546937779
 20
1125.825182803637
 30
0.0
 10
2468.965507256838
 20
1122.563224869927
 30
0.0
 10
2469.359488501534
 20
1119.350591868228
 30
0.0
 10
2469.491322910449
 20
1116.208683821745
 30
0.0
 10
2469.362455024906
 20
1113.157466448147
 30
0.0
 10
2468.975533124379
 20
1110.215228444587
 30
0.0
 10
2468.333892140402
 20
1107.398495777469
 30
0.0
 10
2467.441002552422
 20
1104.722203602717
 30
0.0
 10
2466.300052735839
 20
1102.200220646612
 30
0.0
 10
2464.913940339935
 20
1099.846240426167
 30
0.0
 10
2463.285984733156
 20
1097.674843473567
 30
0.0
 10
2461.421468560276
 20
1095.702234248584
 30
0.0
 10
2459.330335862481
 20
1093.946606534691
 30
0.0
 10
2457.028304263276
 20
1092.425787284236
 30
0.0
 10
2454.535887537313
 20
1091.154286821176
 30
0.0
 10
2451.874856241413
 20
1090.142226896104
 30
0.0
 10
2449.066954404223
 20
1089.393891042549
 30
0.0
 10
2446.130830194624
 20
1088.917154401633
 30
0.0
 10
2443.531465962963
 20
1088.727218529658
 30
0.0
 10
2441.901505258281
 20
1088.743115113042
 30
0.0
 10
2441.316869977673
 20
1088.748816909079
 30
0.0
  0
SPLINE
  5
15F
330
1F
100
AcDbEntity
  8
0
  6
Continuous
 62
     7
370
    15
100
AcDbSpline
210
0.0
220
0.0
230
1.0
 70
     8
 71
     3
 72
    17
 73
    13
 74
     0
 42
0.000000001
 43
0.00000001
 40
0.0
 40
0.0
 40
0.0
 40
0.0
 40
0.0518381751145496
 40
0.1627532584069924
 40
0.2712111087943058
 40
0.379696303134382
 40
0.4886889417163383
 40
0.5981214420695681
 40
0.7074179861273858
 40
0.8162597967942644
 40
0.9255466976998065
 40
1.0
 40
1.0
 40
1.0
 40
1.0
 10
2418.483852487483
 20
1168.421175281758
 30
0.0
 10
2418.567360970771
 20
1168.416932950285
 30
0.0
 10
2418.82954762626
 20
1168.403613552584
 30
0.0
 10
2419.431536130296
 20
1168.279871488751
 30
0.0
 10
2420.291583557032
 20
1167.932419344048
 30
0.0
 10
2421.193173108691
 20
1167.380487367827
 30
0.0
 10
2422.051855226629
 20
1166.649227717873
 30
0.0
 10
2422.79532328889
 20
1165.788879615724
 30
0.0
 10
2423.366931537359
 20
1164.87067134559
 30
0.0
 10
2423.733423138822
 20
1163.986887912915
 30
0.0
 10
2423.884714826581
 20
1163.299563505956
 30
0.0
 10
2423.895849397188
 20
1162.995071301303
 30
0.0
 10
2423.900361232578
 20
1162.871688123504
 30
0.0
  0
SPLINE
  5
160
330
1F
100
AcDbEntity
  8
0
  6
Continuous
 62
     7
370
    15
100
AcDbSpline
210
0.0
220
0.0
230
1.0
 70
     8
 71
     3
 72
    20
 73
    16
 74
     0
 42
0.000000001
 43
0.00000001
 40
0.0
 40
0.0
 40
0.0
 40
0.0
 40
0.0526987499425726
 40
0.1330195729346263
 40
0.2140686655685018
 40
0.2960633203480826
 40
0.3787064408636838
 40
0.4617844341959016
 40
0.5451897637033484
 40
0.6289320743444543
 40
0.7130373431082176
 40
0.7975017277015108
 40
0.8821704745859906
 40
0.9667143773237987
 40
1.0
 40
1.0
 40
1.0
 40
1.0
 10
2435.900361232578
 20
1162.871688123504
 30
0.0
 10
2435.887550143923
 20
1163.32873201333
 30
0.0
 10
2435.855213028838
 20
1164.482379549626
 30
0.0
 10
2435.54018356893
 20
1166.342452019149
 30
0.0
 10
2434.917489878639
 20
1168.418523540867
 30
0.0
 10
2434.014253021303
 20
1170.443852518758
 30
0.0
 10
2432.851049497215
 20
1172.379862998861
 30
0.0
 10
2431.44815707314
 20
1174.186291651025
 30
0.0
 10
2429.831887715256
 20
1175.826051328162
 30
0.0
 10
2428.030515956134
 20
1177.265497323813
 30
0.0
 10
2426.074595775244
 20
1178.473109182356
 30
0.0
 10
2423.997840173115
 20
1179.420596252729
 30
0.0
 10
2421.839781697432
 20
1180.075849256459
 30
0.0
 10
2420.083110243323
 20
1180.361972823476
 30
0.0
 10
2419.062928169225
 20
1180.405385538701
 30
0.0
 10
2418.774737281074
 20
1180.417649181903
 30
0.0
  0
SPLINE
  5
161
330
1F
100
AcDbEntity
  8
0
  6
Continuous
 62
     7
370
    15
100
AcDbSpline
210
0.0
220
0.0
230
1.0
 70
     8
 71
     3
 72
    37
 73
    33
 74
     0
 42
0.000000001
 43
0.00000001
 40
0.0
 40
0.0
 40
0.0
 40
0.0
 40
0.017311131155715
 40
0.0510931305038938
 40
0.0848832402723565
 40
0.1186689015384049
 40
0.1524448680749501
 40
0.1862069468495066
 40
0.2199521327570178
 40
0.2536789631550838
 40
0.2873882950263389
 40
0.3210842408330464
 40
0.3547735819217033
 40
0.3884670699654257
 40
0.4221835993295806
 40
0.4559502283960553
 40
0.48980349196757
 40
0.5237900727010092
 40
0.5579660134893302
 40
0.5923931749429965
 40
0.6271311794422489
 40
0.6622231547516791
 40
0.6976753978653277
 40
0.7334361686480836
 40
0.7693863696952729
 40
0.8053181501426496
 40
0.8410469868098168
 40
0.876465557928188
 40
0.9115357089914815
 40
0.9462743289328929
 40
0.9807296441626528
 40
1.0
 40
1.0
 40
1.0
 40
1.0
 10
2412.498035762033
 20
1099.923036164254
 30
0.0
 10
2411.996894858634
 20
1100.320663180339
 30
0.0
 10
2410.517796967923
 20
1101.49424385753
 30
0.0
 10
2408.156756183451
 20
1103.589167357592
 30
0.0
 10
2405.482892508619
 20
1106.254350359178
 30
0.0
 10
2402.980495540557
 20
1109.077313496115
 30
0.0
 10
2400.66553942218
 20
1112.033994971599
 30
0.0
 10
2398.554599183192
 20
1115.103827956936
 30
0.0
 10
2396.661837664347
 20
1118.264180329426
 30
0.0
 10
2394.999712196075
 20
1121.492055569301
 30
0.0
 10
2393.578648836319
 20
1124.763932105727
 30
0.0
 10
2392.407039099063
 20
1128.056087212097
 30
0.0
 10
2391.491175527376
 20
1131.344809387201
 30
0.0
 10
2390.835215208317
 20
1134.606767320912
 30
0.0
 10
2390.441233963621
 20
1137.819400322611
 30
0.0
 10
2390.309399554707
 20
1140.961308369094
 30
0.0
 10
2390.43826744025
 20
1144.012525742691
 30
0.0
 10
2390.825189340776
 20
1146.954763746251
 30
0.0
 10
2391.466830324754
 20
1149.771496413369
 30
0.0
 10
2392.359719912733
 20
1152.447788588121
 30
0.0
 10
2393.500669729317
 20
1154.969771544226
 30
0.0
 10
2394.88678212522
 20
1157.323751764671
 30
0.0
 10
2396.514737732
 20
1159.495148717271
 30
0.0
 10
2398.379253904879
 20
1161.467757942253
 30
0.0
 10
2400.470386602674
 20
1163.223385656147
 30
0.0
 10
2402.772418201879
 20
1164.744204906601
 30
0.0
 10
2405.264834927843
 20
1166.015705369662
 30
0.0
 10
2407.925866223742
 20
1167.027765294733
 30
0.0
 10
2410.733768060932
 20
1167.776101148288
 30
0.0
 10
2413.669892270531
 20
1168.252837789204
 30
0.0
 10
2416.269256502192
 20
1168.442773661179
 30
0.0
 10
2417.899217206875
 20
1168.426877077796
 30
0.0
 10
2418.483852487483
 20
1168.421175281758
 30
0.0
  0
SPLINE
  5
162
330
1F
100
AcDbEntity
  8
0
  6
Continuous
 62
     7
370
    15
100
AcDbSpline
210
0.0
220
0.0
230
1.0
 70
     8
 71
     3
 72
    40
 73
    36
 74
     0
 42
0.000000001
 43
0.00000001
 40
0.0
 40
0.0
 40
0.0
 40
0.0
 40
0.0170984975921858
 40
0.0481252468746381
 40
0.0790813568358362
 40
0.1099109857705384
 40
0.1405986237135066
 40
0.171137173249896
 40
0.2015301355677978
 40
0.2317926295984638
 40
0.261950851625474
 40
0.2920400144235387
 40
0.3221008198086776
 40
0.3521623631033683
 40
0.3822665532477803
 40
0.4124503674246076
 40
0.4427426808082148
 40
0.4731622445481881
 40
0.5037170282531104
 40
0.5344049345633569
 40
0.5652156493871047
 40
0.5961331917975617
 40
0.627138643550311
 40
0.6582125963233917
 40
0.6893370189343996
 40
0.7204964423618896
 40
0.7516785187448782
 40
0.7828740986440504
 40
0.8140762664009232
 40
0.8452813631042563
 40
0.8764884100821905
 40
0.9076978552173771
 40
0.938911128610622
 40
0.9701302296809222
 40
1.0
 40
1.0
 40
1.0
 40
1.0
 10
2418.774737281074
 20
1180.417649181903
 30
0.0
 10
2418.085090853076
 20
1180.425523359248
 30
0.0
 10
2416.144019456327
 20
1180.447685933858
 30
0.0
 10
2413.001233655841
 20
1180.253411593286
 30
0.0
 10
2409.393041656823
 20
1179.746750183019
 30
0.0
 10
2405.901322480454
 20
1178.946102912636
 30
0.0
 10
2402.547699911349
 20
1177.862712622002
 30
0.0
 10
2399.3520856571
 20
1176.503258872542
 30
0.0
 10
2396.332482161262
 20
1174.877960433713
 30
0.0
 10
2393.505170531926
 20
1172.997987614632
 30
0.0
 10
2390.884631759465
 20
1170.875636218123
 30
0.0
 10
2388.48373046459
 20
1168.523835305562
 30
0.0
 10
2386.314269214044
 20
1165.956352287716
 30
0.0
 10
2384.386728725847
 20
1163.187418642303
 30
0.0
 10
2382.710456089502
 20
1160.231711119436
 30
0.0
 10
2381.293655776425
 20
1157.103962847796
 30
0.0
 10
2380.143777007023
 20
1153.819618879952
 30
0.0
 10
2379.267426404074
 20
1150.395104829609
 30
0.0
 10
2378.670162639053
 20
1146.848025766319
 30
0.0
 10
2378.356225622362
 20
1143.197239386315
 30
0.0
 10
2378.328264881841
 20
1139.46278117567
 30
0.0
 10
2378.58712565485
 20
1135.665657517484
 30
0.0
 10
2379.13172928775
 20
1131.827552180637
 30
0.0
 10
2379.95905597443
 20
1127.970503202163
 30
0.0
 10
2381.064213810119
 20
1124.116600736784
 30
0.0
 10
2382.440563846009
 20
1120.287736133117
 30
0.0
 10
2384.079873449608
 20
1116.505417587138
 30
0.0
 10
2385.972447656566
 20
1112.790657772946
 30
0.0
 10
2388.10730271889
 20
1109.163897757717
 30
0.0
 10
2390.472204215901
 20
1105.644768124653
 30
0.0
 10
2393.054175206914
 20
1102.252608784621
 30
0.0
 10
2395.838165021066
 20
1099.00430826903
 30
0.0
 10
2398.812352406088
 20
1095.922366112775
 30
0.0
 10
2401.903164260138
 20
1093.047009032188
 30
0.0
 10
2404.070018217361
 20
1091.30401621238
 30
0.0
 10
2405.129514465126
 20
1090.451769411754
 30
0.0
  0
LINE
  5
163
330
1F
100
AcDbEntity
  8
0
  6
Continuous
 62
     7
370
    15
100
AcDbLine
 10
2435.9003612326
 20
1094.2983040673
 30
0.0
 11
2435.9003612326
 21
1162.8716881235
 31
0.0
  0
LINE
  5
164
330
1F
100
AcDbEntity
  8
0
  6
Continuous
 62
     7
370
    15
100
AcDbLine
 10
2423.9003612326
 20
1162.8716881235
 30
0.0
 11
2423.9003612326
 21
1094.2983040673
 31
0.0
  0
SPLINE
  5
165
330
1F
100
AcDbEntity
  8
0
  6
Continuous
 62
     7
370
    15
100
AcDbSpline
210
0.0
220
0.0
230
1.0
 70
     8
 71
     3
 72
    20
 73
    16
 74
     0
 42
0.000000001
 43
0.00000001
 40
0.0
 40
0.0
 40
0.0
 40
0.0
 40
0.0526987499425729
 40
0.1330195729346272
 40
0.2140686655685033
 40
0.2960633203480847
 40
0.3787064408636865
 40
0.4617844341959059
 40
0.5451897637033545
 40
0.6289320743444603
 40
0.7130373431081948
 40
0.7975017277014601
 40
0.8821704745859117
 40
0.9667143773237207
 40
0.9999999999999999
 40
0.9999999999999999
 40
0.9999999999999999
 40
0.9999999999999999
 10
2423.900361232578
 20
1094.298304067333
 30
0.0
 10
2423.913172321233
 20
1093.841260177507
 30
0.0
 10
2423.945509436317
 20
1092.687612641211
 30
0.0
 10
2424.260538896225
 20
1090.827540171689
 30
0.0
 10
2424.883232586517
 20
1088.75146864997
 30
0.0
 10
2425.786469443853
 20
1086.726139672079
 30
0.0
 10
2426.949672967941
 20
1084.790129191976
 30
0.0
 10
2428.352565392015
 20
1082.983700539812
 30
0.0
 10
2429.9688347499
 20
1081.343940862676
 30
0.0
 10
2431.770206509021
 20
1079.904494867024
 30
0.0
 10
2433.726126689911
 20
1078.696883008482
 30
0.0
 10
2435.802882292039
 20
1077.74939593811
 30
0.0
 10
2437.960940767722
 20
1077.094142934379
 30
0.0
 10
2439.717612221832
 20
1076.808019367361
 30
0.0
 10
2440.73779429593
 20
1076.764606652136
 30
0.0
 10
2441.025985184081
 20
1076.752343008934
 30
0.0
  0
SPLINE
  5
166
330
1F
100
AcDbEntity
  8
0
  6
Continuous
 62
     7
370
    15
100
AcDbSpline
210
0.0
220
0.0
230
1.0
 70
     8
 71
     3
 72
    17
 73
    13
 74
     0
 42
0.000000001
 43
0.00000001
 40
0.0
 40
0.0
 40
0.0
 40
0.0
 40
0.0518381751145543
 40
0.1627532584068648
 40
0.2712111087941738
 40
0.3796963031343127
 40
0.4886889417163252
 40
0.5981214420695812
 40
0.7074179861274134
 40
0.8162597967942713
 40
0.9255466976998162
 40
1.0
 40
1.0
 40
1.0
 40
1.0
 10
2441.316869977673
 20
1088.748816909079
 30
0.0
 10
2441.233361494384
 20
1088.753059240552
 30
0.0
 10
2440.971174838895
 20
1088.766378638254
 30
0.0
 10
2440.36918633486
 20
1088.890120702086
 30
0.0
 10
2439.509138908124
 20
1089.23757284679
 30
0.0
 10
2438.607549356465
 20
1089.78950482301
 30
0.0
 10
2437.748867238526
 20
1090.520764472964
 30
0.0
 10
2437.005399176265
 20
1091.381112575114
 30
0.0
 10
2436.433790927797
 20
1092.299320845248
 30
0.0
 10
2436.067299326333
 20
1093.183104277923
 30
0.0
 10
2435.916007638574
 20
1093.870428684882
 30
0.0
 10
2435.904873067968
 20
1094.174920889534
 30
0.0
 10
2435.900361232578
 20
1094.298304067333
 30
0.0
  0
SPLINE
  5
167
330
1F
100
AcDbEntity
  8
0
  6
Continuous
 62
     7
370
    15
100
AcDbSpline
210
0.0
220
0.0
230
1.0
 70
     8
 71
     3
 72
    21
 73
    17
 74
     0
 42
0.000000001
 43
0.00000001
 40
0.0
 40
0.0
 40
0.0
 40
0.0
 40
0.0411927979497147
 40
0.1153420194579049
 40
0.1896279934577736
 40
0.2641020818293877
 40
0.3387108375591635
 40
0.4134097663467648
 40
0.4881646205651125
 40
0.5629511181480025
 40
0.6377513076394129
 40
0.7125600447500071
 40
0.7873774733677184
 40
0.8622074024128499
 40
0.9370557901506025
 40
1.0
 40
1.0
 40
1.0
 40
1.0
 10
2435.900361232577
 20
1055.725775535737
 30
0.0
 10
2435.891374079806
 20
1056.381079375779
 30
0.0
 10
2435.866209575293
 20
1058.215964890506
 30
0.0
 10
2435.595699617393
 20
1061.269787027905
 30
0.0
 10
2435.007724513351
 20
1064.879005796205
 30
0.0
 10
2434.13381322603
 20
1068.498174744515
 30
0.0
 10
2432.984769682721
 20
1072.104239782592
 30
0.0
 10
2431.567082998521
 20
1075.674111223171
 30
0.0
 10
2429.890791320291
 20
1079.184867756805
 30
0.0
 10
2427.967038693388
 20
1082.614299056856
 30
0.0
 10
2425.808561863668
 20
1085.941095039552
 30
0.0
 10
2423.429015029372
 20
1089.144378250937
 30
0.0
 10
2420.844168349964
 20
1092.205798061214
 30
0.0
 10
2418.066935767291
 20
1095.101843459319
 30
0.0
 10
2415.28191703542
 20
1097.687321902014
 30
0.0
 10
2413.370965890322
 20
1099.221992496764
 30
0.0
 10
2412.498035762033
 20
1099.923036164254
 30
0.0
  0
SPLINE
  5
168
330
1F
100
AcDbEntity
  8
0
  6
Continuous
 62
     7
370
    15
100
AcDbSpline
210
0.0
220
0.0
230
1.0
 70
     8
 71
     3
 72
    20
 73
    16
 74
     0
 42
0.000000001
 43
0.00000001
 40
0.0
 40
0.0
 40
0.0
 40
0.0
 40
0.0408893539197171
 40
0.1210258339268956
 40
0.2011836540145778
 40
0.2813254072685907
 40
0.3614328735783802
 40
0.4414934721945358
 40
0.5214986580892882
 40
0.6014463338379004
 40
0.6813440627054498
 40
0.7612125142535883
 40
0.8410772573761893
 40
0.9209936387934
 40
0.9999999999999999
 40
0.9999999999999999
 40
0.9999999999999999
 40
0.9999999999999999
 10
2405.129514465126
 20
1090.451769411754
 30
0.0
 10
2405.58717284505
 20
1090.088093965435
 30
0.0
 10
2406.941767177662
 20
1089.01167382302
 30
0.0
 10
2409.098240003351
 20
1087.078589988192
 30
0.0
 10
2411.528843877337
 20
1084.607897819138
 30
0.0
 10
2413.785376714929
 20
1081.984755028697
 30
0.0
 10
2415.850614794281
 20
1079.235494172191
 30
0.0
 10
2417.70721813405
 20
1076.383117261164
 30
0.0
 10
2419.340658004976
 20
1073.452769864586
 30
0.0
 10
2420.738739282448
 20
1070.469904913086
 30
0.0
 10
2421.891229089451
 20
1067.460624818229
 30
0.0
 10
2422.792496337377
 20
1064.450278044331
 30
0.0
 10
2423.43168608485
 20
1061.466984785805
 30
0.0
 10
2423.828052926662
 20
1058.539005705195
 30
0.0
 10
2423.876350651092
 20
1056.659932288095
 30
0.0
 10
2423.900361232578
 20
1055.725775535737
 30
0.0
  0
LINE
  5
169
330
1F
100
AcDbEntity
  8
0
  6
Continuous
 62
     7
370
    15
100
AcDbLine
 10
2435.9003612326
 20
571.426250639
 30
0.0
 11
2435.9003612326
 21
1055.7257755357
 31
0.0
  0
LINE
  5
16A
330
1F
100
AcDbEntity
  8
0
  6
Continuous
 62
     7
370
    15
100
AcDbLine
 10
2423.9003612326
 20
1055.7257755357
 30
0.0
 11
2423.9003612326
 21
571.426250639
 31
0.0
  0
LINE
  5
16B
330
1F
100
AcDbEntity
  8
0
  6
Continuous
 62
     7
370
    15
100
AcDbLine
 10
2433.2360232375
 20
1427.8905461181
 30
0.0
 11
2433.0728923433
 21
1427.7313253644
 31
0.0
  0
SPLINE
  5
16C
330
1F
100
AcDbEntity
  8
0
  6
Continuous
 62
     7
370
    15
100
AcDbSpline
210
0.0
220
0.0
230
1.0
 70
     8
 71
     3
 72
    15
 73
    11
 74
     0
 42
0.000000001
 43
0.00000001
 40
0.0
 40
0.0
 40
0.0
 40
0.0
 40
0.0769954547170576
 40
0.1676150771831734
 40
0.2710523936342343
 40
0.3894595025720741
 40
0.5208428024655765
 40
0.6663987586080736
 40
0.8260936125153155
 40
1.0
 40
1.0
 40
1.0
 40
1.0
 10
2433.373275745272
 20
1428.00432916059
 30
0.0
 10
2433.368914950697
 20
1428.001716232635
 30
0.0
 10
2433.359421729026
 20
1427.996028025163
 30
0.0
 10
2433.345451090091
 20
1427.986256193203
 30
0.0
 10
2433.330061468761
 20
1427.974742493589
 30
0.0
 10
2433.313439706835
 20
1427.961454463123
 30
0.0
 10
2433.295990787454
 20
1427.946219696478
 30
0.0
 10
2433.276739926036
 20
1427.929388434087
 30
0.0
 10
2433.256744614442
 20
1427.910585295732
 30
0.0
 10
2433.243123780648
 20
1427.89741289369
 30
0.0
 10
2433.236023237526
 20
1427.890546118122
 30
0.0
  0
SPLINE
  5
16D
330
1F
100
AcDbEntity
  8
0
  6
Continuous
 62
     7
370
    15
100
AcDbSpline
210
0.0
220
0.0
230
1.0
 70
     8
 71
     3
 72
    23
 73
    19
 74
     0
 42
0.000000001
 43
0.00000001
 40
0.0
 40
0.0
 40
0.0
 40
0.0
 40
0.0639861098164667
 40
0.1266268580894775
 40
0.1889843719814873
 40
0.2502301939603986
 40
0.312351162962322
 40
0.3745736184579387
 40
0.4381475308782041
 40
0.5029204126073704
 40
0.5679740951402718
 40
0.6307713337491905
 40
0.6929346089254588
 40
0.7543975343123296
 40
0.8152183520172955
 40
0.8761169254810909
 40
0.938014604793953
 40
1.0
 40
1.0
 40
1.0
 40
1.0
 10
2433.783610636532
 20
1428.041888022288
 30
0.0
 10
2433.775079960937
 20
1428.0441017022
 30
0.0
 10
2433.758197974347
 20
1428.04848251755
 30
0.0
 10
2433.731743248387
 20
1428.053591989474
 30
0.0
 10
2433.704972921375
 20
1428.057464980143
 30
0.0
 10
2433.677750998327
 20
1428.060269852325
 30
0.0
 10
2433.65012786899
 20
1428.061468282327
 30
0.0
 10
2433.622071128742
 20
1428.06193335839
 30
0.0
 10
2433.593688822286
 20
1428.060721863211
 30
0.0
 10
2433.565123870622
 20
1428.058538151347
 30
0.0
 10
2433.537130870508
 20
1428.055122952904
 30
0.0
 10
2433.509982035866
 20
1428.050869648608
 30
0.0
 10
2433.484163596803
 20
1428.045499542197
 30
0.0
 10
2433.459393916974
 20
1428.039288764046
 30
0.0
 10
2433.436005592377
 20
1428.031969169967
 30
0.0
 10
2433.413714835131
 20
1428.023749828138
 30
0.0
 10
2433.392570841655
 20
1428.014598576107
 30
0.0
 10
2433.379710479343
 20
1428.007753914559
 30
0.0
 10
2433.373275745272
 20
1428.00432916059
 30
0.0
  0
SPLINE
  5
16E
330
1F
100
AcDbEntity
  8
0
  6
Continuous
 62
     7
370
    15
100
AcDbSpline
210
0.0
220
0.0
230
1.0
 70
     8
 71
     3
 72
    15
 73
    11
 74
     0
 42
0.000000001
 43
0.00000001
 40
0.0
 40
0.0
 40
0.0
 40
0.0
 40
0.1355195283706055
 40
0.2608331631936787
 40
0.3784760291245026
 40
0.493177646474676
 40
0.6092809649289397
 40
0.7299810378566454
 40
0.8592613089300654
 40
1.0
 40
1.0
 40
1.0
 40
1.0
 10
2433.915359081402
 20
1427.895275418642
 30
0.0
 10
2433.918812126088
 20
1427.903077912275
 30
0.0
 10
2433.925458168758
 20
1427.918095298475
 30
0.0
 10
2433.926853343844
 20
1427.940536216414
 30
0.0
 10
2433.921079103509
 20
1427.96151911922
 30
0.0
 10
2433.907770665238
 20
1427.981023118911
 30
0.0
 10
2433.887182310747
 20
1427.998982536809
 30
0.0
 10
2433.859188576773
 20
1428.015169316935
 30
0.0
 10
2433.824584445919
 20
1428.029939517574
 30
0.0
 10
2433.797649572279
 20
1428.037794082953
 30
0.0
 10
2433.783610636532
 20
1428.041888022288
 30
0.0
  0
SPLINE
  5
16F
330
1F
100
AcDbEntity
  8
0
  6
Continuous
 62
     7
370
    15
100
AcDbSpline
210
0.0
220
0.0
230
1.0
 70
     8
 71
     3
 72
    15
 73
    11
 74
     0
 42
0.000000001
 43
0.00000001
 40
0.0
 40
0.0
 40
0.0
 40
0.0
 40
0.17885001941116
 40
0.3421096489422995
 40
0.489825663368392
 40
0.6232544282245641
 40
0.7400796760857922
 40
0.8414826730699851
 40
0.9289076721840648
 40
0.9999999999999999
 40
0.9999999999999999
 40
0.9999999999999999
 40
0.9999999999999999
 10
2433.825128582249
 20
1427.791707403058
 30
0.0
 10
2433.831206665348
 20
1427.797720391142
 30
0.0
 10
2433.842833003899
 20
1427.809222214005
 30
0.0
 10
2433.859266412436
 20
1427.825747949434
 30
0.0
 10
2433.873583335413
 20
1427.840893756675
 30
0.0
 10
2433.885916333757
 20
1427.854578096528
 30
0.0
 10
2433.89602089885
 20
1427.866851062417
 30
0.0
 10
2433.904452100816
 20
1427.877592387536
 30
0.0
 10
2433.910829380661
 20
1427.886888952765
 30
0.0
 10
2433.913956583888
 20
1427.892678779655
 30
0.0
 10
2433.915359081402
 20
1427.895275418642
 30
0.0
  0
LINE
  5
170
330
1F
100
AcDbEntity
  8
0
  6
Continuous
 62
     7
370
    15
100
AcDbLine
 10
2433.6128976388
 20
1427.584563496
 30
0.0
 11
2433.8251285822
 21
1427.7917074031
 31
0.0
  0
LINE
  5
171
330
1F
100
AcDbEntity
  8
0
  6
Continuous
 62
     7
370
    15
100
AcDbLine
 10
2433.7178986685
 20
1427.556026466
 30
0.0
 11
2433.6128976388
 21
1427.584563496
 31
0.0
  0
LINE
  5
172
330
1F
100
AcDbEntity
  8
0
  6
Continuous
 62
     7
370
    15
100
AcDbLine
 10
2433.9483102347
 20
1427.7809152183
 30
0.0
 11
2433.7178986685
 21
1427.556026466
 31
0.0
  0
SPLINE
  5
173
330
1F
100
AcDbEntity
  8
0
  6
Continuous
 62
     7
370
    15
100
AcDbSpline
210
0.0
220
0.0
230
1.0
 70
     8
 71
     3
 72
    23
 73
    19
 74
     0
 42
0.000000001
 43
0.00000001
 40
0.0
 40
0.0
 40
0.0
 40
0.0
 40
0.0772404236164777
 40
0.151178140466383
 40
0.223487983800399
 40
0.2955426441988695
 40
0.3669762546197894
 40
0.4371305254863863
 40
0.5070436156432693
 40
0.5785597335236778
 40
0.6166135446965532
 40
0.6587562369775289
 40
0.7044912261144043
 40
0.7548031149051498
 40
0.8093316253185656
 40
0.8682744554728209
 40
0.9320728834092938
 40
1.0
 40
1.0
 40
1.0
 40
1.0
 10
2433.857299678085
 20
1428.09099904972
 30
0.0
 10
2433.872813936044
 20
1428.086398466231
 30
0.0
 10
2433.90317908112
 20
1428.077394014621
 30
0.0
 10
2433.94350159493
 20
1428.060488488228
 30
0.0
 10
2433.97747310253
 20
1428.041098579225
 30
0.0
 10
2434.005307143217
 20
1428.019620070381
 30
0.0
 10
2434.026583851567
 20
1427.99653519219
 30
0.0
 10
2434.041292735772
 20
1427.972380151289
 30
0.0
 10
2434.04823887055
 20
1427.94730647517
 30
0.0
 10
2434.04811524558
 20
1427.925829914215
 30
0.0
 10
2434.044097477141
 20
1427.907840507066
 30
0.0
 10
2434.038098106055
 20
1427.89312831559
 30
0.0
 10
2434.029534203888
 20
1427.877248441256
 30
0.0
 10
2434.018718004843
 20
1427.860171045704
 30
0.0
 10
2434.004649441578
 20
1427.842027677735
 30
0.0
 10
2433.988343312509
 20
1427.82263258507
 30
0.0
 10
2433.969762754103
 20
1427.802003504341
 30
0.0
 10
2433.955608949269
 20
1427.788090011031
 30
0.0
 10
2433.948310234699
 20
1427.780915218279
 30
0.0
  0
SPLINE
  5
174
330
1F
100
AcDbEntity
  8
0
  6
Continuous
 62
     7
370
    15
100
AcDbSpline
210
0.0
220
0.0
230
1.0
 70
     8
 71
     3
 72
    15
 73
    11
 74
     0
 42
0.000000001
 43
0.00000001
 40
0.0
 40
0.0
 40
0.0
 40
0.0
 40
0.1409759662687709
 40
0.2735687809631692
 40
0.3989883138042533
 40
0.5199297813924313
 40
0.6381100215247449
 40
0.7565889007405945
 40
0.8768597544106068
 40
0.9999999999999999
 40
0.9999999999999999
 40
0.9999999999999999
 40
0.9999999999999999
 10
2433.442688684226
 20
1428.092257929723
 30
0.0
 10
2433.46128099213
 20
1428.096415075698
 30
0.0
 10
2433.497360014273
 20
1428.1044821625
 30
0.0
 10
2433.552417186
 20
1428.11300941334
 30
0.0
 10
2433.606221466318
 20
1428.117744470391
 30
0.0
 10
2433.658703106543
 20
1428.118911857649
 30
0.0
 10
2433.710019627403
 20
1428.116597368439
 30
0.0
 10
2433.76036953732
 20
1428.111314168162
 30
0.0
 10
2433.809908063196
 20
1428.102887911841
 30
0.0
 10
2433.841378811395
 20
1428.094993026067
 30
0.0
 10
2433.857299678085
 20
1428.09099904972
 30
0.0
  0
LINE
  5
175
330
1F
100
AcDbEntity
  8
0
  6
Continuous
 62
     7
370
    15
100
AcDbLine
 10
2433.5240686148
 20
1428.1716872367
 30
0.0
 11
2433.4426886842
 21
1428.0922579297
 31
0.0
  0
LINE
  5
176
330
1F
100
AcDbEntity
  8
0
  6
Continuous
 62
     7
370
    15
100
AcDbLine
 10
2433.4190675851
 20
1428.2002242667
 30
0.0
 11
2433.5240686148
 21
1428.1716872367
 31
0.0
  0
LINE
  5
177
330
1F
100
AcDbEntity
  8
0
  6
Continuous
 62
     7
370
    15
100
AcDbLine
 10
2432.9678913137
 20
1427.7598623943
 30
0.0
 11
2433.4190675851
 21
1428.2002242667
 31
0.0
  0
LINE
  5
178
330
1F
100
AcDbEntity
  8
0
  6
Continuous
 62
     7
370
    15
100
AcDbLine
 10
2433.0728923433
 20
1427.7313253644
 30
0.0
 11
2432.9678913137
 21
1427.7598623943
 31
0.0
  0
SPLINE
  5
179
330
1F
100
AcDbEntity
  8
0
  6
Continuous
 62
     7
370
    15
100
AcDbSpline
210
0.0
220
0.0
230
1.0
 70
     8
 71
     3
 72
    15
 73
    11
 74
     0
 42
0.000000001
 43
0.00000001
 40
0.0
 40
0.0
 40
0.0
 40
0.0
 40
0.1298621417207367
 40
0.2546535308972875
 40
0.3760145541937128
 40
0.4952552518176071
 40
0.6147977192994579
 40
0.7381055541683321
 40
0.8651963000723575
 40
1.0
 40
1.0
 40
1.0
 40
1.0
 10
2431.746028974358
 20
1428.664797187934
 30
0.0
 10
2431.763225193642
 20
1428.659807155867
 30
0.0
 10
2431.796946168062
 20
1428.650021938495
 30
0.0
 10
2431.842859774295
 20
1428.632379147433
 30
0.0
 10
2431.883217748588
 20
1428.612685763747
 30
0.0
 10
2431.918720183339
 20
1428.591169008059
 30
0.0
 10
2431.948596469193
 20
1428.567278440545
 30
0.0
 10
2431.972267710322
 20
1428.540951279264
 30
0.0
 10
2431.990249041102
 20
1428.51217298759
 30
0.0
 10
2431.997064138769
 20
1428.491969852249
 30
0.0
 10
2432.000572042031
 20
1428.481570787139
 30
0.0
  0
SPLINE
  5
17A
330
1F
100
AcDbEntity
  8
0
  6
Continuous
 62
     7
370
    15
100
AcDbSpline
210
0.0
220
0.0
230
1.0
 70
     8
 71
     3
 72
    23
 73
    19
 74
     0
 42
0.000000001
 43
0.00000001
 40
0.0
 40
0.0
 40
0.0
 40
0.0
 40
0.063774532305632
 40
0.1260788099895059
 40
0.1869040927472074
 40
0.2475739349176197
 40
0.3080033561644468
 40
0.3691318984609778
 40
0.4320332277442045
 40
0.496790794437091
 40
0.5616108232295655
 40
0.6249138657484625
 40
0.6867263492419248
 40
0.7480788332577711
 40
0.8095822911398957
 40
0.8716307425688271
 40
0.934885820828554
 40
1.0
 40
1.0
 40
1.0
 40
1.0
 10
2431.06469533884
 20
1428.560144499275
 30
0.0
 10
2431.072957579363
 20
1428.567686048753
 30
0.0
 10
2431.089291583163
 20
1428.582595285235
 30
0.0
 10
2431.118265020817
 20
1428.603176877501
 30
0.0
 10
2431.150603334904
 20
1428.621796133233
 30
0.0
 10
2431.186215435398
 20
1428.638389569699
 30
0.0
 10
2431.225052341972
 20
1428.653002288433
 30
0.0
 10
2431.267058795878
 20
1428.66566710768
 30
0.0
 10
2431.312289603467
 20
1428.676435473845
 30
0.0
 10
2431.360357747183
 20
1428.68487031158
 30
0.0
 10
2431.409679734179
 20
1428.691324403183
 30
0.0
 10
2431.459249481756
 20
1428.695111276203
 30
0.0
 10
2431.508375435281
 20
1428.696665269001
 30
0.0
 10
2431.557039628467
 20
1428.695249224015
 30
0.0
 10
2431.605335528429
 20
1428.691678351478
 30
0.0
 10
2431.653072475813
 20
1428.685315125675
 30
0.0
 10
2431.700257438596
 20
1428.676386678384
 30
0.0
 10
2431.730625195962
 20
1428.66869747093
 30
0.0
 10
2431.746028974358
 20
1428.664797187934
 30
0.0
  0
SPLINE
  5
17B
330
1F
100
AcDbEntity
  8
0
  6
Continuous
 62
     7
370
    15
100
AcDbSpline
210
0.0
220
0.0
230
1.0
 70
     8
 71
     3
 72
    23
 73
    19
 74
     0
 42
0.000000001
 43
0.00000001
 40
0.0
 40
0.0
 40
0.0
 40
0.0
 40
0.0646199913407678
 40
0.1274334841444695
 40
0.1890041265579399
 40
0.249930070686047
 40
0.310668453740672
 40
0.3723289611368242
 40
0.4349391099970084
 40
0.499575544194034
 40
0.5641912077719239
 40
0.6267352169294786
 40
0.6881093335614016
 40
0.7492936065367515
 40
0.8103305278109454
 40
0.8719011702244159
 40
0.9350459146845316
 40
1.0
 40
1.0
 40
1.0
 40
1.0
 10
2431.275740674385
 20
1428.20987580399
 30
0.0
 10
2431.260857856364
 20
1428.214190575789
 30
0.0
 10
2431.231508280252
 20
1428.222699496825
 30
0.0
 10
2431.191016367655
 20
1428.237834162286
 30
0.0
 10
2431.154180150615
 20
1428.254477605227
 30
0.0
 10
2431.121030702144
 20
1428.272709855143
 30
0.0
 10
2431.092167219972
 20
1428.292788405309
 30
0.0
 10
2431.066778911359
 20
1428.314335012625
 30
0.0
 10
2431.045364898057
 20
1428.337596837657
 30
0.0
 10
2431.02822607824
 20
1428.36219442517
 30
0.0
 10
2431.015085075428
 20
1428.38742390661
 30
0.0
 10
2431.006833841002
 20
1428.412766318629
 30
0.0
 10
2431.004106855312
 20
1428.437949335093
 30
0.0
 10
2431.005862115635
 20
1428.462946691277
 30
0.0
 10
2431.012888831872
 20
1428.487739999165
 30
0.0
 10
2431.025179516077
 20
1428.512238952522
 30
0.0
 10
2431.042109571224
 20
1428.536580387088
 30
0.0
 10
2431.057096189788
 20
1428.552216178935
 30
0.0
 10
2431.06469533884
 20
1428.560144499275
 30
0.0
  0
SPLINE
  5
17C
330
1F
100
AcDbEntity
  8
0
  6
Continuous
 62
     7
370
    15
100
AcDbSpline
210
0.0
220
0.0
230
1.0
 70
     8
 71
     3
 72
    15
 73
    11
 74
     0
 42
0.000000001
 43
0.00000001
 40
0.0
 40
0.0
 40
0.0
 40
0.0
 40
0.1342983790141682
 40
0.262084975382301
 40
0.3862699121345002
 40
0.5071645966228003
 40
0.6273002357255065
 40
0.7481449416029937
 40
0.872370177161352
 40
1.0
 40
1.0
 40
1.0
 40
1.0
 10
2431.710918854617
 20
1428.198860396494
 30
0.0
 10
2431.692015768613
 20
1428.195184605868
 30
0.0
 10
2431.655126158579
 20
1428.188011254242
 30
0.0
 10
2431.598528194349
 20
1428.18092373145
 30
0.0
 10
2431.542737545032
 20
1428.177513649583
 30
0.0
 10
2431.487692482302
 20
1428.177473020085
 30
0.0
 10
2431.43356053298
 20
1428.180916875129
 30
0.0
 10
2431.380062070069
 20
1428.187447535999
 30
0.0
 10
2431.32685797492
 20
1428.196757976412
 30
0.0
 10
2431.292932642586
 20
1428.205463965488
 30
0.0
 10
2431.275740674385
 20
1428.20987580399
 30
0.0
  0
LINE
  5
17D
330
1F
100
AcDbEntity
  8
0
  6
Continuous
 62
     7
370
    15
100
AcDbLine
 10
2431.6328782221
 20
1428.1226903468
 30
0.0
 11
2431.7109188546
 21
1428.1988603965
 31
0.0
  0
LINE
  5
17E
330
1F
100
AcDbEntity
  8
0
  6
Continuous
 62
     7
370
    15
100
AcDbLine
 10
2431.7378792518
 20
1428.0941533168
 30
0.0
 11
2431.6328782221
 21
1428.1226903468
 31
0.0
  0
LINE
  5
17F
330
1F
100
AcDbEntity
  8
0
  6
Continuous
 62
     7
370
    15
100
AcDbLine
 10
2432.1890555232
 20
1428.5345151891
 30
0.0
 11
2431.7378792518
 21
1428.0941533168
 31
0.0
  0
LINE
  5
180
330
1F
100
AcDbEntity
  8
0
  6
Continuous
 62
     7
370
    15
100
AcDbLine
 10
2432.0840544936
 20
1428.5630522191
 30
0.0
 11
2432.1890555232
 21
1428.5345151891
 31
0.0
  0
LINE
  5
181
330
1F
100
AcDbEntity
  8
0
  6
Continuous
 62
     7
370
    15
100
AcDbLine
 10
2432.000572042
 20
1428.4815707871
 30
0.0
 11
2432.0840544936
 21
1428.5630522191
 31
0.0
  0
SPLINE
  5
182
330
1F
100
AcDbEntity
  8
0
  6
Continuous
 62
     7
370
    15
100
AcDbSpline
210
0.0
220
0.0
230
1.0
 70
     8
 71
     3
 72
    15
 73
    11
 74
     0
 42
0.000000001
 43
0.00000001
 40
0.0
 40
0.0
 40
0.0
 40
0.0
 40
0.1288840014739258
 40
0.252984971857837
 40
0.374210437182597
 40
0.4941015128996903
 40
0.6147527632399877
 40
0.738511070373329
 40
0.8662425140769306
 40
0.9999999999999999
 40
0.9999999999999999
 40
0.9999999999999999
 40
0.9999999999999999
 10
2429.1210032326
 20
1429.378222937046
 30
0.0
 10
2429.138182301301
 20
1429.373209095706
 30
0.0
 10
2429.171902904031
 20
1429.363367482349
 30
0.0
 10
2429.217477733168
 20
1429.345322908865
 30
0.0
 10
2429.257261849983
 20
1429.325009717931
 30
0.0
 10
2429.291797688285
 20
1429.302616844296
 30
0.0
 10
2429.320503034085
 20
1429.27791048495
 30
0.0
 10
2429.343997855869
 20
1429.251109275043
 30
0.0
 10
2429.361125989862
 20
1429.221949637514
 30
0.0
 10
2429.368129723598
 20
1429.201642159251
 30
0.0
 10
2429.371712291388
 20
1429.191254426042
 30
0.0
  0
SPLINE
  5
183
330
1F
100
AcDbEntity
  8
0
  6
Continuous
 62
     7
370
    15
100
AcDbSpline
210
0.0
220
0.0
230
1.0
 70
     8
 71
     3
 72
    23
 73
    19
 74
     0
 42
0.000000001
 43
0.00000001
 40
0.0
 40
0.0
 40
0.0
 40
0.0
 40
0.063774532305632
 40
0.1260788099895059
 40
0.1869040927472074
 40
0.2475739349176197
 40
0.3080033561644469
 40
0.3691318984609777
 40
0.4320332277442044
 40
0.4967907944370909
 40
0.5616108232295652
 40
0.6249138657484625
 40
0.6867263492419248
 40
0.7480788332577711
 40
0.8095822911398957
 40
0.8716307425688273
 40
0.9348858208285536
 40
1.0
 40
1.0
 40
1.0
 40
1.0
 10
2428.439669597083
 20
1429.273570248387
 30
0.0
 10
2428.447931837606
 20
1429.281111797865
 30
0.0
 10
2428.464265841405
 20
1429.296021034347
 30
0.0
 10
2428.49323927906
 20
1429.316602626613
 30
0.0
 10
2428.525577593146
 20
1429.335221882345
 30
0.0
 10
2428.56118969364
 20
1429.351815318811
 30
0.0
 10
2428.600026600214
 20
1429.366428037544
 30
0.0
 10
2428.64203305412
 20
1429.379092856792
 30
0.0
 10
2428.687263861709
 20
1429.389861222957
 30
0.0
 10
2428.735332005425
 20
1429.398296060692
 30
0.0
 10
2428.784653992421
 20
1429.404750152295
 30
0.0
 10
2428.834223739999
 20
1429.408537025315
 30
0.0
 10
2428.883349693524
 20
1429.410091018113
 30
0.0
 10
2428.93201388671
 20
1429.408674973127
 30
0.0
 10
2428.980309786672
 20
1429.40510410059
 30
0.0
 10
2429.028046734055
 20
1429.398740874787
 30
0.0
 10
2429.075231696838
 20
1429.389812427497
 30
0.0
 10
2429.105599454205
 20
1429.382123220042
 30
0.0
 10
2429.1210032326
 20
1429.378222937046
 30
0.0
  0
SPLINE
  5
184
330
1F
100
AcDbEntity
  8
0
  6
Continuous
 62
     7
370
    15
100
AcDbSpline
210
0.0
220
0.0
230
1.0
 70
     8
 71
     3
 72
    23
 73
    19
 74
     0
 42
0.000000001
 43
0.00000001
 40
0.0
 40
0.0
 40
0.0
 40
0.0
 40
0.064619991340768
 40
0.1274334841444695
 40
0.1890041265579399
 40
0.249930070686047
 40
0.310668453740672
 40
0.3723289611368242
 40
0.4349391099970084
 40
0.499575544194034
 40
0.5641912077719239
 40
0.6267352169294786
 40
0.6881093335614016
 40
0.7492936065367515
 40
0.8103305278109454
 40
0.8719011702244159
 40
0.9350459146845316
 40
1.0
 40
1.0
 40
1.0
 40
1.0
 10
2428.650714932627
 20
1428.923301553102
 30
0.0
 10
2428.635832114607
 20
1428.927616324901
 30
0.0
 10
2428.606482538494
 20
1428.936125245937
 30
0.0
 10
2428.565990625898
 20
1428.951259911398
 30
0.0
 10
2428.529154408857
 20
1428.967903354338
 30
0.0
 10
2428.496004960387
 20
1428.986135604255
 30
0.0
 10
2428.467141478215
 20
1429.006214154422
 30
0.0
 10
2428.441753169601
 20
1429.027760761737
 30
0.0
 10
2428.420339156299
 20
1429.051022586769
 30
0.0
 10
2428.403200336482
 20
1429.075620174282
 30
0.0
 10
2428.390059333671
 20
1429.100849655722
 30
0.0
 10
2428.381808099245
 20
1429.126192067741
 30
0.0
 10
2428.379081113555
 20
1429.151375084205
 30
0.0
 10
2428.380836373878
 20
1429.176372440389
 30
0.0
 10
2428.387863090114
 20
1429.201165748277
 30
0.0
 10
2428.40015377432
 20
1429.225664701634
 30
0.0
 10
2428.417083829466
 20
1429.2500061362
 30
0.0
 10
2428.432070448031
 20
1429.265641928047
 30
0.0
 10
2428.439669597083
 20
1429.273570248387
 30
0.0
  0
SPLINE
  5
185
330
1F
100
AcDbEntity
  8
0
  6
Continuous
 62
     7
370
    15
100
AcDbSpline
210
0.0
220
0.0
230
1.0
 70
     8
 71
     3
 72
    15
 73
    11
 74
     0
 42
0.000000001
 43
0.00000001
 40
0.0
 40
0.0
 40
0.0
 40
0.0
 40
0.1342983790141679
 40
0.2620849753823011
 40
0.3862699121345002
 40
0.5071645966228003
 40
0.6273002357255065
 40
0.748144941602994
 40
0.8723701771613523
 40
1.0
 40
1.0
 40
1.0
 40
1.0
 10
2429.085893112859
 20
1428.912286145606
 30
0.0
 10
2429.066990026855
 20
1428.90861035498
 30
0.0
 10
2429.030100416821
 20
1428.901437003354
 30
0.0
 10
2428.973502452592
 20
1428.894349480563
 30
0.0
 10
2428.917711803275
 20
1428.890939398695
 30
0.0
 10
2428.862666740544
 20
1428.890898769198
 30
0.0
 10
2428.808534791222
 20
1428.894342624241
 30
0.0
 10
2428.755036328311
 20
1428.900873285111
 30
0.0
 10
2428.701832233162
 20
1428.910183725523
 30
0.0
 10
2428.667906900829
 20
1428.9188897146
 30
0.0
 10
2428.650714932627
 20
1428.923301553102
 30
0.0
  0
LINE
  5
186
330
1F
100
AcDbEntity
  8
0
  6
Continuous
 62
     7
370
    15
100
AcDbLine
 10
2429.0078524804
 20
1428.8361160959
 30
0.0
 11
2429.0858931129
 21
1428.9122861456
 31
0.0
  0
LINE
  5
187
330
1F
100
AcDbEntity
  8
0
  6
Continuous
 62
     7
370
    15
100
AcDbLine
 10
2429.1128535101
 20
1428.8075790659
 30
0.0
 11
2429.0078524804
 21
1428.8361160959
 31
0.0
  0
LINE
  5
188
330
1F
100
AcDbEntity
  8
0
  6
Continuous
 62
     7
370
    15
100
AcDbLine
 10
2429.7460833647
 20
1429.4256308166
 30
0.0
 11
2429.1128535101
 21
1428.8075790659
 31
0.0
  0
LINE
  5
189
330
1F
100
AcDbEntity
  8
0
  6
Continuous
 62
     7
370
    15
100
AcDbLine
 10
2429.641082335
 20
1429.4541678465
 30
0.0
 11
2429.7460833647
 21
1429.4256308166
 31
0.0
  0
LINE
  5
18A
330
1F
100
AcDbEntity
  8
0
  6
Continuous
 62
     7
370
    15
100
AcDbLine
 10
2429.3717122914
 20
1429.191254426
 30
0.0
 11
2429.641082335
 21
1429.4541678465
 31
0.0
  0
LINE
  5
18B
330
1F
100
AcDbEntity
  8
0
  6
Continuous
 62
     7
370
    15
100
AcDbLine
 10
2427.916554759
 20
1429.399383077
 30
0.0
 11
2427.1515472571
 21
1429.6072957239
 31
0.0
  0
SPLINE
  5
18C
330
1F
100
AcDbEntity
  8
0
  6
Continuous
 62
     7
370
    15
100
AcDbSpline
210
0.0
220
0.0
230
1.0
 70
     8
 71
     3
 72
    15
 73
    11
 74
     0
 42
0.000000001
 43
0.00000001
 40
0.0
 40
0.0
 40
0.0
 40
0.0
 40
0.1185218400132604
 40
0.236254763161746
 40
0.3561744339909311
 40
0.4772496548985579
 40
0.601539870821702
 40
0.7296183821680424
 40
0.8621582661414385
 40
1.0
 40
1.0
 40
1.0
 40
1.0
 10
2427.980082947315
 20
1429.577494424264
 30
0.0
 10
2427.982151835167
 20
1429.570283937018
 30
0.0
 10
2427.986275839736
 20
1429.555910957688
 30
0.0
 10
2427.987426970039
 20
1429.533989334647
 30
0.0
 10
2427.985340476613
 20
1429.511948438166
 30
0.0
 10
2427.978943014869
 20
1429.489714533906
 30
0.0
 10
2427.969241433506
 20
1429.467298020402
 30
0.0
 10
2427.955661226385
 20
1429.44467593406
 30
0.0
 10
2427.937973160453
 20
1429.421918411078
 30
0.0
 10
2427.923786950834
 20
1429.406992415142
 30
0.0
 10
2427.916554758993
 20
1429.399383076992
 30
0.0
  0
SPLINE
  5
18D
330
1F
100
AcDbEntity
  8
0
  6
Continuous
 62
     7
370
    15
100
AcDbSpline
210
0.0
220
0.0
230
1.0
 70
     8
 71
     3
 72
    15
 73
    11
 74
     0
 42
0.000000001
 43
0.00000001
 40
0.0
 40
0.0
 40
0.0
 40
0.0
 40
0.1320402344259815
 40
0.2590328407793701
 40
0.3818798239250169
 40
0.502258443714985
 40
0.6227521895274793
 40
0.7447426318590014
 40
0.8701089273418184
 40
1.0
 40
1.0
 40
1.0
 40
1.0
 10
2427.724583288904
 20
1429.757739956083
 30
0.0
 10
2427.741877092156
 20
1429.752741826845
 30
0.0
 10
2427.775803591937
 20
1429.742936636626
 30
0.0
 10
2427.82161359957
 20
1429.725065876349
 30
0.0
 10
2427.86218064379
 20
1429.705444639049
 30
0.0
 10
2427.897190262216
 20
1429.683789695948
 30
0.0
 10
2427.926663832411
 20
1429.660116252315
 30
0.0
 10
2427.950155924871
 20
1429.634330419526
 30
0.0
 10
2427.968811551824
 20
1429.606716643864
 30
0.0
 10
2427.97628167618
 20
1429.58734959969
 30
0.0
 10
2427.980082947315
 20
1429.577494424264
 30
0.0
  0
SPLINE
  5
18E
330
1F
100
AcDbEntity
  8
0
  6
Continuous
 62
     7
370
    15
100
AcDbSpline
210
0.0
220
0.0
230
1.0
 70
     8
 71
     3
 72
    15
 73
    11
 74
     0
 42
0.000000001
 43
0.00000001
 40
0.0
 40
0.0
 40
0.0
 40
0.0
 40
0.1288352544875544
 40
0.2535893349864763
 40
0.3746432573141701
 40
0.4953400422377924
 40
0.6163247746357905
 40
0.7397593354405149
 40
0.8668423203805463
 40
0.9999999999999999
 40
0.9999999999999999
 40
0.9999999999999999
 40
0.9999999999999999
 10
2427.306260421358
 20
1429.766489343501
 30
0.0
 10
2427.32354000972
 20
1429.770128560956
 30
0.0
 10
2427.357551812926
 20
1429.777291714689
 30
0.0
 10
2427.410114436316
 20
1429.784563841169
 30
0.0
 10
2427.462796234823
 20
1429.788304977531
 30
0.0
 10
2427.515446104267
 20
1429.788965141571
 30
0.0
 10
2427.56813137102
 20
1429.786020468326
 30
0.0
 10
2427.620825083266
 20
1429.780175474735
 30
0.0
 10
2427.673386012983
 20
1429.770640145989
 30
0.0
 10
2427.70725400787
 20
1429.762106419186
 30
0.0
 10
2427.724583288904
 20
1429.757739956083
 30
0.0
  0
SPLINE
  5
18F
330
1F
100
AcDbEntity
  8
0
  6
Continuous
 62
     7
370
    15
100
AcDbSpline
210
0.0
220
0.0
230
1.0
 70
     8
 71
     3
 72
    15
 73
    11
 74
     0
 42
0.000000001
 43
0.00000001
 40
0.0
 40
0.0
 40
0.0
 40
0.0
 40
0.1280448079611199
 40
0.2537679000244898
 40
0.3774284265813012
 40
0.5005508414825327
 40
0.6232958832424765
 40
0.7465783319335079
 40
0.8723475406047168
 40
1.0
 40
1.0
 40
1.0
 40
1.0
 10
2427.057182510153
 20
1429.64621409184
 30
0.0
 10
2427.064468167516
 20
1429.652883318331
 30
0.0
 10
2427.078907378278
 20
1429.666100844509
 30
0.0
 10
2427.103663097553
 20
1429.684744241785
 30
0.0
 10
2427.131263394299
 20
1429.701902017079
 30
0.0
 10
2427.161226774092
 20
1429.717725520037
 30
0.0
 10
2427.193737326254
 20
1429.732124590409
 30
0.0
 10
2427.228774977158
 20
1429.745118824648
 30
0.0
 10
2427.266346995948
 20
1429.756682287082
 30
0.0
 10
2427.29289019612
 20
1429.763204169355
 30
0.0
 10
2427.306260421358
 20
1429.766489343501
 30
0.0
  0
SPLINE
  5
190
330
1F
100
AcDbEntity
  8
0
  6
Continuous
 62
     7
370
    15
100
AcDbSpline
210
0.0
220
0.0
230
1.0
 70
     8
 71
     3
 72
    23
 73
    19
 74
     0
 42
0.000000001
 43
0.00000001
 40
0.0
 40
0.0
 40
0.0
 40
0.0
 40
0.0715786576891421
 40
0.139629224692848
 40
0.2047966973966659
 40
0.2681349633966817
 40
0.3298137469867307
 40
0.39130139777456
 40
0.4534335150970542
 40
0.5165516903197667
 40
0.5796312707049233
 40
0.641118921492753
 40
0.7012940466987745
 40
0.7608103356761337
 40
0.819931721778144
 40
0.8789195754993825
 40
0.9389828222504467
 40
1.0
 40
1.0
 40
1.0
 40
1.0
 10
2427.254998120827
 20
1429.302627475956
 30
0.0
 10
2427.238772860107
 20
1429.307289662621
 30
0.0
 10
2427.207122076928
 20
1429.316384238163
 30
0.0
 10
2427.163878661274
 20
1429.332383398606
 30
0.0
 10
2427.125511683928
 20
1429.349738203475
 30
0.0
 10
2427.092078878077
 20
1429.368501921076
 30
0.0
 10
2427.063851971413
 20
1429.388813903278
 30
0.0
 10
2427.040590742732
 20
1429.410534814321
 30
0.0
 10
2427.0220445718
 20
1429.433653662057
 30
0.0
 10
2427.009379924025
 20
1429.458010018239
 30
0.0
 10
2427.000826237679
 20
1429.482716270965
 30
0.0
 10
2426.996141396803
 20
1429.507311802312
 30
0.0
 10
2426.995997205859
 20
1429.531555350849
 30
0.0
 10
2427.000081783292
 20
1429.555377591145
 30
0.0
 10
2427.007681820979
 20
1429.578815239609
 30
0.0
 10
2427.019815798975
 20
1429.601823539547
 30
0.0
 10
2427.036325969833
 20
1429.624374166094
 30
0.0
 10
2427.050193910566
 20
1429.638895979933
 30
0.0
 10
2427.057182510153
 20
1429.64621409184
 30
0.0
  0
SPLINE
  5
191
330
1F
100
AcDbEntity
  8
0
  6
Continuous
 62
     7
370
    15
100
AcDbSpline
210
0.0
220
0.0
230
1.0
 70
     8
 71
     3
 72
    19
 73
    15
 74
     0
 42
0.000000001
 43
0.00000001
 40
0.0
 40
0.0
 40
0.0
 40
0.0
 40
0.0933698567361952
 40
0.1816607660710048
 40
0.2658742270426187
 40
0.3463547840343077
 40
0.4245998617178937
 40
0.501903183837377
 40
0.579992090987348
 40
0.6584434305294311
 40
0.7386722364878345
 40
0.821894148436244
 40
0.9088007920466156
 40
0.9999999999999999
 40
0.9999999999999999
 40
0.9999999999999999
 40
0.9999999999999999
 10
2427.774467318508
 20
1429.316853345135
 30
0.0
 10
2427.760076075903
 20
1429.312082577456
 30
0.0
 10
2427.732076416829
 20
1429.302800552811
 30
0.0
 10
2427.688606912456
 20
1429.291407685298
 30
0.0
 10
2427.645803908188
 20
1429.282163387601
 30
0.0
 10
2427.602937498281
 20
1429.275823781101
 30
0.0
 10
2427.560393185497
 20
1429.271703041207
 30
0.0
 10
2427.517728725381
 20
1429.269576947322
 30
0.0
 10
2427.474833184094
 20
1429.269542947213
 30
0.0
 10
2427.431554451735
 20
1429.271454555853
 30
0.0
 10
2427.387944121941
 20
1429.275732924141
 30
0.0
 10
2427.343869280765
 20
1429.282361840992
 30
0.0
 10
2427.29910829574
 20
1429.291220097421
 30
0.0
 10
2427.269935875884
 20
1429.298764407475
 30
0.0
 10
2427.254998120827
 20
1429.302627475956
 30
0.0
  0
LINE
  5
192
330
1F
100
AcDbEntity
  8
0
  6
Continuous
 62
     7
370
    15
100
AcDbLine
 10
2427.7070337943
 20
1429.3674345043
 30
0.0
 11
2427.7744673185
 21
1429.3168533451
 31
0.0
  0
SPLINE
  5
193
330
1F
100
AcDbEntity
  8
0
  6
Continuous
 62
     7
370
    15
100
AcDbSpline
210
0.0
220
0.0
230
1.0
 70
     8
 71
     3
 72
    19
 73
    15
 74
     0
 42
0.000000001
 43
0.00000001
 40
0.0
 40
0.0
 40
0.0
 40
0.0
 40
0.0825922633314363
 40
0.1638788940984966
 40
0.2456587396295034
 40
0.327725695354122
 40
0.4086099609103186
 40
0.4857490859539308
 40
0.5591690561972783
 40
0.6302684758575456
 40
0.7053060284320706
 40
0.792064966096608
 40
0.8897964374100897
 40
0.9999999999999999
 40
0.9999999999999999
 40
0.9999999999999999
 40
0.9999999999999999
 10
2427.297280604399
 20
1429.360274132886
 30
0.0
 10
2427.307868208982
 20
1429.357530490141
 30
0.0
 10
2427.328876047493
 20
1429.352086576622
 30
0.0
 10
2427.361914372447
 20
1429.345689816631
 30
0.0
 10
2427.395727665018
 20
1429.340675696883
 30
0.0
 10
2427.430133616831
 20
1429.337023625756
 30
0.0
 10
2427.464309157359
 20
1429.334685929046
 30
0.0
 10
2427.497521406824
 20
1429.334046494366
 30
0.0
 10
2427.52931966526
 20
1429.33468212598
 30
0.0
 10
2427.560594591782
 20
1429.336793858388
 30
0.0
 10
2427.593090426732
 20
1429.340950669393
 30
0.0
 10
2427.627989880897
 20
1429.347673941952
 30
0.0
 10
2427.666844810254
 20
1429.356283121753
 30
0.0
 10
2427.693112285668
 20
1429.363571653036
 30
0.0
 10
2427.707033794307
 20
1429.367434504324
 30
0.0
  0
SPLINE
  5
194
330
1F
100
AcDbEntity
  8
0
  6
Continuous
 62
     7
370
    15
100
AcDbSpline
210
0.0
220
0.0
230
1.0
 70
     8
 71
     3
 72
    23
 73
    19
 74
     0
 42
0.000000001
 43
0.00000001
 40
0.0
 40
0.0
 40
0.0
 40
0.0
 40
0.0683846151037681
 40
0.1344755875434509
 40
0.1983910577839565
 40
0.2607534774484865
 40
0.321829222807649
 40
0.3830372384795246
 40
0.4446531231064264
 40
0.5073980112040047
 40
0.5698252379730248
 40
0.6307776406313128
 40
0.6909286865237168
 40
0.7509451326917356
 40
0.8110494767293276
 40
0.8723308525469933
 40
0.9350040935894052
 40
1.0
 40
1.0
 40
1.0
 40
1.0
 10
2427.151547257109
 20
1429.607295723876
 30
0.0
 10
2427.146117177284
 20
1429.601353585179
 30
0.0
 10
2427.135439144311
 20
1429.589668609088
 30
0.0
 10
2427.123052059869
 20
1429.571690600928
 30
0.0
 10
2427.114194946014
 20
1429.553765179972
 30
0.0
 10
2427.10928642304
 20
1429.535931081686
 30
0.0
 10
2427.107316039222
 20
1429.518212571548
 30
0.0
 10
2427.109034510341
 20
1429.500541029494
 30
0.0
 10
2427.11465004182
 20
1429.482938233662
 30
0.0
 10
2427.123189038072
 20
1429.465524983317
 30
0.0
 10
2427.135385961031
 20
1429.448769839633
 30
0.0
 10
2427.149908728366
 20
1429.43279328366
 30
0.0
 10
2427.167533305137
 20
1429.417920883491
 30
0.0
 10
2427.188018120877
 20
1429.404169763882
 30
0.0
 10
2427.211222048781
 20
1429.391456748234
 30
0.0
 10
2427.237359509035
 20
1429.379979976409
 30
0.0
 10
2427.26589981199
 20
1429.369294263334
 30
0.0
 10
2427.286694236993
 20
1429.363317090302
 30
0.0
 10
2427.297280604399
 20
1429.360274132886
 30
0.0
  0
LWPOLYLINE
  5
195
330
1F
100
AcDbEntity
  8
0
  6
Continuous
 62
     7
370
    15
100
AcDbPolyline
 90
       26
 70
   128
 43
0.0
 10
2427.100188899
 20
1425.8604973003
 10
2428.5078365193
 20
1425.5877018154
 10
2430.0029815887
 20
1425.5037749109
 10
2431.4916786438
 20
1425.6139900229
 10
2432.8803873734
 20
1425.9114219306
 10
2434.0818501008
 20
1426.3773818934
 10
2435.0205745042
 20
1426.9825919331
 10
2435.6375770769
 20
1427.689024477
 10
2435.8940892781
 20
1428.4522917705
 10
2435.7739935029
 20
1429.2244349223
 10
2435.2848358103
 20
1429.9569373384
 10
2434.4573517773
 20
1430.6037731982
 10
2433.343535269
 20
1431.1242994256
 10
2432.0133714729
 20
1431.4858094435
 10
2430.5504394722
 20
1431.6655882478
 10
2429.0466606649
 20
1431.652339675
 10
2427.596523004
 20
1431.4468961819
 10
2426.2911439719
 20
1431.0621665385
 10
2425.2125453341
 20
1430.5223247233
 10
2424.4284994097
 20
1429.861290983
 10
2423.9882706878
 20
1429.1206004986
 10
2423.919520358
 20
1428.3467935773
 10
2424.2265682563
 20
1427.5884913538
 10
2424.890121434
 20
1426.8933407456
 10
2425.8684864047
 20
1426.3050206221
 10
2427.100188899
 20
1425.8604973003
  0
LINE
  5
196
330
1F
100
AcDbEntity
  8
0
  6
Continuous
 62
     7
370
    15
100
AcDbLine
 10
2426.5186093015
 20
1429.8879603308
 30
0.0
 11
2426.2178251206
 21
1429.5943857492
 31
0.0
  0
LINE
  5
197
330
1F
100
AcDbEntity
  8
0
  6
Continuous
 62
     7
370
    15
100
AcDbLine
 10
2426.9836138615
 20
1429.7615820552
 30
0.0
 11
2426.5186093015
 21
1429.8879603308
 31
0.0
  0
LINE
  5
198
330
1F
100
AcDbEntity
  8
0
  6
Continuous
 62
     7
370
    15
100
AcDbLine
 10
2427.046936847
 20
1429.8233872303
 30
0.0
 11
2426.9836138615
 21
1429.7615820552
 31
0.0
  0
LINE
  5
199
330
1F
100
AcDbEntity
  8
0
  6
Continuous
 62
     7
370
    15
100
AcDbLine
 10
2426.581932287
 20
1429.9497655058
 30
0.0
 11
2427.046936847
 21
1429.8233872303
 31
0.0
  0
LINE
  5
19A
330
1F
100
AcDbEntity
  8
0
  6
Continuous
 62
     7
370
    15
100
AcDbLine
 10
2426.7719012434
 20
1430.1351810311
 30
0.0
 11
2426.581932287
 21
1429.9497655058
 31
0.0
  0
LINE
  5
19B
330
1F
100
AcDbEntity
  8
0
  6
Continuous
 62
     7
370
    15
100
AcDbLine
 10
2427.2369058033
 20
1430.0088027555
 30
0.0
 11
2426.7719012434
 21
1430.1351810311
 31
0.0
  0
LINE
  5
19C
330
1F
100
AcDbEntity
  8
0
  6
Continuous
 62
     7
370
    15
100
AcDbLine
 10
2427.3002287888
 20
1430.0706079306
 30
0.0
 11
2427.2369058033
 21
1430.0088027555
 31
0.0
  0
LINE
  5
19D
330
1F
100
AcDbEntity
  8
0
  6
Continuous
 62
     7
370
    15
100
AcDbLine
 10
2426.7302231992
 20
1430.2255232361
 30
0.0
 11
2427.3002287888
 21
1430.0706079306
 31
0.0
  0
LINE
  5
19E
330
1F
100
AcDbEntity
  8
0
  6
Continuous
 62
     7
370
    15
100
AcDbLine
 10
2426.1128240909
 20
1429.6229227792
 30
0.0
 11
2426.7302231992
 21
1430.2255232361
 31
0.0
  0
LINE
  5
19F
330
1F
100
AcDbEntity
  8
0
  6
Continuous
 62
     7
370
    15
100
AcDbLine
 10
2426.2178251206
 20
1429.5943857492
 30
0.0
 11
2426.1128240909
 21
1429.6229227792
 31
0.0
  0
LINE
  5
1A0
330
1F
100
AcDbEntity
  8
0
  6
Continuous
 62
     7
370
    15
100
AcDbLine
 10
2428.6360724796
 20
1429.7273079905
 30
0.0
 11
2428.002842625
 21
1429.1092562398
 31
0.0
  0
LINE
  5
1A1
330
1F
100
AcDbEntity
  8
0
  6
Continuous
 62
     7
370
    15
100
AcDbLine
 10
2428.5310714499
 20
1429.7558450205
 30
0.0
 11
2428.6360724796
 21
1429.7273079905
 31
0.0
  0
LINE
  5
1A2
330
1F
100
AcDbEntity
  8
0
  6
Continuous
 62
     7
370
    15
100
AcDbLine
 10
2427.8978415953
 20
1429.1377932698
 30
0.0
 11
2428.5310714499
 21
1429.7558450205
 31
0.0
  0
LINE
  5
1A3
330
1F
100
AcDbEntity
  8
0
  6
Continuous
 62
     7
370
    15
100
AcDbLine
 10
2428.002842625
 20
1429.1092562398
 30
0.0
 11
2427.8978415953
 21
1429.1377932698
 31
0.0
  0
LINE
  5
1A4
330
1F
100
AcDbEntity
  8
0
  6
Continuous
 62
     7
370
    15
100
AcDbLine
 10
2429.6477021719
 20
1428.8991093508
 30
0.0
 11
2429.4578568933
 21
1428.7138145389
 31
0.0
  0
SPLINE
  5
1A5
330
1F
100
AcDbEntity
  8
0
  6
Continuous
 62
     7
370
    15
100
AcDbSpline
210
0.0
220
0.0
230
1.0
 70
     8
 71
     3
 72
    23
 73
    19
 74
     0
 42
0.000000001
 43
0.00000001
 40
0.0
 40
0.0
 40
0.0
 40
0.0
 40
0.0686770684130349
 40
0.1368709585090958
 40
0.2061143571452995
 40
0.2775381819697278
 40
0.3497719775548986
 40
0.4212508361555695
 40
0.4929107569233712
 40
0.5670265889927393
 40
0.6066141532413348
 40
0.649703953518988
 40
0.6973031504846854
 40
0.7490856597091363
 40
0.8048806474593089
 40
0.8654850057023366
 40
0.9302371271531362
 40
1.0
 40
1.0
 40
1.0
 40
1.0
 10
2430.138106137666
 20
1429.032658031367
 30
0.0
 10
2430.125127763886
 20
1429.035848400769
 30
0.0
 10
2430.099262325828
 20
1429.042206693693
 30
0.0
 10
2430.057212375626
 20
1429.047591920241
 30
0.0
 10
2430.013695186919
 20
1429.049953193869
 30
0.0
 10
2429.9690888765
 20
1429.048944317757
 30
0.0
 10
2429.92473886121
 20
1429.044731536718
 30
0.0
 10
2429.881992634696
 20
1429.037217926693
 30
0.0
 10
2429.841508962977
 20
1429.026462541149
 30
0.0
 10
2429.80996352342
 20
1429.014749286254
 30
0.0
 10
2429.785713003319
 20
1429.003384700966
 30
0.0
 10
2429.766929009133
 20
1428.993224726992
 30
0.0
 10
2429.747716883409
 20
1428.981497397732
 30
0.0
 10
2429.728559518935
 20
1428.96801918269
 30
0.0
 10
2429.708253391464
 20
1428.953238870117
 30
0.0
 10
2429.688661852814
 20
1428.936548918141
 30
0.0
 10
2429.667763763191
 20
1428.918517514434
 30
0.0
 10
2429.654553399923
 20
1428.905737426943
 30
0.0
 10
2429.647702171942
 20
1428.899109350845
 30
0.0
  0
SPLINE
  5
1A6
330
1F
100
AcDbEntity
  8
0
  6
Continuous
 62
     7
370
    15
100
AcDbSpline
210
0.0
220
0.0
230
1.0
 70
     8
 71
     3
 72
    23
 73
    19
 74
     0
 42
0.000000001
 43
0.00000001
 40
0.0
 40
0.0
 40
0.0
 40
0.0
 40
0.0825297038220665
 40
0.1587788549175701
 40
0.2277380621151794
 40
0.289945652796676
 40
0.3454988386981375
 40
0.3938963373401232
 40
0.4363737851900879
 40
0.4721222744615227
 40
0.5363836155048269
 40
0.5990779017254959
 40
0.661948234024458
 40
0.7263105423531546
 40
0.7917711030502105
 40
0.8586473037978581
 40
0.9273053338076842
 40
1.0
 40
1.0
 40
1.0
 40
1.0
 10
2430.16728374492
 20
1428.80728259114
 30
0.0
 10
2430.173729884101
 20
1428.813607353551
 30
0.0
 10
2430.186131607969
 20
1428.825775560713
 30
0.0
 10
2430.203094539082
 20
1428.843448270774
 30
0.0
 10
2430.217637216509
 20
1428.85976414663
 30
0.0
 10
2430.23028109904
 20
1428.874557910208
 30
0.0
 10
2430.240402694177
 20
1428.887965882227
 30
0.0
 10
2430.248549475389
 20
1428.899925899842
 30
0.0
 10
2430.254495980634
 20
1428.910463704571
 30
0.0
 10
2430.258898094696
 20
1428.922598106561
 30
0.0
 10
2430.261068717838
 20
1428.936694335574
 30
0.0
 10
2430.258177748288
 20
1428.953139119116
 30
0.0
 10
2430.249904244825
 20
1428.969093712154
 30
0.0
 10
2430.236693234496
 20
1428.984385125508
 30
0.0
 10
2430.219036637684
 20
1428.99885591157
 30
0.0
 10
2430.196546683397
 20
1429.011936929473
 30
0.0
 10
2430.169307924976
 20
1429.023395270257
 30
0.0
 10
2430.148702874237
 20
1429.029512216724
 30
0.0
 10
2430.138106137666
 20
1429.032658031367
 30
0.0
  0
LINE
  5
1A7
330
1F
100
AcDbEntity
  8
0
  6
Continuous
 62
     7
370
    15
100
AcDbLine
 10
2429.9378616003
 20
1428.5833595447
 30
0.0
 11
2430.1672837449
 21
1428.8072825911
 31
0.0
  0
LINE
  5
1A8
330
1F
100
AcDbEntity
  8
0
  6
Continuous
 62
     7
370
    15
100
AcDbLine
 10
2430.04286263
 20
1428.5548225148
 30
0.0
 11
2429.9378616003
 21
1428.5833595447
 31
0.0
  0
LINE
  5
1A9
330
1F
100
AcDbEntity
  8
0
  6
Continuous
 62
     7
370
    15
100
AcDbLine
 10
2430.2183612948
 20
1428.7261145918
 30
0.0
 11
2430.04286263
 21
1428.5548225148
 31
0.0
  0
SPLINE
  5
1AA
330
1F
100
AcDbEntity
  8
0
  6
Continuous
 62
     7
370
    15
100
AcDbSpline
210
0.0
220
0.0
230
1.0
 70
     8
 71
     3
 72
    23
 73
    19
 74
     0
 42
0.000000001
 43
0.00000001
 40
0.0
 40
0.0
 40
0.0
 40
0.0
 40
0.0681582441559977
 40
0.1347066022023566
 40
0.2018649976035981
 40
0.2707882662774627
 40
0.3400242943604918
 40
0.4080827390537216
 40
0.4768131952581442
 40
0.547346064307095
 40
0.5856397954238958
 40
0.6288649531777641
 40
0.6771532033637911
 40
0.7308028113651058
 40
0.789806615532502
 40
0.8543250087420141
 40
0.9243651340575436
 40
1.0
 40
1.0
 40
1.0
 40
1.0
 10
2430.723815006295
 20
1428.873474911096
 30
0.0
 10
2430.710303967416
 20
1428.87683520698
 30
0.0
 10
2430.683601018094
 20
1428.883476429133
 30
0.0
 10
2430.640302727912
 20
1428.88895448916
 30
0.0
 10
2430.595941282334
 20
1428.891528446392
 30
0.0
 10
2430.550758819008
 20
1428.890065861981
 30
0.0
 10
2430.5061301873
 20
1428.885728657199
 30
0.0
 10
2430.463395662926
 20
1428.877764002397
 30
0.0
 10
2430.423303305447
 20
1428.866510267824
 30
0.0
 10
2430.391744344869
 20
1428.854584495564
 30
0.0
 10
2430.367427987579
 20
1428.842776408887
 30
0.0
 10
2430.348223284638
 20
1428.831906136979
 30
0.0
 10
2430.3286592211
 20
1428.818935877985
 30
0.0
 10
2430.307737586946
 20
1428.804259807232
 30
0.0
 10
2430.286639734738
 20
1428.787416697682
 30
0.0
 10
2430.264124424423
 20
1428.768848328656
 30
0.0
 10
2430.241311572703
 20
1428.74817607828
 30
0.0
 10
2430.226204782713
 20
1428.733654326319
 30
0.0
 10
2430.218361294782
 20
1428.726114591781
 30
0.0
  0
SPLINE
  5
1AB
330
1F
100
AcDbEntity
  8
0
  6
Continuous
 62
     7
370
    15
100
AcDbSpline
210
0.0
220
0.0
230
1.0
 70
     8
 71
     3
 72
    23
 73
    19
 74
     0
 42
0.000000001
 43
0.00000001
 40
0.0
 40
0.0
 40
0.0
 40
0.0
 40
0.078342985193701
 40
0.1505633028794202
 40
0.216151056659977
 40
0.2756797924514263
 40
0.3287070503654625
 40
0.3759044348322083
 40
0.4173018977400331
 40
0.4526927480535834
 40
0.5172652917530132
 40
0.5812165680623068
 40
0.645321893972802
 40
0.712024493379763
 40
0.7801300447160445
 40
0.8502182262116653
 40
0.922648521734738
 40
1.0
 40
1.0
 40
1.0
 40
1.0
 10
2430.767501839491
 20
1428.663138294656
 30
0.0
 10
2430.773247704975
 20
1428.668778922756
 30
0.0
 10
2430.784290384586
 20
1428.679619352118
 30
0.0
 10
2430.799310442603
 20
1428.695402980749
 30
0.0
 10
2430.812125938239
 20
1428.710028357483
 30
0.0
 10
2430.823225991276
 20
1428.723337858817
 30
0.0
 10
2430.832156445957
 20
1428.735492987416
 30
0.0
 10
2430.838862755973
 20
1428.74647927727
 30
0.0
 10
2430.844017487156
 20
1428.756214699027
 30
0.0
 10
2430.847647816073
 20
1428.767573334516
 30
0.0
 10
2430.848550454926
 20
1428.780946468492
 30
0.0
 10
2430.845071055259
 20
1428.796578836557
 30
0.0
 10
2430.836104869697
 20
1428.811800006206
 30
0.0
 10
2430.822815178063
 20
1428.826509598198
 30
0.0
 10
2430.804791432453
 20
1428.840431308807
 30
0.0
 10
2430.782121232695
 20
1428.853036620398
 30
0.0
 10
2430.755076967172
 20
1428.864375757584
 30
0.0
 10
2430.734461439019
 20
1428.87037614432
 30
0.0
 10
2430.723815006295
 20
1428.873474911096
 30
0.0
  0
LINE
  5
1AC
330
1F
100
AcDbEntity
  8
0
  6
Continuous
 62
     7
370
    15
100
AcDbLine
 10
2430.5228673371
 20
1428.4243675207
 30
0.0
 11
2430.7675018395
 21
1428.6631382947
 31
0.0
  0
LINE
  5
1AD
330
1F
100
AcDbEntity
  8
0
  6
Continuous
 62
     7
370
    15
100
AcDbLine
 10
2430.6278683667
 20
1428.3958304907
 30
0.0
 11
2430.5228673371
 21
1428.4243675207
 31
0.0
  0
LINE
  5
1AE
330
1F
100
AcDbEntity
  8
0
  6
Continuous
 62
     7
370
    15
100
AcDbLine
 10
2430.8722555137
 20
1428.6343598382
 30
0.0
 11
2430.6278683667
 21
1428.3958304907
 31
0.0
  0
SPLINE
  5
1AF
330
1F
100
AcDbEntity
  8
0
  6
Continuous
 62
     7
370
    15
100
AcDbSpline
210
0.0
220
0.0
230
1.0
 70
     8
 71
     3
 72
    23
 73
    19
 74
     0
 42
0.000000001
 43
0.00000001
 40
0.0
 40
0.0
 40
0.0
 40
0.0
 40
0.0756043304957459
 40
0.1479650154827365
 40
0.2187969985237005
 40
0.2894704453213774
 40
0.3597242180875002
 40
0.4297077387530454
 40
0.5004965198485857
 40
0.5744290198679488
 40
0.6139472962286696
 40
0.6571552698261109
 40
0.7039727697209368
 40
0.7549389848168006
 40
0.8097066112894875
 40
0.8688329536985496
 40
0.9323854739325979
 40
1.0
 40
1.0
 40
1.0
 40
1.0
 10
2430.797504047849
 20
1428.922585938529
 30
0.0
 10
2430.811553571501
 20
1428.918411607338
 30
0.0
 10
2430.839049853408
 20
1428.910242035898
 30
0.0
 10
2430.875508222095
 20
1428.894862854202
 30
0.0
 10
2430.906069387313
 20
1428.877163069582
 30
0.0
 10
2430.931056814162
 20
1428.857554028536
 30
0.0
 10
2430.949958903015
 20
1428.836309139397
 30
0.0
 10
2430.962251133896
 20
1428.813803371346
 30
0.0
 10
2430.967874185223
 20
1428.790188407618
 30
0.0
 10
2430.966459900006
 20
1428.769795854509
 30
0.0
 10
2430.962094201053
 20
1428.752639148646
 30
0.0
 10
2430.955940670175
 20
1428.738682122349
 30
0.0
 10
2430.947784080854
 20
1428.723696717802
 30
0.0
 10
2430.937395036873
 20
1428.70772471107
 30
0.0
 10
2430.924418050729
 20
1428.690796321473
 30
0.0
 10
2430.909252633435
 20
1428.67283644513
 30
0.0
 10
2430.891952288593
 20
1428.653813379082
 30
0.0
 10
2430.878955270071
 20
1428.640976859763
 30
0.0
 10
2430.872255513749
 20
1428.634359838227
 30
0.0
  0
SPLINE
  5
1B0
330
1F
100
AcDbEntity
  8
0
  6
Continuous
 62
     7
370
    15
100
AcDbSpline
210
0.0
220
0.0
230
1.0
 70
     8
 71
     3
 72
    19
 73
    15
 74
     0
 42
0.000000001
 43
0.00000001
 40
0.0
 40
0.0
 40
0.0
 40
0.0
 40
0.0717660641583407
 40
0.1412255357663695
 40
0.2091158524974625
 40
0.2748396534685271
 40
0.3394829303752205
 40
0.4024762667354
 40
0.4649418891713276
 40
0.5268326406463836
 40
0.6474148160608225
 40
0.7655615117859493
 40
0.8816150870393313
 40
0.9999999999999999
 40
0.9999999999999999
 40
0.9999999999999999
 40
0.9999999999999999
 10
2430.374947163657
 20
1428.901466478175
 30
0.0
 10
2430.383892065318
 20
1428.904477617358
 30
0.0
 10
2430.401494375606
 20
1428.910403116399
 30
0.0
 10
2430.428786131291
 20
1428.918142416517
 30
0.0
 10
2430.45601543482
 20
1428.924918862263
 30
0.0
 10
2430.483326533062
 20
1428.93070449886
 30
0.0
 10
2430.510608117728
 20
1428.935464352138
 30
0.0
 10
2430.537974921866
 20
1428.939207491161
 30
0.0
 10
2430.565360648475
 20
1428.941999949708
 30
0.0
 10
2430.601616907456
 20
1428.944103521503
 30
0.0
 10
2430.646498793071
 20
1428.944606380105
 30
0.0
 10
2430.69907825383
 20
1428.941328331718
 30
0.0
 10
2430.750045354674
 20
1428.934281614677
 30
0.0
 10
2430.781579953126
 20
1428.926510257602
 30
0.0
 10
2430.797504047849
 20
1428.922585938529
 30
0.0
  0
SPLINE
  5
1B1
330
1F
100
AcDbEntity
  8
0
  6
Continuous
 62
     7
370
    15
100
AcDbSpline
210
0.0
220
0.0
230
1.0
 70
     8
 71
     3
 72
    19
 73
    15
 74
     0
 42
0.000000001
 43
0.00000001
 40
0.0
 40
0.0
 40
0.0
 40
0.0
 40
0.0841520188443168
 40
0.1665323202984584
 40
0.2488363311465306
 40
0.3312461454872607
 40
0.4129571090216171
 40
0.4904942776695666
 40
0.5661557919819237
 40
0.6399873346864665
 40
0.7167654882718498
 40
0.8021439047100982
 40
0.8958332007101922
 40
1.0
 40
1.0
 40
1.0
 40
1.0
 10
2430.21179517922
 20
1429.081769058799
 30
0.0
 10
2430.221937978888
 20
1429.078782380853
 30
0.0
 10
2430.242010034035
 20
1429.072871905797
 30
0.0
 10
2430.269916951468
 20
1429.062324671791
 30
0.0
 10
2430.295182971301
 20
1429.050336716492
 30
0.0
 10
2430.317751866218
 20
1429.037069693689
 30
0.0
 10
2430.337478506197
 20
1429.023069700607
 30
0.0
 10
2430.353788263726
 20
1429.008500908033
 30
0.0
 10
2430.366606363227
 20
1428.993638012994
 30
0.0
 10
2430.375509913779
 20
1428.978082096027
 30
0.0
 10
2430.3807519153
 20
1428.961395529673
 30
0.0
 10
2430.382559711592
 20
1428.943104918353
 30
0.0
 10
2430.380792363668
 20
1428.922848893076
 30
0.0
 10
2430.376963155779
 20
1428.908841209565
 30
0.0
 10
2430.374947163657
 20
1428.901466478175
 30
0.0
  0
SPLINE
  5
1B2
330
1F
100
AcDbEntity
  8
0
  6
Continuous
 62
     7
370
    15
100
AcDbSpline
210
0.0
220
0.0
230
1.0
 70
     8
 71
     3
 72
    11
 73
     7
 74
     0
 42
0.000000001
 43
0.00000001
 40
0.0
 40
0.0
 40
0.0
 40
0.0
 40
0.253734075690661
 40
0.5030351201318565
 40
0.7500135973308791
 40
1.0
 40
1.0
 40
1.0
 40
1.0
 10
2430.012663075237
 20
1429.107338553931
 30
0.0
 10
2430.03018691231
 20
1429.106979396068
 30
0.0
 10
2430.064928424512
 20
1429.106267355251
 30
0.0
 10
2430.115957614346
 20
1429.101254653499
 30
0.0
 10
2430.165272517703
 20
1429.093294241369
 30
0.0
 10
2430.196225177444
 20
1429.085626256716
 30
0.0
 10
2430.21179517922
 20
1429.081769058799
 30
0.0
  0
SPLINE
  5
1B3
330
1F
100
AcDbEntity
  8
0
  6
Continuous
 62
     7
370
    15
100
AcDbSpline
210
0.0
220
0.0
230
1.0
 70
     8
 71
     3
 72
    11
 73
     7
 74
     0
 42
0.000000001
 43
0.00000001
 40
0.0
 40
0.0
 40
0.0
 40
0.0
 40
0.283594808138694
 40
0.5433948405759664
 40
0.7806456291745597
 40
0.9999999999999999
 40
0.9999999999999999
 40
0.9999999999999999
 40
0.9999999999999999
 10
2429.830621499092
 20
1429.077644221795
 30
0.0
 10
2429.846936275248
 20
1429.081769890846
 30
0.0
 10
2429.878196950457
 20
1429.089675068275
 30
0.0
 10
2429.925224501012
 20
1429.098506968339
 30
0.0
 10
2429.969600443454
 20
1429.104788167322
 30
0.0
 10
2429.998688900633
 20
1429.106510932713
 30
0.0
 10
2430.012663075237
 20
1429.107338553931
 30
0.0
  0
LINE
  5
1B4
330
1F
100
AcDbEntity
  8
0
  6
Continuous
 62
     7
370
    15
100
AcDbLine
 10
2429.9090331647
 20
1429.1541764112
 30
0.0
 11
2429.8306214991
 21
1429.0776442218
 31
0.0
  0
LINE
  5
1B5
330
1F
100
AcDbEntity
  8
0
  6
Continuous
 62
     7
370
    15
100
AcDbLine
 10
2429.804032135
 20
1429.1827134412
 30
0.0
 11
2429.9090331647
 21
1429.1541764112
 31
0.0
  0
LINE
  5
1B6
330
1F
100
AcDbEntity
  8
0
  6
Continuous
 62
     7
370
    15
100
AcDbLine
 10
2429.3528558636
 20
1428.7423515688
 30
0.0
 11
2429.804032135
 21
1429.1827134412
 31
0.0
  0
LINE
  5
1B7
330
1F
100
AcDbEntity
  8
0
  6
Continuous
 62
     7
370
    15
100
AcDbLine
 10
2429.4578568933
 20
1428.7138145389
 30
0.0
 11
2429.3528558636
 21
1428.7423515688
 31
0.0
  0
LINE
  5
1B8
330
1F
100
AcDbEntity
  8
0
  6
Continuous
 62
     7
370
    15
100
AcDbLine
 10
2432.2460135292
 20
1428.1596095435
 30
0.0
 11
2432.082882635
 21
1428.0003887898
 31
0.0
  0
SPLINE
  5
1B9
330
1F
100
AcDbEntity
  8
0
  6
Continuous
 62
     7
370
    15
100
AcDbSpline
210
0.0
220
0.0
230
1.0
 70
     8
 71
     3
 72
    15
 73
    11
 74
     0
 42
0.000000001
 43
0.00000001
 40
0.0
 40
0.0
 40
0.0
 40
0.0
 40
0.0769954547170576
 40
0.1676150771831734
 40
0.2710523936342343
 40
0.3894595025720741
 40
0.5208428024655765
 40
0.6663987586080736
 40
0.8260936125153155
 40
1.0
 40
1.0
 40
1.0
 40
1.0
 10
2432.383266036953
 20
1428.273392585969
 30
0.0
 10
2432.378905242377
 20
1428.270779658014
 30
0.0
 10
2432.369412020706
 20
1428.265091450542
 30
0.0
 10
2432.35544138177
 20
1428.255319618583
 30
0.0
 10
2432.34005176044
 20
1428.243805918968
 30
0.0
 10
2432.323429998515
 20
1428.230517888503
 30
0.0
 10
2432.305981079134
 20
1428.215283121858
 30
0.0
 10
2432.286730217716
 20
1428.198451859467
 30
0.0
 10
2432.266734906123
 20
1428.179648721112
 30
0.0
 10
2432.253114072328
 20
1428.166476319069
 30
0.0
 10
2432.246013529207
 20
1428.159609543501
 30
0.0
  0
SPLINE
  5
1BA
330
1F
100
AcDbEntity
  8
0
  6
Continuous
 62
     7
370
    15
100
AcDbSpline
210
0.0
220
0.0
230
1.0
 70
     8
 71
     3
 72
    23
 73
    19
 74
     0
 42
0.000000001
 43
0.00000001
 40
0.0
 40
0.0
 40
0.0
 40
0.0
 40
0.0639861098164676
 40
0.1266268580894775
 40
0.1889843719814873
 40
0.2502301939603977
 40
0.3123511629623219
 40
0.3745736184579385
 40
0.438147530878204
 40
0.5029204126073703
 40
0.5679740951402716
 40
0.6307713337491904
 40
0.6929346089254587
 40
0.7543975343123295
 40
0.8152183520172954
 40
0.8761169254810907
 40
0.9380146047939529
 40
0.9999999999999999
 40
0.9999999999999999
 40
0.9999999999999999
 40
0.9999999999999999
 10
2432.793600928212
 20
1428.310951447667
 30
0.0
 10
2432.785070252617
 20
1428.313165127579
 30
0.0
 10
2432.768188266027
 20
1428.31754594293
 30
0.0
 10
2432.741733540067
 20
1428.322655414853
 30
0.0
 10
2432.714963213055
 20
1428.326528405523
 30
0.0
 10
2432.687741290007
 20
1428.329333277704
 30
0.0
 10
2432.66011816067
 20
1428.330531707706
 30
0.0
 10
2432.632061420422
 20
1428.330996783769
 30
0.0
 10
2432.603679113966
 20
1428.329785288591
 30
0.0
 10
2432.575114162302
 20
1428.327601576726
 30
0.0
 10
2432.547121162188
 20
1428.324186378283
 30
0.0
 10
2432.519972327546
 20
1428.319933073988
 30
0.0
 10
2432.494153888483
 20
1428.314562967577
 30
0.0
 10
2432.469384208654
 20
1428.308352189425
 30
0.0
 10
2432.445995884058
 20
1428.301032595347
 30
0.0
 10
2432.423705126811
 20
1428.292813253517
 30
0.0
 10
2432.402561133335
 20
1428.283662001487
 30
0.0
 10
2432.389700771023
 20
1428.276817339938
 30
0.0
 10
2432.383266036953
 20
1428.273392585969
 30
0.0
  0
SPLINE
  5
1BB
330
1F
100
AcDbEntity
  8
0
  6
Continuous
 62
     7
370
    15
100
AcDbSpline
210
0.0
220
0.0
230
1.0
 70
     8
 71
     3
 72
    15
 73
    11
 74
     0
 42
0.000000001
 43
0.00000001
 40
0.0
 40
0.0
 40
0.0
 40
0.0
 40
0.1355195283706055
 40
0.2608331631936792
 40
0.3784760291245037
 40
0.4931776464746772
 40
0.6092809649289387
 40
0.7299810378566467
 40
0.8592613089300667
 40
1.0
 40
1.0
 40
1.0
 40
1.0
 10
2432.925349373083
 20
1428.164338844021
 30
0.0
 10
2432.928802417769
 20
1428.172141337655
 30
0.0
 10
2432.935448460438
 20
1428.187158723854
 30
0.0
 10
2432.936843635524
 20
1428.209599641793
 30
0.0
 10
2432.931069395189
 20
1428.2305825446
 30
0.0
 10
2432.917760956918
 20
1428.25008654429
 30
0.0
 10
2432.897172602427
 20
1428.268045962189
 30
0.0
 10
2432.869178868453
 20
1428.284232742314
 30
0.0
 10
2432.834574737599
 20
1428.299002942954
 30
0.0
 10
2432.80763986396
 20
1428.306857508332
 30
0.0
 10
2432.793600928212
 20
1428.310951447667
 30
0.0
  0
SPLINE
  5
1BC
330
1F
100
AcDbEntity
  8
0
  6
Continuous
 62
     7
370
    15
100
AcDbSpline
210
0.0
220
0.0
230
1.0
 70
     8
 71
     3
 72
    15
 73
    11
 74
     0
 42
0.000000001
 43
0.00000001
 40
0.0
 40
0.0
 40
0.0
 40
0.0
 40
0.17885001941116
 40
0.3421096489422997
 40
0.4898256633683923
 40
0.6232544282245646
 40
0.7400796760857924
 40
0.8414826730699856
 40
0.9289076721840652
 40
1.0
 40
1.0
 40
1.0
 40
1.0
 10
2432.835118873929
 20
1428.060770828437
 30
0.0
 10
2432.841196957029
 20
1428.066783816521
 30
0.0
 10
2432.852823295579
 20
1428.078285639385
 30
0.0
 10
2432.869256704116
 20
1428.094811374813
 30
0.0
 10
2432.883573627093
 20
1428.109957182054
 30
0.0
 10
2432.895906625438
 20
1428.123641521908
 30
0.0
 10
2432.90601119053
 20
1428.135914487797
 30
0.0
 10
2432.914442392495
 20
1428.146655812915
 30
0.0
 10
2432.920819672341
 20
1428.155952378145
 30
0.0
 10
2432.923946875569
 20
1428.161742205034
 30
0.0
 10
2432.925349373083
 20
1428.164338844021
 30
0.0
  0
LINE
  5
1BD
330
1F
100
AcDbEntity
  8
0
  6
Continuous
 62
     7
370
    15
100
AcDbLine
 10
2432.6228879305
 20
1427.8536269214
 30
0.0
 11
2432.8351188739
 21
1428.0607708284
 31
0.0
  0
LINE
  5
1BE
330
1F
100
AcDbEntity
  8
0
  6
Continuous
 62
     7
370
    15
100
AcDbLine
 10
2432.7278889601
 20
1427.8250898914
 30
0.0
 11
2432.6228879305
 21
1427.8536269214
 31
0.0
  0
LINE
  5
1BF
330
1F
100
AcDbEntity
  8
0
  6
Continuous
 62
     7
370
    15
100
AcDbLine
 10
2432.9583005264
 20
1428.0499786437
 30
0.0
 11
2432.7278889601
 21
1427.8250898914
 31
0.0
  0
SPLINE
  5
1C0
330
1F
100
AcDbEntity
  8
0
  6
Continuous
 62
     7
370
    15
100
AcDbSpline
210
0.0
220
0.0
230
1.0
 70
     8
 71
     3
 72
    23
 73
    19
 74
     0
 42
0.000000001
 43
0.00000001
 40
0.0
 40
0.0
 40
0.0
 40
0.0
 40
0.0772404236164789
 40
0.1511781404663829
 40
0.2234879838003995
 40
0.29554264419887
 40
0.3669762546197899
 40
0.4371305254863862
 40
0.5070436156432692
 40
0.578559733523678
 40
0.6166135446965534
 40
0.658756236977529
 40
0.7044912261144044
 40
0.75480311490515
 40
0.8093316253185657
 40
0.868274455472821
 40
0.932072883409294
 40
1.0
 40
1.0
 40
1.0
 40
1.0
 10
2432.867289969765
 20
1428.360062475099
 30
0.0
 10
2432.882804227724
 20
1428.355461891611
 30
0.0
 10
2432.9131693728
 20
1428.34645744
 30
0.0
 10
2432.95349188661
 20
1428.329551913607
 30
0.0
 10
2432.98746339421
 20
1428.310162004604
 30
0.0
 10
2433.015297434897
 20
1428.288683495761
 30
0.0
 10
2433.036574143247
 20
1428.265598617569
 30
0.0
 10
2433.051283027452
 20
1428.241443576669
 30
0.0
 10
2433.05822916223
 20
1428.216369900549
 30
0.0
 10
2433.05810553726
 20
1428.194893339594
 30
0.0
 10
2433.054087768822
 20
1428.176903932446
 30
0.0
 10
2433.048088397735
 20
1428.162191740969
 30
0.0
 10
2433.039524495568
 20
1428.146311866636
 30
0.0
 10
2433.028708296523
 20
1428.129234471084
 30
0.0
 10
2433.014639733258
 20
1428.111091103114
 30
0.0
 10
2432.998333604189
 20
1428.09169601045
 30
0.0
 10
2432.979753045783
 20
1428.07106692972
 30
0.0
 10
2432.965599240949
 20
1428.057153436411
 30
0.0
 10
2432.958300526379
 20
1428.049978643659
 30
0.0
  0
SPLINE
  5
1C1
330
1F
100
AcDbEntity
  8
0
  6
Continuous
 62
     7
370
    15
100
AcDbSpline
210
0.0
220
0.0
230
1.0
 70
     8
 71
     3
 72
    15
 73
    11
 74
     0
 42
0.000000001
 43
0.00000001
 40
0.0
 40
0.0
 40
0.0
 40
0.0
 40
0.140975966268771
 40
0.2735687809631695
 40
0.3989883138042537
 40
0.5199297813924317
 40
0.6381100215247456
 40
0.7565889007405953
 40
0.8768597544106077
 40
0.9999999999999999
 40
0.9999999999999999
 40
0.9999999999999999
 40
0.9999999999999999
 10
2432.452678975906
 20
1428.361321355102
 30
0.0
 10
2432.47127128381
 20
1428.365478501078
 30
0.0
 10
2432.507350305953
 20
1428.37354558788
 30
0.0
 10
2432.56240747768
 20
1428.382072838719
 30
0.0
 10
2432.616211757998
 20
1428.38680789577
 30
0.0
 10
2432.668693398223
 20
1428.387975283028
 30
0.0
 10
2432.720009919082
 20
1428.385660793819
 30
0.0
 10
2432.770359829001
 20
1428.380377593542
 30
0.0
 10
2432.819898354876
 20
1428.371951337221
 30
0.0
 10
2432.851369103075
 20
1428.364056451447
 30
0.0
 10
2432.867289969765
 20
1428.360062475099
 30
0.0
  0
LINE
  5
1C2
330
1F
100
AcDbEntity
  8
0
  6
Continuous
 62
     7
370
    15
100
AcDbLine
 10
2432.5340589064
 20
1428.4407506621
 30
0.0
 11
2432.4526789759
 21
1428.3613213551
 31
0.0
  0
LINE
  5
1C3
330
1F
100
AcDbEntity
  8
0
  6
Continuous
 62
     7
370
    15
100
AcDbLine
 10
2432.4290578768
 20
1428.4692876921
 30
0.0
 11
2432.5340589064
 21
1428.4407506621
 31
0.0
  0
LINE
  5
1C4
330
1F
100
AcDbEntity
  8
0
  6
Continuous
 62
     7
370
    15
100
AcDbLine
 10
2431.9778816053
 20
1428.0289258197
 30
0.0
 11
2432.4290578768
 21
1428.4692876921
 31
0.0
  0
LINE
  5
1C5
330
1F
100
AcDbEntity
  8
0
  6
Continuous
 62
     7
370
    15
100
AcDbLine
 10
2432.082882635
 20
1428.0003887898
 30
0.0
 11
2431.9778816053
 21
1428.0289258197
 31
0.0
  0
LINE
  5
1C6
330
1F
100
AcDbEntity
  8
0
  6
Continuous
 62
     7
370
    15
100
AcDbLine
 10
2433.4190675851
 20
1428.0234286773
 30
0.0
 11
2433.4190675851
 21
1428.2002242667
 31
0.0
  0
LINE
  5
1C7
330
1F
100
AcDbEntity
  8
0
  6
Continuous
 62
     7
370
    15
100
AcDbLine
 10
2433.8572996781
 20
1428.008535092
 30
0.0
 11
2433.8572996781
 21
1428.0909990497
 31
0.0
  0
LINE
  5
1C8
330
1F
100
AcDbEntity
  8
0
  6
Continuous
 62
     7
370
    15
100
AcDbLine
 10
2433.9153590814
 20
1427.7487538825
 30
0.0
 11
2433.9153590814
 21
1427.8952754186
 31
0.0
  0
LINE
  5
1C9
330
1F
100
AcDbEntity
  8
0
  6
Continuous
 62
     7
370
    15
100
AcDbLine
 10
2433.4426886842
 20
1428.0332809038
 30
0.0
 11
2433.4426886842
 21
1428.0922579297
 31
0.0
  0
LINE
  5
1CA
330
1F
100
AcDbEntity
  8
0
  6
Continuous
 62
     7
370
    15
100
AcDbLine
 10
2432.4290578768
 20
1428.2924921027
 30
0.0
 11
2432.4290578768
 21
1428.4692876921
 31
0.0
  0
LINE
  5
1CB
330
1F
100
AcDbEntity
  8
0
  6
Continuous
 62
     7
370
    15
100
AcDbLine
 10
2432.8672899698
 20
1428.2775985174
 30
0.0
 11
2432.8672899698
 21
1428.3600624751
 31
0.0
  0
LINE
  5
1CC
330
1F
100
AcDbEntity
  8
0
  6
Continuous
 62
     7
370
    15
100
AcDbLine
 10
2432.9253493731
 20
1428.0178173079
 30
0.0
 11
2432.9253493731
 21
1428.164338844
 31
0.0
  0
LINE
  5
1CD
330
1F
100
AcDbEntity
  8
0
  6
Continuous
 62
     7
370
    15
100
AcDbLine
 10
2431.7109188546
 20
1428.1014805751
 30
0.0
 11
2431.7109188546
 21
1428.1988603965
 31
0.0
  0
LINE
  5
1CE
330
1F
100
AcDbEntity
  8
0
  6
Continuous
 62
     7
370
    15
100
AcDbLine
 10
2431.8574769362
 20
1428.2108843232
 30
0.0
 11
2431.8574769362
 21
1428.3419055771
 31
0.0
  0
LINE
  5
1CF
330
1F
100
AcDbEntity
  8
0
  6
Continuous
 62
     7
370
    15
100
AcDbLine
 10
2431.3348983234
 20
1428.2002099054
 30
0.0
 11
2431.3348983234
 21
1428.2629361525
 31
0.0
  0
SPLINE
  5
1D0
330
1F
100
AcDbEntity
  8
0
  6
Continuous
 62
     7
370
    15
100
AcDbSpline
210
0.0
220
0.0
230
1.0
 70
     8
 71
     3
 72
    19
 73
    15
 74
     0
 42
0.000000001
 43
0.00000001
 40
0.0
 40
0.0
 40
0.0
 40
0.0
 40
0.0848023883688275
 40
0.1686635395998409
 40
0.2525519243727819
 40
0.3382396894642444
 40
0.4231026613931553
 40
0.5055560510576222
 40
0.5861756559890521
 40
0.6671357203303606
 40
0.7484991803055339
 40
0.830452398758279
 40
0.9134557062010135
 40
1.0
 40
1.0
 40
1.0
 40
1.0
 10
2431.33489832344
 20
1428.262936152533
 30
0.0
 10
2431.35038340627
 20
1428.259093018847
 30
0.0
 10
2431.381181700181
 20
1428.251449407114
 30
0.0
 10
2431.430248400144
 20
1428.243678870399
 30
0.0
 10
2431.480905146168
 20
1428.239105317395
 30
0.0
 10
2431.532499245222
 20
1428.237827510604
 30
0.0
 10
2431.583706137811
 20
1428.239705317818
 30
0.0
 10
2431.633123168492
 20
1428.244765899914
 30
0.0
 10
2431.679613610166
 20
1428.253636557483
 30
0.0
 10
2431.723356561827
 20
1428.265383138435
 30
0.0
 10
2431.763568329444
 20
1428.28036440939
 30
0.0
 10
2431.799843098891
 20
1428.298093417894
 30
0.0
 10
2431.831672585906
 20
1428.318709265094
 30
0.0
 10
2431.848756553732
 20
1428.334066561165
 30
0.0
 10
2431.857476936208
 20
1428.341905577072
 30
0.0
  0
SPLINE
  5
1D1
330
1F
100
AcDbEntity
  8
0
  6
Continuous
 62
     7
370
    15
100
AcDbSpline
210
0.0
220
0.0
230
1.0
 70
     8
 71
     3
 72
    19
 73
    15
 74
     0
 42
0.000000001
 43
0.00000001
 40
0.0
 40
0.0
 40
0.0
 40
0.0
 40
0.0815893489321834
 40
0.1628588951679349
 40
0.2454836892755791
 40
0.3308071391580109
 40
0.4164933737762843
 40
0.4998932031606321
 40
0.5830481559950208
 40
0.6671578520621574
 40
0.751311929292914
 40
0.8337847893576147
 40
0.9162564885439797
 40
0.9999999999999999
 40
0.9999999999999999
 40
0.9999999999999999
 40
0.9999999999999999
 10
2431.169077979981
 20
1428.531003903148
 30
0.0
 10
2431.162012109485
 20
1428.523329496053
 30
0.0
 10
2431.147908064319
 20
1428.508010762949
 30
0.0
 10
2431.134098386116
 20
1428.483373606208
 30
0.0
 10
2431.12693589278
 20
1428.457662101353
 30
0.0
 10
2431.126018031861
 20
1428.431220407316
 30
0.0
 10
2431.131793719754
 20
1428.404869449119
 30
0.0
 10
2431.143561286155
 20
1428.379276929714
 30
0.0
 10
2431.16220900189
 20
1428.354951264275
 30
0.0
 10
2431.187040335122
 20
1428.332082081085
 30
0.0
 10
2431.216921998413
 20
1428.310938431714
 30
0.0
 10
2431.252059577248
 20
1428.292327688814
 30
0.0
 10
2431.291054690932
 20
1428.275879531339
 30
0.0
 10
2431.320209419166
 20
1428.267272564491
 30
0.0
 10
2431.33489832344
 20
1428.262936152533
 30
0.0
  0
SPLINE
  5
1D2
330
1F
100
AcDbEntity
  8
0
  6
Continuous
 62
     7
370
    15
100
AcDbSpline
210
0.0
220
0.0
230
1.0
 70
     8
 71
     3
 72
    19
 73
    15
 74
     0
 42
0.000000001
 43
0.00000001
 40
0.0
 40
0.0
 40
0.0
 40
0.0
 40
0.0859205174117674
 40
0.1695934351247436
 40
0.2524755148685384
 40
0.3362444769570504
 40
0.419504521041572
 40
0.5020359066440893
 40
0.5847746476768715
 40
0.669846474705801
 40
0.7541848663887865
 40
0.8366582383293272
 40
0.9180097257088055
 40
1.0
 40
1.0
 40
1.0
 40
1.0
 10
2431.692027625867
 20
1428.610335467383
 30
0.0
 10
2431.676390794843
 20
1428.614225637722
 30
0.0
 10
2431.645526177545
 20
1428.62190421521
 30
0.0
 10
2431.596610434012
 20
1428.629657446828
 30
0.0
 10
2431.54666252932
 20
1428.634012863713
 30
0.0
 10
2431.496127075244
 20
1428.635138812996
 30
0.0
 10
2431.445757479844
 20
1428.63297371186
 30
0.0
 10
2431.396728504263
 20
1428.627122167774
 30
0.0
 10
2431.349184140988
 20
1428.618068259292
 30
0.0
 10
2431.304234633505
 20
1428.605609414657
 30
0.0
 10
2431.2625130815
 20
1428.590495650698
 30
0.0
 10
2431.225922699014
 20
1428.572788531773
 30
0.0
 10
2431.193684577758
 20
1428.55319848269
 30
0.0
 10
2431.177301535837
 20
1428.538421359483
 30
0.0
 10
2431.169077979981
 20
1428.531003903148
 30
0.0
  0
SPLINE
  5
1D3
330
1F
100
AcDbEntity
  8
0
  6
Continuous
 62
     7
370
    15
100
AcDbSpline
210
0.0
220
0.0
230
1.0
 70
     8
 71
     3
 72
    23
 73
    19
 74
     0
 42
0.000000001
 43
0.00000001
 40
0.0
 40
0.0
 40
0.0
 40
0.0
 40
0.0656337996756899
 40
0.1291880880571289
 40
0.1912186831121886
 40
0.2519128178811572
 40
0.3125074743865504
 40
0.3734944337751978
 40
0.4351515996540498
 40
0.498741474406649
 40
0.5620952169966309
 40
0.6241865668116553
 40
0.6854757184651952
 40
0.7460968148060529
 40
0.8076116364477851
 40
0.8699665806571897
 40
0.9339510189149071
 40
1.0
 40
1.0
 40
1.0
 40
1.0
 10
2431.857476936208
 20
1428.341905577072
 30
0.0
 10
2431.863389717944
 20
1428.348076933709
 30
0.0
 10
2431.875027943545
 20
1428.36022411654
 30
0.0
 10
2431.888219231077
 20
1428.379118625018
 30
0.0
 10
2431.897785856225
 20
1428.398031107412
 30
0.0
 10
2431.903456154184
 20
1428.417058014043
 30
0.0
 10
2431.904886979664
 20
1428.436178885874
 30
0.0
 10
2431.902654801424
 20
1428.455377135175
 30
0.0
 10
2431.896380866143
 20
1428.474659004642
 30
0.0
 10
2431.886198955605
 20
1428.493746100595
 30
0.0
 10
2431.872667057501
 20
1428.512309259593
 30
0.0
 10
2431.856373426401
 20
1428.5300244874
 30
0.0
 10
2431.836379124588
 20
1428.54637365515
 30
0.0
 10
2431.813560518751
 20
1428.561608990109
 30
0.0
 10
2431.787894630199
 20
1428.57577313964
 30
0.0
 10
2431.758686613949
 20
1428.588507012256
 30
0.0
 10
2431.727001155686
 20
1428.60041140546
 30
0.0
 10
2431.70380821405
 20
1428.606992616741
 30
0.0
 10
2431.692027625867
 20
1428.610335467383
 30
0.0
  0
LINE
  5
1D4
330
1F
100
AcDbEntity
  8
0
  6
Continuous
 62
     7
370
    15
100
AcDbLine
 10
2431.0646953388
 20
1428.3309922678
 30
0.0
 11
2431.0646953388
 21
1428.5601444993
 31
0.0
  0
LINE
  5
1D5
330
1F
100
AcDbEntity
  8
0
  6
Continuous
 62
     7
370
    15
100
AcDbLine
 10
2432.4526789759
 20
1428.3023443292
 30
0.0
 11
2432.4526789759
 21
1428.3613213551
 31
0.0
  0
LINE
  5
1D6
330
1F
100
AcDbEntity
  8
0
  6
Continuous
 62
     7
370
    15
100
AcDbLine
 10
2431.7460289744
 20
1428.58969197
 30
0.0
 11
2431.7460289744
 21
1428.6647971879
 31
0.0
  0
LINE
  5
1D7
330
1F
100
AcDbEntity
  8
0
  6
Continuous
 62
     7
370
    15
100
AcDbLine
 10
2432.000572042
 20
1428.3505495333
 30
0.0
 11
2432.000572042
 21
1428.4815707871
 31
0.0
  0
LINE
  5
1D8
330
1F
100
AcDbEntity
  8
0
  6
Continuous
 62
     7
370
    15
100
AcDbLine
 10
2432.0840544936
 20
1428.4320309652
 30
0.0
 11
2432.0840544936
 21
1428.5630522191
 31
0.0
  0
LINE
  5
1D9
330
1F
100
AcDbEntity
  8
0
  6
Continuous
 62
     7
370
    15
100
AcDbLine
 10
2430.7975040478
 20
1428.8408378604
 30
0.0
 11
2430.7975040478
 21
1428.9225859385
 31
0.0
  0
LINE
  5
1DA
330
1F
100
AcDbEntity
  8
0
  6
Continuous
 62
     7
370
    15
100
AcDbLine
 10
2429.804032135
 20
1429.0105721116
 30
0.0
 11
2429.804032135
 21
1429.1827134412
 31
0.0
  0
LINE
  5
1DB
330
1F
100
AcDbEntity
  8
0
  6
Continuous
 62
     7
370
    15
100
AcDbLine
 10
2430.3749471637
 20
1428.8361469686
 30
0.0
 11
2430.3749471637
 21
1428.9014664782
 31
0.0
  0
LINE
  5
1DC
330
1F
100
AcDbEntity
  8
0
  6
Continuous
 62
     7
370
    15
100
AcDbLine
 10
2429.0858931129
 20
1428.8149063242
 30
0.0
 11
2429.0858931129
 21
1428.9122861456
 31
0.0
  0
LINE
  5
1DD
330
1F
100
AcDbEntity
  8
0
  6
Continuous
 62
     7
370
    15
100
AcDbLine
 10
2429.2324511945
 20
1428.9243100723
 30
0.0
 11
2429.2324511945
 21
1429.0553313262
 31
0.0
  0
LINE
  5
1DE
330
1F
100
AcDbEntity
  8
0
  6
Continuous
 62
     7
370
    15
100
AcDbLine
 10
2428.7098725817
 20
1428.9136356545
 30
0.0
 11
2428.7098725817
 21
1428.9763619016
 31
0.0
  0
SPLINE
  5
1DF
330
1F
100
AcDbEntity
  8
0
  6
Continuous
 62
     7
370
    15
100
AcDbSpline
210
0.0
220
0.0
230
1.0
 70
     8
 71
     3
 72
    19
 73
    15
 74
     0
 42
0.000000001
 43
0.00000001
 40
0.0
 40
0.0
 40
0.0
 40
0.0
 40
0.0848023883688278
 40
0.1686635395998416
 40
0.2525519243727825
 40
0.338239689464245
 40
0.4231026613931558
 40
0.5055560510576226
 40
0.5861756559890524
 40
0.6671357203303606
 40
0.748499180305534
 40
0.830452398758279
 40
0.9134557062010135
 40
1.0
 40
1.0
 40
1.0
 40
1.0
 10
2428.709872581682
 20
1428.976361901646
 30
0.0
 10
2428.725357664513
 20
1428.972518767959
 30
0.0
 10
2428.756155958423
 20
1428.964875156226
 30
0.0
 10
2428.805222658387
 20
1428.957104619512
 30
0.0
 10
2428.855879404411
 20
1428.952531066506
 30
0.0
 10
2428.907473503464
 20
1428.951253259716
 30
0.0
 10
2428.958680396053
 20
1428.953131066929
 30
0.0
 10
2429.008097426734
 20
1428.958191649027
 30
0.0
 10
2429.054587868408
 20
1428.967062306595
 30
0.0
 10
2429.098330820069
 20
1428.978808887546
 30
0.0
 10
2429.138542587686
 20
1428.993790158502
 30
0.0
 10
2429.174817357133
 20
1429.011519167005
 30
0.0
 10
2429.206646844148
 20
1429.032135014206
 30
0.0
 10
2429.223730811974
 20
1429.047492310277
 30
0.0
 10
2429.23245119445
 20
1429.055331326184
 30
0.0
  0
SPLINE
  5
1E0
330
1F
100
AcDbEntity
  8
0
  6
Continuous
 62
     7
370
    15
100
AcDbSpline
210
0.0
220
0.0
230
1.0
 70
     8
 71
     3
 72
    19
 73
    15
 74
     0
 42
0.000000001
 43
0.00000001
 40
0.0
 40
0.0
 40
0.0
 40
0.0
 40
0.0815893489321834
 40
0.162858895167935
 40
0.2454836892755793
 40
0.330807139158011
 40
0.4164933737762847
 40
0.4998932031606322
 40
0.583048155995021
 40
0.6671578520621577
 40
0.7513119292929142
 40
0.833784789357615
 40
0.9162564885439797
 40
1.0
 40
1.0
 40
1.0
 40
1.0
 10
2428.544052238223
 20
1429.244429652259
 30
0.0
 10
2428.536986367727
 20
1429.236755245165
 30
0.0
 10
2428.522882322562
 20
1429.221436512061
 30
0.0
 10
2428.509072644358
 20
1429.19679935532
 30
0.0
 10
2428.501910151023
 20
1429.171087850465
 30
0.0
 10
2428.500992290104
 20
1429.144646156429
 30
0.0
 10
2428.506767977996
 20
1429.118295198231
 30
0.0
 10
2428.518535544397
 20
1429.092702678826
 30
0.0
 10
2428.537183260133
 20
1429.068377013387
 30
0.0
 10
2428.562014593365
 20
1429.045507830197
 30
0.0
 10
2428.591896256655
 20
1429.024364180827
 30
0.0
 10
2428.627033835491
 20
1429.005753437926
 30
0.0
 10
2428.666028949174
 20
1428.989305280451
 30
0.0
 10
2428.695183677409
 20
1428.980698313602
 30
0.0
 10
2428.709872581682
 20
1428.976361901646
 30
0.0
  0
SPLINE
  5
1E1
330
1F
100
AcDbEntity
  8
0
  6
Continuous
 62
     7
370
    15
100
AcDbSpline
210
0.0
220
0.0
230
1.0
 70
     8
 71
     3
 72
    19
 73
    15
 74
     0
 42
0.000000001
 43
0.00000001
 40
0.0
 40
0.0
 40
0.0
 40
0.0
 40
0.0859205174117674
 40
0.1695934351247438
 40
0.2524755148685386
 40
0.3362444769570506
 40
0.4195045210415722
 40
0.5020359066440894
 40
0.5847746476768716
 40
0.669846474705801
 40
0.7541848663887865
 40
0.8366582383293273
 40
0.9180097257088055
 40
1.0
 40
1.0
 40
1.0
 40
1.0
 10
2429.067001884109
 20
1429.323761216496
 30
0.0
 10
2429.051365053085
 20
1429.327651386834
 30
0.0
 10
2429.020500435788
 20
1429.335329964322
 30
0.0
 10
2428.971584692254
 20
1429.34308319594
 30
0.0
 10
2428.921636787563
 20
1429.347438612825
 30
0.0
 10
2428.871101333486
 20
1429.348564562108
 30
0.0
 10
2428.820731738086
 20
1429.346399460972
 30
0.0
 10
2428.771702762505
 20
1429.340547916885
 30
0.0
 10
2428.72415839923
 20
1429.331494008404
 30
0.0
 10
2428.679208891747
 20
1429.319035163769
 30
0.0
 10
2428.637487339743
 20
1429.30392139981
 30
0.0
 10
2428.600896957256
 20
1429.286214280885
 30
0.0
 10
2428.568658836
 20
1429.266624231802
 30
0.0
 10
2428.55227579408
 20
1429.251847108595
 30
0.0
 10
2428.544052238223
 20
1429.244429652259
 30
0.0
  0
SPLINE
  5
1E2
330
1F
100
AcDbEntity
  8
0
  6
Continuous
 62
     7
370
    15
100
AcDbSpline
210
0.0
220
0.0
230
1.0
 70
     8
 71
     3
 72
    23
 73
    19
 74
     0
 42
0.000000001
 43
0.00000001
 40
0.0
 40
0.0
 40
0.0
 40
0.0
 40
0.06563379967569
 40
0.1291880880571289
 40
0.1912186831121887
 40
0.2519128178811572
 40
0.3125074743865506
 40
0.3734944337751983
 40
0.4351515996540498
 40
0.4987414744066493
 40
0.5620952169966309
 40
0.6241865668116559
 40
0.6854757184651954
 40
0.7460968148060529
 40
0.8076116364477851
 40
0.86996658065719
 40
0.9339510189149071
 40
1.0
 40
1.0
 40
1.0
 40
1.0
 10
2429.23245119445
 20
1429.055331326184
 30
0.0
 10
2429.238363976187
 20
1429.061502682821
 30
0.0
 10
2429.250002201788
 20
1429.073649865652
 30
0.0
 10
2429.263193489319
 20
1429.09254437413
 30
0.0
 10
2429.272760114467
 20
1429.111456856524
 30
0.0
 10
2429.278430412426
 20
1429.130483763155
 30
0.0
 10
2429.279861237907
 20
1429.149604634986
 30
0.0
 10
2429.277629059666
 20
1429.168802884287
 30
0.0
 10
2429.271355124386
 20
1429.188084753753
 30
0.0
 10
2429.261173213847
 20
1429.207171849707
 30
0.0
 10
2429.247641315743
 20
1429.225735008705
 30
0.0
 10
2429.231347684643
 20
1429.243450236512
 30
0.0
 10
2429.21135338283
 20
1429.259799404262
 30
0.0
 10
2429.188534776993
 20
1429.275034739221
 30
0.0
 10
2429.162868888441
 20
1429.289198888752
 30
0.0
 10
2429.133660872192
 20
1429.301932761368
 30
0.0
 10
2429.101975413928
 20
1429.313837154573
 30
0.0
 10
2429.078782472293
 20
1429.320418365853
 30
0.0
 10
2429.067001884109
 20
1429.323761216496
 30
0.0
  0
LINE
  5
1E3
330
1F
100
AcDbEntity
  8
0
  6
Continuous
 62
     7
370
    15
100
AcDbLine
 10
2430.2117951792
 20
1428.9980998084
 30
0.0
 11
2430.2117951792
 21
1429.0817690588
 31
0.0
  0
LINE
  5
1E4
330
1F
100
AcDbEntity
  8
0
  6
Continuous
 62
     7
370
    15
100
AcDbLine
 10
2428.4396695971
 20
1429.0444180169
 30
0.0
 11
2428.4396695971
 21
1429.2735702484
 31
0.0
  0
LINE
  5
1E5
330
1F
100
AcDbEntity
  8
0
  6
Continuous
 62
     7
370
    15
100
AcDbLine
 10
2430.0126630752
 20
1429.0482296136
 30
0.0
 11
2430.0126630752
 21
1429.1073385539
 31
0.0
  0
LINE
  5
1E6
330
1F
100
AcDbEntity
  8
0
  6
Continuous
 62
     7
370
    15
100
AcDbLine
 10
2429.8306214991
 20
1429.0197940939
 30
0.0
 11
2429.8306214991
 21
1429.0776442218
 31
0.0
  0
LINE
  5
1E7
330
1F
100
AcDbEntity
  8
0
  6
Continuous
 62
     7
370
    15
100
AcDbLine
 10
2428.5310714499
 20
1429.6248237666
 30
0.0
 11
2428.5310714499
 21
1429.7558450205
 31
0.0
  0
LINE
  5
1E8
330
1F
100
AcDbEntity
  8
0
  6
Continuous
 62
     7
370
    15
100
AcDbLine
 10
2429.1210032326
 20
1429.3031177191
 30
0.0
 11
2429.1210032326
 21
1429.378222937
 31
0.0
  0
LINE
  5
1E9
330
1F
100
AcDbEntity
  8
0
  6
Continuous
 62
     7
370
    15
100
AcDbLine
 10
2429.3717122914
 20
1429.0602331722
 30
0.0
 11
2429.3717122914
 21
1429.191254426
 31
0.0
  0
LINE
  5
1EA
330
1F
100
AcDbEntity
  8
0
  6
Continuous
 62
     7
370
    15
100
AcDbLine
 10
2429.641082335
 20
1429.3231465927
 30
0.0
 11
2429.641082335
 21
1429.4541678465
 31
0.0
  0
LINE
  5
1EB
330
1F
100
AcDbEntity
  8
0
  6
Continuous
 62
     7
370
    15
100
AcDbLine
 10
2427.7070337943
 20
1429.2992953228
 30
0.0
 11
2427.7070337943
 21
1429.3674345043
 31
0.0
  0
LINE
  5
1EC
330
1F
100
AcDbEntity
  8
0
  6
Continuous
 62
     7
370
    15
100
AcDbLine
 10
2427.2972806044
 20
1429.2965962026
 30
0.0
 11
2427.2972806044
 21
1429.3602741329
 31
0.0
  0
LINE
  5
1ED
330
1F
100
AcDbEntity
  8
0
  6
Continuous
 62
     7
370
    15
100
AcDbLine
 10
2427.0571825102
 20
1429.4092616651
 30
0.0
 11
2427.0571825102
 21
1429.6462140918
 31
0.0
  0
LINE
  5
1EE
330
1F
100
AcDbEntity
  8
0
  6
Continuous
 62
     7
370
    15
100
AcDbLine
 10
2427.9800829473
 20
1429.5059357843
 30
0.0
 11
2427.9800829473
 21
1429.5774944243
 31
0.0
  0
LINE
  5
1EF
330
1F
100
AcDbEntity
  8
0
  6
Continuous
 62
     7
370
    15
100
AcDbLine
 10
2427.8669613416
 20
1429.4128615052
 30
0.0
 11
2427.8669613416
 21
1429.4819996351
 31
0.0
  0
SPLINE
  5
1F0
330
1F
100
AcDbEntity
  8
0
  6
Continuous
 62
     7
370
    15
100
AcDbSpline
210
0.0
220
0.0
230
1.0
 70
     8
 71
     3
 72
    19
 73
    15
 74
     0
 42
0.000000001
 43
0.00000001
 40
0.0
 40
0.0
 40
0.0
 40
0.0
 40
0.0962401251801507
 40
0.1852312611287011
 40
0.2675005230774393
 40
0.3444003817777766
 40
0.4195948685557301
 40
0.4968906265927774
 40
0.5766379188385165
 40
0.6602678524196381
 40
0.7453866150876284
 40
0.8300403273864532
 40
0.9144742116388019
 40
0.9999999999999999
 40
0.9999999999999999
 40
0.9999999999999999
 40
0.9999999999999999
 10
2427.866961341603
 20
1429.481999635141
 30
0.0
 10
2427.870467466875
 20
1429.49021729513
 30
0.0
 10
2427.877215629397
 20
1429.50603364533
 30
0.0
 10
2427.881346906496
 20
1429.529352421803
 30
0.0
 10
2427.881348484218
 20
1429.551074505674
 30
0.0
 10
2427.875845243192
 20
1429.571407378125
 30
0.0
 10
2427.865912612076
 20
1429.590836233172
 30
0.0
 10
2427.850670036727
 20
1429.609598447862
 30
0.0
 10
2427.830919536243
 20
1429.628044777769
 30
0.0
 10
2427.806418041749
 20
1429.645742987623
 30
0.0
 10
2427.77863363606
 20
1429.662690796437
 30
0.0
 10
2427.746708666716
 20
1429.677668085724
 30
0.0
 10
2427.712440668788
 20
1429.691297712983
 30
0.0
 10
2427.687245082179
 20
1429.698547284172
 30
0.0
 10
2427.674566354486
 20
1429.702195357163
 30
0.0
  0
LINE
  5
1F1
330
1F
100
AcDbEntity
  8
0
  6
Continuous
 62
     7
370
    15
100
AcDbLine
 10
2427.2179706024
 20
1429.5892432819
 30
0.0
 11
2427.2179706024
 21
1429.6583814119
 31
0.0
  0
LINE
  5
1F2
330
1F
100
AcDbEntity
  8
0
  6
Continuous
 62
     7
370
    15
100
AcDbLine
 10
2427.2179706024
 20
1429.6583814119
 30
0.0
 11
2427.8669613416
 21
1429.4819996351
 31
0.0
  0
SPLINE
  5
1F3
330
1F
100
AcDbEntity
  8
0
  6
Continuous
 62
     7
370
    15
100
AcDbSpline
210
0.0
220
0.0
230
1.0
 70
     8
 71
     3
 72
    15
 73
    11
 74
     0
 42
0.000000001
 43
0.00000001
 40
0.0
 40
0.0
 40
0.0
 40
0.0
 40
0.1310919762569281
 40
0.2591412763281413
 40
0.3841617634834039
 40
0.5059919524977761
 40
0.6290980893898571
 40
0.7506691234237093
 40
0.8740389376151269
 40
1.0
 40
1.0
 40
1.0
 40
1.0
 10
2427.674566354486
 20
1429.702195357163
 30
0.0
 10
2427.663978683567
 20
1429.704938222253
 30
0.0
 10
2427.643049084107
 20
1429.710360289877
 30
0.0
 10
2427.610504814122
 20
1429.716680397903
 30
0.0
 10
2427.57784994411
 20
1429.721381979165
 30
0.0
 10
2427.544953687133
 20
1429.724607246465
 30
0.0
 10
2427.511898069613
 20
1429.725973243724
 30
0.0
 10
2427.478599548499
 20
1429.726090163167
 30
0.0
 10
2427.445196451417
 20
1429.724263651177
 30
0.0
 10
2427.423111271871
 20
1429.721954706249
 30
0.0
 10
2427.41195391857
 20
1429.720788235572
 30
0.0
  0
SPLINE
  5
1F4
330
1F
100
AcDbEntity
  8
0
  6
Continuous
 62
     7
370
    15
100
AcDbSpline
210
0.0
220
0.0
230
1.0
 70
     8
 71
     3
 72
    15
 73
    11
 74
     0
 42
0.000000001
 43
0.00000001
 40
0.0
 40
0.0
 40
0.0
 40
0.0
 40
0.1099838451118727
 40
0.2225804973638886
 40
0.3384998709624456
 40
0.4587085654776341
 40
0.5855353464579961
 40
0.7175177429458921
 40
0.854666819751022
 40
1.0
 40
1.0
 40
1.0
 40
1.0
 10
2427.41195391857
 20
1429.720788235572
 30
0.0
 10
2427.403710904732
 20
1429.719706051539
 30
0.0
 10
2427.387029053701
 20
1429.717515974805
 30
0.0
 10
2427.362655295628
 20
1429.712555855332
 30
0.0
 10
2427.338196206256
 20
1429.706711542069
 30
0.0
 10
2427.313926255193
 20
1429.69943052871
 30
0.0
 10
2427.289761227233
 20
1429.690893724198
 30
0.0
 10
2427.265489506377
 20
1429.681286042364
 30
0.0
 10
2427.241365543293
 20
1429.670415365179
 30
0.0
 10
2427.225918097673
 20
1429.662469466089
 30
0.0
 10
2427.217970602414
 20
1429.658381411864
 30
0.0
  0
LINE
  5
1F5
330
1F
100
AcDbEntity
  8
0
  6
Continuous
 62
     7
370
    15
100
AcDbLine
 10
2427.7245832889
 20
1429.6837733122
 30
0.0
 11
2427.7245832889
 21
1429.7577399561
 31
0.0
  0
LINE
  5
1F6
330
1F
100
AcDbEntity
  8
0
  6
Continuous
 62
     7
370
    15
100
AcDbLine
 10
2427.3062604214
 20
1429.6953736042
 30
0.0
 11
2427.3062604214
 21
1429.7664893435
 31
0.0
  0
LINE
  5
1F7
330
1F
100
AcDbEntity
  8
0
  6
Continuous
 62
     7
370
    15
100
AcDbLine
 10
2426.7302231992
 20
1430.0945019822
 30
0.0
 11
2426.7302231992
 21
1430.2255232361
 31
0.0
  0
LINE
  5
1F8
330
1F
100
AcDbEntity
  8
0
  6
Continuous
 62
     7
370
    15
100
AcDbLine
 10
2426.581932287
 20
1429.8707505002
 30
0.0
 11
2426.581932287
 21
1429.9497655058
 31
0.0
  0
LWPOLYLINE
  5
1F9
330
1F
100
AcDbEntity
  8
0
  6
Continuous
 62
     7
370
    15
100
AcDbPolyline
 90
       10
 70
   128
 43
0.0
 10
2427.100188899
 20
568.6931965982
 10
2428.5078365193
 20
568.4204011133
 10
2430.0029815887
 20
568.3364742088
 10
2431.4916786438
 20
568.4466893208
 10
2432.8803873734
 20
568.7441212285
 10
2434.0818501008
 20
569.2100811913
 10
2435.0205745042
 20
569.8152912309
 10
2435.6375770769
 20
570.5217237749
 10
2435.8940892781
 20
571.2849910683
 10
2435.9003612326
 20
571.426250639
  0
LWPOLYLINE
  5
1FA
330
1F
100
AcDbEntity
  8
0
  6
Continuous
 62
     7
370
    15
100
AcDbPolyline
 90
        6
 70
   128
 43
0.0
 10
2423.9003612326
 20
571.426250639
 10
2423.919520358
 20
571.1794928752
 10
2424.2265682563
 20
570.4211906516
 10
2424.890121434
 20
569.7260400435
 10
2425.8684864047
 20
569.13771992
 10
2427.100188899
 20
568.6931965982
  0
LWPOLYLINE
  5
1FB
330
1F
100
AcDbEntity
  8
0
  6
Continuous
 62
     8
370
    15
100
AcDbPolyline
 90
       10
 70
   128
 43
0.0
 10
2427.100188899
 20
1198.7111626143
 10
2428.5078365193
 20
1198.4383671293
 10
2430.0029815887
 20
1198.3544402248
 10
2431.4916786438
 20
1198.4646553369
 10
2432.8803873734
 20
1198.7620872446
 10
2434.0818501008
 20
1199.2280472073
 10
2435.0205745042
 20
1199.833257247
 10
2435.6375770769
 20
1200.539689791
 10
2435.8940892781
 20
1201.3029570844
 10
2435.9003612326
 20
1201.4442166551
  0
LWPOLYLINE
  5
1FC
330
1F
100
AcDbEntity
  8
0
  6
Continuous
 62
     8
370
    15
100
AcDbPolyline
 90
        6
 70
   128
 43
0.0
 10
2423.9003612326
 20
1201.4442166551
 10
2423.919520358
 20
1201.1974588912
 10
2424.2265682563
 20
1200.4391566677
 10
2424.890121434
 20
1199.7440060596
 10
2425.8684864047
 20
1199.1556859361
 10
2427.100188899
 20
1198.7111626143
  0
LINE
  5
1FD
330
1F
100
AcDbEntity
  8
0
  6
Continuous
 62
     8
370
    15
100
AcDbLine
 10
2433.8251285822
 20
1427.6606861492
 30
0.0
 11
2433.8251285822
 21
1427.7917074031
 31
0.0
  0
LINE
  5
1FE
330
1F
100
AcDbEntity
  8
0
  6
Continuous
 62
     8
370
    15
100
AcDbLine
 10
2432.8351188739
 20
1427.9297495746
 30
0.0
 11
2432.8351188739
 21
1428.0607708284
 31
0.0
  0
LINE
  5
1FF
330
1F
100
AcDbEntity
  8
0
  6
Continuous
 62
     8
370
    15
100
AcDbLine
 10
2430.7675018395
 20
1428.5321170408
 30
0.0
 11
2430.7675018395
 21
1428.6631382947
 31
0.0
  0
LINE
  5
200
330
1F
100
AcDbEntity
  8
0
  6
Continuous
 62
     8
370
    15
100
AcDbLine
 10
2430.1672837449
 20
1428.6762613373
 30
0.0
 11
2430.1672837449
 21
1428.8072825911
 31
0.0
  0
LWPOLYLINE
  5
201
330
1F
100
AcDbEntity
  8
0
  6
Continuous
 62
     8
370
    15
100
AcDbPolyline
 90
       11
 70
   128
 43
0.0
 10
2448.186775018
 20
1159.249535362
 10
2448.8857014516
 20
1160.3030470914
 10
2449.716656893
 20
1161.4620906412
 10
2450.6274293556
 20
1162.6538390425
 10
2451.5607916562
 20
1163.8034103602
 10
2452.4580972086
 20
1164.8385728006
 10
2453.2629650051
 20
1165.6942833006
 10
2453.9248222417
 20
1166.3167744223
 10
2454.4020819943
 20
1166.6669327593
 10
2454.6647562772
 20
1166.7227565753
 10
2454.6714163165
 20
1166.718060165
  0
ARC
  5
202
330
1F
100
AcDbEntity
  8
0
  6
Continuous
 62
     8
370
    15
100
AcDbCircle
 10
2450.2705432335
 20
1157.133116655
 30
0.0
 40
2.970070389594995
100
AcDbArc
 50
134.5546156127
 51
177.8029227743
  0
LWPOLYLINE
  5
203
330
1F
100
AcDbEntity
  8
0
  6
Continuous
 62
     8
370
    15
100
AcDbPolyline
 90
        6
 70
   128
 43
0.0
 10
2438.3712552473
 20
1080.0175259182
 10
2438.7857909426
 20
1078.7754027558
 10
2439.3502249616
 20
1077.7830545967
 10
2440.029091839
 20
1077.1028343254
 10
2440.7797358724
 20
1076.7774826833
 10
2441.027472097
 20
1076.7523076501
  0
LWPOLYLINE
  5
204
330
1F
100
AcDbEntity
  8
0
  6
Continuous
 62
     8
370
    15
100
AcDbPolyline
 90
       10
 70
   128
 43
0.0
 10
2441.3107336603
 20
1088.7489538613
 10
2441.1755238577
 20
1088.7459726835
 10
2440.4062528226
 20
1088.5080503188
 10
2439.6850605317
 20
1087.908364917
 10
2439.0572621489
 20
1086.9845969172
 10
2438.5623045556
 20
1085.7947900603
 10
2438.2312877576
 20
1084.4137042869
 10
2438.0850107578
 20
1082.9281182955
 10
2438.1326646781
 20
1081.4313769175
 10
2438.3712552473
 20
1080.0175259182
  0
LWPOLYLINE
  5
205
330
1F
100
AcDbEntity
  8
0
  6
Continuous
 62
     8
370
    15
100
AcDbPolyline
 90
        6
 70
   128
 43
0.0
 10
2427.100188899
 20
1160.1386340827
 10
2425.8684864047
 20
1160.5831574045
 10
2424.890121434
 20
1161.171477528
 10
2424.2265682563
 20
1161.8666281361
 10
2423.919520358
 20
1162.6249303596
 10
2423.9007645617
 20
1162.8358576582
  0
LWPOLYLINE
  5
206
330
1F
100
AcDbEntity
  8
0
  6
Continuous
 62
     8
370
    15
100
AcDbPolyline
 90
       10
 70
   128
 43
0.0
 10
2435.9003612264
 20
1162.8718277944
 10
2435.8940892781
 20
1162.7304285528
 10
2435.6375770769
 20
1161.9671612594
 10
2435.0205745042
 20
1161.2607287154
 10
2434.0818501008
 20
1160.6555186757
 10
2432.8803873734
 20
1160.189558713
 10
2431.4916786438
 20
1159.8921268053
 10
2430.0029815887
 20
1159.7819116933
 10
2428.5078365193
 20
1159.8658385977
 10
2427.100188899
 20
1160.1386340827
  0
LWPOLYLINE
  5
207
330
1F
100
AcDbEntity
  8
0
  6
Continuous
 62
     8
370
    15
100
AcDbPolyline
 90
        6
 70
   128
 43
0.0
 10
2415.8291225507
 20
1171.686358191
 10
2416.243658246
 20
1170.4442350286
 10
2416.808092265
 20
1169.4518868695
 10
2417.4869591424
 20
1168.7716665983
 10
2418.2376031758
 20
1168.4463149561
 10
2418.445552917
 20
1168.4225654503
  0
LWPOLYLINE
  5
208
330
1F
100
AcDbEntity
  8
0
  6
Continuous
 62
     8
370
    15
100
AcDbPolyline
 90
       10
 70
   128
 43
0.0
 10
2418.7746495952
 20
1180.4176513057
 10
2418.6333911611
 20
1180.4148049563
 10
2417.864120126
 20
1180.1768825917
 10
2417.1429278351
 20
1179.5771971898
 10
2416.5151294523
 20
1178.65342919
 10
2416.020171859
 20
1177.4636223331
 10
2415.689155061
 20
1176.0825365598
 10
2415.5428780612
 20
1174.5969505683
 10
2415.5905319815
 20
1173.1002091903
 10
2415.8291225507
 20
1171.686358191
  0
LWPOLYLINE
  5
209
330
1F
100
AcDbEntity
  8
0
  6
Continuous
 62
     8
370
    15
100
AcDbPolyline
 90
       11
 70
   128
 43
0.0
 10
2406.01360278
 20
1092.4543487472
 10
2406.7125292136
 20
1093.5078604766
 10
2407.543484655
 20
1094.6669040264
 10
2408.4542571176
 20
1095.8586524276
 10
2409.3876194182
 20
1097.0082237453
 10
2410.2849249707
 20
1098.0433861858
 10
2411.0897927671
 20
1098.8990966858
 10
2411.7516500037
 20
1099.5215878075
 10
2412.2289097563
 20
1099.8717461444
 10
2412.4915840392
 20
1099.9275699605
 10
2412.4982347757
 20
1099.9228808354
  0
ARC
  5
20A
330
1F
100
AcDbEntity
  8
0
  6
Continuous
 62
     8
370
    15
100
AcDbCircle
 10
2408.0973790517
 20
1090.3379255989
 30
0.0
 40
2.970079206577003
100
AcDbArc
 50
134.5546662462
 51
177.802834846
  0
LWPOLYLINE
  5
20B
330
1F
100
AcDbEntity
  8
0
  6
Continuous
 62
     8
370
    15
100
AcDbPolyline
 90
        6
 70
   128
 43
0.0
 10
2427.100188899
 20
1091.5652500265
 10
2425.8684864047
 20
1092.0097733483
 10
2424.890121434
 20
1092.5980934718
 10
2424.2265682563
 20
1093.2932440799
 10
2423.919520358
 20
1094.0515463035
 10
2423.9003612326
 20
1094.2983040673
  0
LWPOLYLINE
  5
20C
330
1F
100
AcDbEntity
  8
0
  6
Continuous
 62
     8
370
    15
100
AcDbPolyline
 90
       10
 70
   128
 43
0.0
 10
2435.9003612326
 20
1094.2983040673
 10
2435.8940892781
 20
1094.1570444966
 10
2435.6375770769
 20
1093.3937772032
 10
2435.0205745042
 20
1092.6873446592
 10
2434.0818501008
 20
1092.0821346196
 10
2432.8803873734
 20
1091.6161746568
 10
2431.4916786438
 20
1091.3187427491
 10
2430.0029815887
 20
1091.2085276371
 10
2428.5078365193
 20
1091.2924545416
 10
2427.100188899
 20
1091.5652500265
  0
LWPOLYLINE
  5
20D
330
1F
100
AcDbEntity
  8
0
  6
Continuous
 62
     8
370
    15
100
AcDbPolyline
 90
       10
 70
   128
 43
0.0
 10
2427.100188899
 20
1052.9927214949
 10
2428.5078365193
 20
1052.71992601
 10
2430.0029815887
 20
1052.6359991055
 10
2431.4916786438
 20
1052.7462142175
 10
2432.8803873734
 20
1053.0436461252
 10
2434.0818501008
 20
1053.509606088
 10
2435.0205745042
 20
1054.1148161276
 10
2435.6375770769
 20
1054.8212486716
 10
2435.8940892781
 20
1055.584515965
 10
2435.9003606316
 20
1055.7243923969
  0
LWPOLYLINE
  5
20E
330
1F
100
AcDbEntity
  8
0
  6
Continuous
 62
     8
370
    15
100
AcDbPolyline
 90
        6
 70
   128
 43
0.0
 10
2423.9003696137
 20
1055.720610411
 10
2423.919520358
 20
1055.4790177719
 10
2424.2265682563
 20
1054.7207155483
 10
2424.890121434
 20
1054.0255649402
 10
2425.8684864047
 20
1053.4372448167
 10
2427.100188899
 20
1052.9927214949
  0
ENDSEC
  0
SECTION
  2
OBJECTS
  0
DICTIONARY
  5
C
330
0
100
AcDbDictionary
281
     1
  3
ACAD_GROUP
350
D
  3
ACAD_LAYOUT
350
1A
  3
ACAD_MLINESTYLE
350
17
  3
ACAD_PLOTSETTINGS
350
19
  3
ACAD_PLOTSTYLENAME
350
E
  3
ACAD_SCALELIST
350
47
  0
DICTIONARY
  5
D
102
{ACAD_REACTORS
330
C
102
}
330
C
100
AcDbDictionary
281
     1
  0
DICTIONARY
  5
1A
102
{ACAD_REACTORS
330
C
102
}
330
C
100
AcDbDictionary
281
     1
  3
Layout1
350
1E
  3
Layout2
350
26
  3
Model
350
22
  0
DICTIONARY
  5
17
102
{ACAD_REACTORS
330
C
102
}
330
C
100
AcDbDictionary
281
     1
  3
Standard
350
18
  0
DICTIONARY
  5
19
102
{ACAD_REACTORS
330
C
102
}
330
C
100
AcDbDictionary
281
     1
  0
ACDBDICTIONARYWDFLT
  5
E
102
{ACAD_REACTORS
330
C
102
}
330
C
100
AcDbDictionary
281
     1
  3
Normal
350
F
100
AcDbDictionaryWithDefault
340
F
  0
DICTIONARY
  5
47
102
{ACAD_REACTORS
330
C
102
}
330
C
100
AcDbDictionary
281
     1
  3
A0
350
48
  3
A1
350
49
  3
A2
350
4A
  3
A3
350
4B
  3
A4
350
4C
  3
A5
350
4D
  3
A6
350
4E
  3
A7
350
4F
  3
A8
350
50
  3
A9
350
51
  3
B0
350
52
  3
B1
350
53
  3
B2
350
54
  3
B3
350
55
  3
B4
350
56
  3
B5
350
57
  3
B6
350
58
  3
B7
350
59
  3
B8
350
5A
  3
B9
350
5B
  3
C0
350
5C
  3
C1
350
5D
  3
C2
350
5E
  3
C3
350
5F
  3
C4
350
60
  3
C5
350
61
  3
C6
350
62
  3
C7
350
63
  3
C8
350
64
  3
C9
350
65
  3
D0
350
66
  3
D1
350
67
  3
D2
350
68
  0
LAYOUT
  5
1E
102
{ACAD_REACTORS
330
1A
102
}
330
1A
100
AcDbPlotSettings
  1

  2
none_device
  4

  6

 40
0.0
 41
0.0
 42
0.0
 43
0.0
 44
0.0
 45
0.0
 46
0.0
 47
0.0
 48
0.0
 49
0.0
140
0.0
141
0.0
142
1.0
143
1.0
 70
   688
 72
     1
 73
     0
 74
     5
  7

 75
    16
147
1.0
148
0.0
149
0.0
100
AcDbLayout
  1
Layout1
 70
     1
 71
     1
 10
0.0
 20
0.0
 11
420.0
 21
297.0
 12
0.0
 22
0.0
 32
0.0
 14
1.0000000000E+20
 24
1.0000000000E+20
 34
1.0000000000E+20
 15
-1.0000000000E+20
 25
-1.0000000000E+20
 35
-1.0000000000E+20
146
0.0
 13
0.0
 23
0.0
 33
0.0
 16
1.0
 26
0.0
 36
0.0
 17
0.0
 27
1.0
 37
0.0
 76
     0
330
1B
  0
LAYOUT
  5
26
102
{ACAD_REACTORS
330
1A
102
}
330
1A
100
AcDbPlotSettings
  1

  2
none_device
  4

  6

 40
0.0
 41
0.0
 42
0.0
 43
0.0
 44
0.0
 45
0.0
 46
0.0
 47
0.0
 48
0.0
 49
0.0
140
0.0
141
0.0
142
1.0
143
1.0
 70
   688
 72
     1
 73
     0
 74
     5
  7

 75
    16
147
1.0
148
0.0
149
0.0
100
AcDbLayout
  1
Layout2
 70
     1
 71
     2
 10
0.0
 20
0.0
 11
0.0
 21
0.0
 12
0.0
 22
0.0
 32
0.0
 14
0.0
 24
0.0
 34
0.0
 15
0.0
 25
0.0
 35
0.0
146
0.0
 13
0.0
 23
0.0
 33
0.0
 16
1.0
 26
0.0
 36
0.0
 17
0.0
 27
1.0
 37
0.0
 76
     0
330
23
  0
LAYOUT
  5
22
102
{ACAD_REACTORS
330
1A
102
}
330
1A
100
AcDbPlotSettings
  1

  2
none_device
  4
Letter_(8.50_x_11.00_Inches)
  6

 40
6.35
 41
6.35
 42
6.35000508
 43
6.35000508
 44
215.9
 45
279.4
 46
0.0
 47
0.0
 48
0.0
 49
0.0
140
0.0
141
0.0
142
1.0
143
1.0
 70
  1712
 72
     1
 73
     0
 74
     0
  7

 75
     0
147
1.0
148
0.0
149
0.0
100
AcDbLayout
  1
Model
 70
     1
 71
     0
 10
0.0
 20
0.0
 11
2970.0
 21
2100.0
 12
0.0
 22
0.0
 32
0.0
 14
0.0
 24
0.0
 34
0.0
 15
2970.0
 25
2100.0
 35
0.0
146
0.0
 13
0.0
 23
0.0
 33
0.0
 16
1.0
 26
0.0
 36
0.0
 17
0.0
 27
1.0
 37
0.0
 76
     0
330
1F
331
29
  0
MLINESTYLE
  5
18
102
{ACAD_REACTORS
330
17
102
}
330
17
100
AcDbMlineStyle
  2
Standard
 70
     0
  3

 62
   256
 51
90.0
 52
90.0
 71
     2
 49
0.5
 62
   256
  6
BYLAYER
 49
-0.5
 62
   256
  6
BYLAYER
  0
ACDBPLACEHOLDER
  5
F
102
{ACAD_REACTORS
330
E
102
}
330
E
  0
SCALE
  5
48
102
{ACAD_REACTORS
330
47
102
}
330
47
100
AcDbScale
 70
     0
300
1:1
140
1.0
141
1.0
290
     1
  0
SCALE
  5
49
102
{ACAD_REACTORS
330
47
102
}
330
47
100
AcDbScale
 70
     0
300
1:2
140
1.0
141
2.0
290
     0
  0
SCALE
  5
4A
102
{ACAD_REACTORS
330
47
102
}
330
47
100
AcDbScale
 70
     0
300
1:4
140
1.0
141
4.0
290
     0
  0
SCALE
  5
4B
102
{ACAD_REACTORS
330
47
102
}
330
47
100
AcDbScale
 70
     0
300
1:5
140
1.0
141
5.0
290
     0
  0
SCALE
  5
4C
102
{ACAD_REACTORS
330
47
102
}
330
47
100
AcDbScale
 70
     0
300
1:8
140
1.0
141
8.0
290
     0
  0
SCALE
  5
4D
102
{ACAD_REACTORS
330
47
102
}
330
47
100
AcDbScale
 70
     0
300
1:10
140
1.0
141
10.0
290
     0
  0
SCALE
  5
4E
102
{ACAD_REACTORS
330
47
102
}
330
47
100
AcDbScale
 70
     0
300
1:16
140
1.0
141
16.0
290
     0
  0
SCALE
  5
4F
102
{ACAD_REACTORS
330
47
102
}
330
47
100
AcDbScale
 70
     0
300
1:20
140
1.0
141
20.0
290
     0
  0
SCALE
  5
50
102
{ACAD_REACTORS
330
47
102
}
330
47
100
AcDbScale
 70
     0
300
1:30
140
1.0
141
30.0
290
     0
  0
SCALE
  5
51
102
{ACAD_REACTORS
330
47
102
}
330
47
100
AcDbScale
 70
     0
300
1:40
140
1.0
141
40.0
290
     0
  0
SCALE
  5
52
102
{ACAD_REACTORS
330
47
102
}
330
47
100
AcDbScale
 70
     0
300
1:50
140
1.0
141
50.0
290
     0
  0
SCALE
  5
53
102
{ACAD_REACTORS
330
47
102
}
330
47
100
AcDbScale
 70
     0
300
1:100
140
1.0
141
100.0
290
     0
  0
SCALE
  5
54
102
{ACAD_REACTORS
330
47
102
}
330
47
100
AcDbScale
 70
     0
300
2:1
140
2.0
141
1.0
290
     0
  0
SCALE
  5
55
102
{ACAD_REACTORS
330
47
102
}
330
47
100
AcDbScale
 70
     0
300
4:1
140
4.0
141
1.0
290
     0
  0
SCALE
  5
56
102
{ACAD_REACTORS
330
47
102
}
330
47
100
AcDbScale
 70
     0
300
8:1
140
8.0
141
1.0
290
     0
  0
SCALE
  5
57
102
{ACAD_REACTORS
330
47
102
}
330
47
100
AcDbScale
 70
     0
300
10:1
140
10.0
141
1.0
290
     0
  0
SCALE
  5
58
102
{ACAD_REACTORS
330
47
102
}
330
47
100
AcDbScale
 70
     0
300
100:1
140
100.0
141
1.0
290
     0
  0
SCALE
  5
59
102
{ACAD_REACTORS
330
47
102
}
330
47
100
AcDbScale
 70
     0
300
1/128" = 1'-0"
140
0.0078125
141
12.0
290
     0
  0
SCALE
  5
5A
102
{ACAD_REACTORS
330
47
102
}
330
47
100
AcDbScale
 70
     0
300
1/64" = 1'-0"
140
0.015625
141
12.0
290
     0
  0
SCALE
  5
5B
102
{ACAD_REACTORS
330
47
102
}
330
47
100
AcDbScale
 70
     0
300
1/32" = 1'-0"
140
0.03125
141
12.0
290
     0
  0
SCALE
  5
5C
102
{ACAD_REACTORS
330
47
102
}
330
47
100
AcDbScale
 70
     0
300
1/16" = 1'-0"
140
0.0625
141
12.0
290
     0
  0
SCALE
  5
5D
102
{ACAD_REACTORS
330
47
102
}
330
47
100
AcDbScale
 70
     0
300
3/32" = 1'-0"
140
0.09375
141
12.0
290
     0
  0
SCALE
  5
5E
102
{ACAD_REACTORS
330
47
102
}
330
47
100
AcDbScale
 70
     0
300
1/8" = 1'-0"
140
0.125
141
12.0
290
     0
  0
SCALE
  5
5F
102
{ACAD_REACTORS
330
47
102
}
330
47
100
AcDbScale
 70
     0
300
3/16" = 1'-0"
140
0.1875
141
12.0
290
     0
  0
SCALE
  5
60
102
{ACAD_REACTORS
330
47
102
}
330
47
100
AcDbScale
 70
     0
300
1/4" = 1'-0"
140
0.25
141
12.0
290
     0
  0
SCALE
  5
61
102
{ACAD_REACTORS
330
47
102
}
330
47
100
AcDbScale
 70
     0
300
3/8" = 1'-0"
140
0.375
141
12.0
290
     0
  0
SCALE
  5
62
102
{ACAD_REACTORS
330
47
102
}
330
47
100
AcDbScale
 70
     0
300
1/2" = 1'-0"
140
0.5
141
12.0
290
     0
  0
SCALE
  5
63
102
{ACAD_REACTORS
330
47
102
}
330
47
100
AcDbScale
 70
     0
300
3/4" = 1'-0"
140
0.75
141
12.0
290
     0
  0
SCALE
  5
64
102
{ACAD_REACTORS
330
47
102
}
330
47
100
AcDbScale
 70
     0
300
1" = 1'-0"
140
1.0
141
12.0
290
     0
  0
SCALE
  5
65
102
{ACAD_REACTORS
330
47
102
}
330
47
100
AcDbScale
 70
     0
300
1-1/2" = 1'-0"
140
1.5
141
12.0
290
     0
  0
SCALE
  5
66
102
{ACAD_REACTORS
330
47
102
}
330
47
100
AcDbScale
 70
     0
300
3" = 1'-0"
140
3.0
141
12.0
290
     0
  0
SCALE
  5
67
102
{ACAD_REACTORS
330
47
102
}
330
47
100
AcDbScale
 70
     0
300
6" = 1'-0"
140
6.0
141
12.0
290
     0
  0
SCALE
  5
68
102
{ACAD_REACTORS
330
47
102
}
330
47
100
AcDbScale
 70
     0
300
1'-0" = 1'-0"
140
12.0
141
12.0
290
     0
  0
ENDSEC
  0
EOF
