  0
SECTION
  2
HEADER
  9
$ACADVER
  1
AC1015
  9
$ACADMAINTVER
 70
     6
  9
$DWGCODEPAGE
  3
ANSI_1252
  9
$INSBASE
 10
0.0
 20
0.0
 30
0.0
  9
$EXTMIN
 10
0.0
 20
0.0
 30
0.0
  9
$EXTMAX
 10
594.0
 20
420.0
 30
0.0
  9
$LIMMIN
 10
0.0
 20
0.0
  9
$LIMMAX
 10
594.0
 20
420.0
  9
$ORTHOMODE
 70
     0
  9
$REGENMODE
 70
     1
  9
$FILLMODE
 70
     1
  9
$QTEXTMODE
 70
     0
  9
$MIRRTEXT
 70
     1
  9
$LTSCALE
 40
2.0
  9
$ATTMODE
 70
     1
  9
$TEXTSIZE
 40
7.0
  9
$TRACEWID
 40
1.0
  9
$TEXTSTYLE
  7
Standard
  9
$CLAYER
  8
0
  9
$CELTYPE
  6
ByLayer
  9
$CECOLOR
 62
   256
  9
$CELTSCALE
 40
1.0
  9
$DISPSILH
 70
     0
  9
$DIMSCALE
 40
1.0
  9
$DIMASZ
 40
6.604
  9
$DIMEXO
 40
2.0
  9
$DIMDLI
 40
3.75
  9
$DIMRND
 40
0.0
  9
$DIMDLE
 40
0.0
  9
$DIMEXE
 40
2.0
  9
$DIMTP
 40
0.0
  9
$DIMTM
 40
0.0
  9
$DIMTXT
 40
7.0
  9
$DIMCEN
 40
2.5
  9
$DIMTSZ
 40
0.0
  9
$DIMTOL
 70
     0
  9
$DIMLIM
 70
     0
  9
$DIMTIH
 70
     1
  9
$DIMTOH
 70
     1
  9
$DIMSE1
 70
     0
  9
$DIMSE2
 70
     0
  9
$DIMTAD
 70
     1
  9
$DIMZIN
 70
     0
  9
$DIMBLK
  1

  9
$DIMASO
 70
     1
  9
$DIMSHO
 70
     1
  9
$DIMPOST
  1

  9
$DIMAPOST
  1

  9
$DIMALT
 70
     0
  9
$DIMALTD
 70
     3
  9
$DIMALTF
 40
0.0393700787
  9
$DIMLFAC
 40
1.0
  9
$DIMTOFL
 70
     1
  9
$DIMTVP
 40
0.0
  9
$DIMTIX
 70
     0
  9
$DIMSOXD
 70
     0
  9
$DIMSAH
 70
     0
  9
$DIMBLK1
  1

  9
$DIMBLK2
  1

  9
$DIMSTYLE
  2
ISO-25
  9
$DIMCLRD
 70
     0
  9
$DIMCLRE
 70
     0
  9
$DIMCLRT
 70
     0
  9
$DIMTFAC
 40
1.0
  9
$DIMGAP
 40
3.048
  9
$DIMJUST
 70
     0
  9
$DIMSD1
 70
     0
  9
$DIMSD2
 70
     0
  9
$DIMTOLJ
 70
     0
  9
$DIMTZIN
 70
     0
  9
$DIMALTZ
 70
     0
  9
$DIMALTTZ
 70
     0
  9
$DIMUPT
 70
     0
  9
$DIMDEC
 70
     2
  9
$DIMTDEC
 70
     2
  9
$DIMALTU
 70
     2
  9
$DIMALTTD
 70
     3
  9
$DIMTXSTY
  7
Standard
  9
$DIMAUNIT
 70
     0
  9
$DIMADEC
 70
     2
  9
$DIMALTRND
 40
0.0
  9
$DIMAZIN
 70
     0
  9
$DIMDSEP
 70
    44
  9
$DIMATFIT
 70
     3
  9
$DIMFRAC
 70
     0
  9
$DIMLDRBLK
  1

  9
$DIMLUNIT
 70
     2
  9
$DIMLWD
 70
    -2
  9
$DIMLWE
 70
    -2
  9
$DIMTMOVE
 70
     0
  9
$LUNITS
 70
     2
  9
$LUPREC
 70
     2
  9
$SKETCHINC
 40
1.0
  9
$FILLETRAD
 40
10.0
  9
$AUNITS
 70
     0
  9
$AUPREC
 70
     2
  9
$MENU
  1
.
  9
$ELEVATION
 40
0.0
  9
$PELEVATION
 40
0.0
  9
$THICKNESS
 40
0.0
  9
$LIMCHECK
 70
     0
  9
$CHAMFERA
 40
0.0
  9
$CHAMFERB
 40
0.0
  9
$CHAMFERC
 40
0.0
  9
$CHAMFERD
 40
0.0
  9
$SKPOLY
 70
     0
  9
$TDCREATE
 40
2456832.626676736
  9
$TDUCREATE
 40
2456832.543343403
  9
$TDUPDATE
 40
2456832.6266775
  9
$TDUUPDATE
 40
2456832.543344167
  9
$TDINDWG
 40
0.0000000116
  9
$TDUSRTIMER
 40
0.0000000116
  9
$USRTIMER
 70
     1
  9
$ANGBASE
 50
0.0
  9
$ANGDIR
 70
     0
  9
$PDMODE
 70
     0
  9
$PDSIZE
 40
-1.0
  9
$PLINEWID
 40
0.0
  9
$SPLFRAME
 70
     0
  9
$SPLINETYPE
 70
     6
  9
$SPLINESEGS
 70
     8
  9
$HANDSEED
  5
101
  9
$SURFTAB1
 70
     6
  9
$SURFTAB2
 70
     6
  9
$SURFTYPE
 70
     6
  9
$SURFU
 70
     6
  9
$SURFV
 70
     6
  9
$UCSBASE
  2

  9
$UCSNAME
  2

  9
$UCSORG
 10
0.0
 20
0.0
 30
0.0
  9
$UCSXDIR
 10
1.0
 20
0.0
 30
0.0
  9
$UCSYDIR
 10
0.0
 20
1.0
 30
0.0
  9
$UCSORTHOREF
  2

  9
$UCSORTHOVIEW
 70
     0
  9
$UCSORGTOP
 10
0.0
 20
0.0
 30
0.0
  9
$UCSORGBOTTOM
 10
0.0
 20
0.0
 30
0.0
  9
$UCSORGLEFT
 10
0.0
 20
0.0
 30
0.0
  9
$UCSORGRIGHT
 10
0.0
 20
0.0
 30
0.0
  9
$UCSORGFRONT
 10
0.0
 20
0.0
 30
0.0
  9
$UCSORGBACK
 10
0.0
 20
0.0
 30
0.0
  9
$PUCSBASE
  2

  9
$PUCSNAME
  2

  9
$PUCSORG
 10
0.0
 20
0.0
 30
0.0
  9
$PUCSXDIR
 10
1.0
 20
0.0
 30
0.0
  9
$PUCSYDIR
 10
0.0
 20
1.0
 30
0.0
  9
$PUCSORTHOREF
  2

  9
$PUCSORTHOVIEW
 70
     0
  9
$PUCSORGTOP
 10
0.0
 20
0.0
 30
0.0
  9
$PUCSORGBOTTOM
 10
0.0
 20
0.0
 30
0.0
  9
$PUCSORGLEFT
 10
0.0
 20
0.0
 30
0.0
  9
$PUCSORGRIGHT
 10
0.0
 20
0.0
 30
0.0
  9
$PUCSORGFRONT
 10
0.0
 20
0.0
 30
0.0
  9
$PUCSORGBACK
 10
0.0
 20
0.0
 30
0.0
  9
$USERI1
 70
     0
  9
$USERI2
 70
     0
  9
$USERI3
 70
     0
  9
$USERI4
 70
     0
  9
$USERI5
 70
     0
  9
$USERR1
 40
0.0
  9
$USERR2
 40
0.0
  9
$USERR3
 40
0.0
  9
$USERR4
 40
0.0
  9
$USERR5
 40
0.0
  9
$WORLDVIEW
 70
     1
  9
$SHADEDGE
 70
     3
  9
$SHADEDIF
 70
    70
  9
$TILEMODE
 70
     1
  9
$MAXACTVP
 70
    64
  9
$PINSBASE
 10
0.0
 20
0.0
 30
0.0
  9
$PLIMCHECK
 70
     0
  9
$PEXTMIN
 10
1.0000000000E+20
 20
1.0000000000E+20
 30
1.0000000000E+20
  9
$PEXTMAX
 10
-1.0000000000E+20
 20
-1.0000000000E+20
 30
-1.0000000000E+20
  9
$PLIMMIN
 10
0.0
 20
0.0
  9
$PLIMMAX
 10
420.0
 20
297.0
  9
$UNITMODE
 70
     0
  9
$VISRETAIN
 70
     1
  9
$PLINEGEN
 70
     0
  9
$PSLTSCALE
 70
     1
  9
$TREEDEPTH
 70
  3020
  9
$CMLSTYLE
  2
Standard
  9
$CMLJUST
 70
     0
  9
$CMLSCALE
 40
20.0
  9
$PROXYGRAPHICS
 70
     1
  9
$MEASUREMENT
 70
     1
  9
$CELWEIGHT
370
    -1
  9
$ENDCAPS
280
     0
  9
$JOINSTYLE
280
     0
  9
$LWDISPLAY
290
     1
  9
$INSUNITS
 70
     4
  9
$HYPERLINKBASE
  1

  9
$STYLESHEET
  1

  9
$XEDIT
290
     1
  9
$CEPSNTYPE
380
     0
  9
$PSTYLEMODE
290
     1
  9
$FINGERPRINTGUID
  2
{86745BFA-04A5-4219-BAE3-17754AEEFC78}
  9
$VERSIONGUID
  2
{FAEB1C32-E019-11D5-929B-00C0DF256EC4}
  9
$EXTNAMES
290
     1
  9
$PSVPSCALE
 40
0.0
  9
$OLESTARTUP
290
     0
  0
ENDSEC
  0
SECTION
  2
CLASSES
  0
CLASS
  1
ACDBDICTIONARYWDFLT
  2
AcDbDictionaryWithDefault
  3
ObjectDBX Classes
 90
        0
280
     0
281
     0
  0
CLASS
  1
VISUALSTYLE
  2
AcDbVisualStyle
  3
ObjectDBX Classes
 90
     4095
280
     0
281
     0
  0
CLASS
  1
MATERIAL
  2
AcDbMaterial
  3
ObjectDBX Classes
 90
     1153
280
     0
281
     0
  0
CLASS
  1
SCALE
  2
AcDbScale
  3
ObjectDBX Classes
 90
     1153
280
     0
281
     0
  0
CLASS
  1
SUN
  2
AcDbSun
  3
SCENEOE
 90
     1153
280
     0
281
     0
  0
CLASS
  1
ACDBPLACEHOLDER
  2
AcDbPlaceHolder
  3
ObjectDBX Classes
 90
        0
280
     0
281
     0
  0
CLASS
  1
LAYOUT
  2
AcDbLayout
  3
ObjectDBX Classes
 90
        0
280
     0
281
     0
  0
ENDSEC
  0
SECTION
  2
TABLES
  0
TABLE
  2
VPORT
  5
8
330
0
100
AcDbSymbolTable
 70
     1
  0
VPORT
  5
29
330
8
100
AcDbSymbolTableRecord
100
AcDbViewportTableRecord
  2
*Active
 70
     0
 10
0.0
 20
0.0
 11
1.0
 21
1.0
 12
297.0
 22
210.0
 13
0.0
 23
0.0
 14
10.0
 24
10.0
 15
10.0
 25
10.0
 16
0.0
 26
0.0
 36
1.0
 17
0.0
 27
0.0
 37
0.0
 40
420.0
 41
1.4142857143
 42
50.0
 43
0.0
 44
0.0
 50
0.0
 51
0.0
 71
     0
 72
  2000
 73
     1
 74
     3
 75
     0
 76
     0
 77
     0
 78
     0
281
     0
 65
     1
110
0.0
120
0.0
130
0.0
111
1.0
121
0.0
131
0.0
112
0.0
122
1.0
132
0.0
 79
     0
146
0.0
  0
ENDTAB
  0
TABLE
  2
LTYPE
  5
5
330
0
100
AcDbSymbolTable
 70
     6
  0
LTYPE
  5
14
330
5
100
AcDbSymbolTableRecord
100
AcDbLinetypeTableRecord
  2
ByBlock
 70
     0
  3

 72
    65
 73
     0
 40
0.0
  0
LTYPE
  5
15
330
5
100
AcDbSymbolTableRecord
100
AcDbLinetypeTableRecord
  2
ByLayer
 70
     0
  3

 72
    65
 73
     0
 40
0.0
  0
LTYPE
  5
16
330
5
100
AcDbSymbolTableRecord
100
AcDbLinetypeTableRecord
  2
Continuous
 70
     0
  3
Solid line
 72
    65
 73
     0
 40
0.0
  0
LTYPE
  5
6A
330
5
100
AcDbSymbolTableRecord
100
AcDbLinetypeTableRecord
  2
HIDDEN
 70
     0
  3
Hidden __ __ __ __ __ __ __ __ __ __ __ __ __ __
 72
    65
 73
     2
 40
1.905
 49
1.27
 74
     0
 49
-0.635
 74
     0
  0
LTYPE
  5
6B
330
5
100
AcDbSymbolTableRecord
100
AcDbLinetypeTableRecord
  2
PHANTOM
 70
     0
  3
Phantom ______  __  __  ______  __  __  ______
 72
    65
 73
     6
 40
12.7
 49
6.35
 74
     0
 49
-1.27
 74
     0
 49
1.27
 74
     0
 49
-1.27
 74
     0
 49
1.27
 74
     0
 49
-1.27
 74
     0
  0
LTYPE
  5
6C
330
5
100
AcDbSymbolTableRecord
100
AcDbLinetypeTableRecord
  2
CENTER
 70
     0
  3
Center ____ _ ____ _ ____ _ ____ _ ____ _ ____
 72
    65
 73
     4
 40
10.16
 49
6.35
 74
     0
 49
-1.27
 74
     0
 49
1.27
 74
     0
 49
-1.27
 74
     0
  0
LTYPE
  5
6D
330
5
100
AcDbSymbolTableRecord
100
AcDbLinetypeTableRecord
  2
CENTERX2
 70
     0
  3
Center (2x) ________  __  ________  __  _____
 72
    65
 73
     4
 40
20.32
 49
12.7
 74
     0
 49
-2.54
 74
     0
 49
2.54
 74
     0
 49
-2.54
 74
     0
  0
LTYPE
  5
6E
330
5
100
AcDbSymbolTableRecord
100
AcDbLinetypeTableRecord
  2
DOT2
 70
     0
  3
Dot (.5x) ........................................
 72
    65
 73
     2
 40
0.635
 49
0.0
 74
     0
 49
-0.635
 74
     0
  0
ENDTAB
  0
TABLE
  2
LAYER
  5
2
330
0
100
AcDbSymbolTable
 70
     2
  0
LAYER
  5
10
330
2
100
AcDbSymbolTableRecord
100
AcDbLayerTableRecord
  2
0
 70
     0
 62
     7
  6
Continuous
370
    -3
390
F
  0
LAYER
  5
6F
330
2
100
AcDbSymbolTableRecord
100
AcDbLayerTableRecord
  2
FORMAT
 70
     0
 62
     7
  6
Continuous
370
    -3
390
F
  0
ENDTAB
  0
TABLE
  2
STYLE
  5
3
330
0
100
AcDbSymbolTable
 70
     3
  0
STYLE
  5
11
330
3
100
AcDbSymbolTableRecord
100
AcDbTextStyleTableRecord
  2
Standard
 70
     0
 40
0.0
 41
1.0
 50
0.0
 71
     0
 42
7.0
  3
txt
  4

  0
STYLE
  5
8C
330
3
100
AcDbSymbolTableRecord
100
AcDbTextStyleTableRecord
  2
SLDTEXTSTYLE0
 70
     0
 40
0.0
 41
0.75
 50
0.0
 71
     0
 42
7.0
  3
TXT
  4

  0
STYLE
  5
94
330
3
100
AcDbSymbolTableRecord
100
AcDbTextStyleTableRecord
  2
SLDTEXTSTYLE1
 70
     0
 40
0.0
 41
0.6923076923
 50
0.0
 71
     0
 42
7.0
  3
TXT
  4

  0
ENDTAB
  0
TABLE
  2
VIEW
  5
6
330
0
100
AcDbSymbolTable
 70
     0
  0
ENDTAB
  0
TABLE
  2
UCS
  5
7
330
0
100
AcDbSymbolTable
 70
     0
  0
ENDTAB
  0
TABLE
  2
APPID
  5
9
330
0
100
AcDbSymbolTable
 70
     1
  0
APPID
  5
12
330
9
100
AcDbSymbolTableRecord
100
AcDbRegAppTableRecord
  2
ACAD
 70
     0
  0
ENDTAB
  0
TABLE
  2
DIMSTYLE
  5
A
330
0
100
AcDbSymbolTable
 70
     1
100
AcDbDimStyleTable
  0
DIMSTYLE
105
27
330
A
100
AcDbSymbolTableRecord
100
AcDbDimStyleTableRecord
  2
ISO-25
 70
     0
 41
2.5
 42
0.625
 43
3.75
 44
1.25
 73
     0
 74
     0
 77
     1
 78
     8
140
2.5
141
2.5
143
0.0393700787
147
0.625
171
     3
172
     1
178
     0
271
     2
272
     2
274
     3
278
    44
283
     0
284
     8
340
11
  0
ENDTAB
  0
TABLE
  2
BLOCK_RECORD
  5
1
330
0
100
AcDbSymbolTable
 70
     1
  0
BLOCK_RECORD
  5
1F
330
1
100
AcDbSymbolTableRecord
100
AcDbBlockTableRecord
  2
*Model_Space
340
22
  0
BLOCK_RECORD
  5
1B
330
1
100
AcDbSymbolTableRecord
100
AcDbBlockTableRecord
  2
*Paper_Space
340
1E
  0
BLOCK_RECORD
  5
23
330
1
100
AcDbSymbolTableRecord
100
AcDbBlockTableRecord
  2
*Paper_Space0
340
26
  0
ENDTAB
  0
ENDSEC
  0
SECTION
  2
BLOCKS
  0
BLOCK
  5
20
330
1F
100
AcDbEntity
  8
0
100
AcDbBlockBegin
  2
*Model_Space
 70
     0
 10
0.0
 20
0.0
 30
0.0
  3
*Model_Space
  1
*Model_Space
  0
ENDBLK
  5
21
330
1F
100
AcDbEntity
  8
0
100
AcDbBlockEnd
  0
BLOCK
  5
1C
330
1B
100
AcDbEntity
 67
     1
  8
0
100
AcDbBlockBegin
  2
*Paper_Space
 70
     0
 10
0.0
 20
0.0
 30
0.0
  3
*Paper_Space
  1
*Paper_Space
  0
ENDBLK
  5
1D
330
1B
100
AcDbEntity
 67
     1
  8
0
100
AcDbBlockEnd
  0
BLOCK
  5
24
330
23
100
AcDbEntity
  8
0
100
AcDbBlockBegin
  2
*Paper_Space0
 70
     0
 10
0.0
 20
0.0
 30
0.0
  3
*Paper_Space0
  1
*Paper_Space0
  0
ENDBLK
  5
25
330
23
100
AcDbEntity
  8
0
100
AcDbBlockEnd
  0
ENDSEC
  0
SECTION
  2
ENTITIES
  0
LINE
  5
70
330
1F
100
AcDbEntity
  8
0
  6
Continuous
 62
     7
370
     0
100
AcDbLine
 10
584.0
 20
410.0
 30
0.0
 11
584.0
 21
10.0
 31
0.0
  0
LINE
  5
71
330
1F
100
AcDbEntity
  8
0
  6
Continuous
 62
     7
370
     0
100
AcDbLine
 10
318.8
 20
69.5
 30
0.0
 11
348.26
 21
69.5
 31
0.0
  0
LINE
  5
72
330
1F
100
AcDbEntity
  8
0
  6
Continuous
 62
     7
370
     0
100
AcDbLine
 10
407.2
 20
69.5
 30
0.0
 11
584.0
 21
69.5
 31
0.0
  0
LINE
  5
73
330
1F
100
AcDbEntity
  8
0
  6
Continuous
 62
     7
370
     0
100
AcDbLine
 10
318.8
 20
18.5
 30
0.0
 11
584.0
 21
18.5
 31
0.0
  0
LINE
  5
74
330
1F
100
AcDbEntity
  8
0
  6
Continuous
 62
     7
370
     0
100
AcDbLine
 10
318.8
 20
69.5
 30
0.0
 11
318.8
 21
56.75
 31
0.0
  0
LINE
  5
75
330
1F
100
AcDbEntity
  8
0
  6
Continuous
 62
     7
370
     0
100
AcDbLine
 10
584.0
 20
44.0
 30
0.0
 11
558.0
 21
44.0
 31
0.0
  0
LINE
  5
76
330
1F
100
AcDbEntity
  8
0
  6
Continuous
 62
     7
370
     0
100
AcDbLine
 10
377.72
 20
44.0
 30
0.0
 11
407.2
 21
44.0
 31
0.0
  0
LINE
  5
77
330
1F
100
AcDbEntity
  8
0
  6
Continuous
 62
     7
370
     0
100
AcDbLine
 10
407.2
 20
69.5
 30
0.0
 11
407.2
 21
10.0
 31
0.0
  0
LINE
  5
78
330
1F
100
AcDbEntity
  8
0
  6
Continuous
 62
     7
370
     0
100
AcDbLine
 10
495.6
 20
10.0
 30
0.0
 11
495.6
 21
18.5
 31
0.0
  0
LINE
  5
79
330
1F
100
AcDbEntity
  8
0
  6
Continuous
 62
     7
370
     0
100
AcDbLine
 10
348.26
 20
69.5
 30
0.0
 11
377.72
 21
69.5
 31
0.0
  0
LINE
  5
7A
330
1F
100
AcDbEntity
  8
0
  6
Continuous
 62
     7
370
     0
100
AcDbLine
 10
558.0
 20
18.5
 30
0.0
 11
558.0
 21
30.9899387204
 31
0.0
  0
LINE
  5
7B
330
1F
100
AcDbEntity
  8
0
  6
Continuous
 62
     7
370
     0
100
AcDbLine
 10
377.72
 20
69.5
 30
0.0
 11
407.2
 21
69.5
 31
0.0
  0
LINE
  5
7C
330
1F
100
AcDbEntity
  8
0
  6
Continuous
 62
     7
370
     0
100
AcDbLine
 10
584.0
 20
30.9899387204
 30
0.0
 11
558.0
 21
30.9899387204
 31
0.0
  0
LINE
  5
7D
330
1F
100
AcDbEntity
  8
0
  6
Continuous
 62
     7
370
     0
100
AcDbLine
 10
407.2
 20
44.0
 30
0.0
 11
558.0
 21
44.0
 31
0.0
  0
LINE
  5
7E
330
1F
100
AcDbEntity
  8
0
  6
Continuous
 62
     7
370
     0
100
AcDbLine
 10
377.72
 20
69.5
 30
0.0
 11
377.72
 21
44.0
 31
0.0
  0
LINE
  5
7F
330
1F
100
AcDbEntity
  8
0
  6
Continuous
 62
     7
370
     0
100
AcDbLine
 10
377.72
 20
44.0
 30
0.0
 11
348.26
 21
44.0
 31
0.0
  0
LINE
  5
80
330
1F
100
AcDbEntity
  8
0
  6
Continuous
 62
     7
370
     0
100
AcDbLine
 10
584.0
 20
410.0
 30
0.0
 11
10.0
 21
410.0
 31
0.0
  0
LINE
  5
81
330
1F
100
AcDbEntity
  8
0
  6
Continuous
 62
     7
370
     0
100
AcDbLine
 10
10.0
 20
410.0
 30
0.0
 11
10.0
 21
10.0
 31
0.0
  0
LINE
  5
82
330
1F
100
AcDbEntity
  8
0
  6
Continuous
 62
     7
370
     0
100
AcDbLine
 10
10.0
 20
10.0
 30
0.0
 11
584.0
 21
10.0
 31
0.0
  0
LINE
  5
83
330
1F
100
AcDbEntity
  8
0
  6
Continuous
 62
     7
370
     0
100
AcDbLine
 10
348.26
 20
44.0
 30
0.0
 11
348.26
 21
69.5
 31
0.0
  0
LINE
  5
84
330
1F
100
AcDbEntity
  8
0
  6
Continuous
 62
     7
370
     0
100
AcDbLine
 10
348.26
 20
44.0
 30
0.0
 11
318.8
 21
44.0
 31
0.0
  0
LINE
  5
85
330
1F
100
AcDbEntity
  8
0
  6
Continuous
 62
     7
370
     0
100
AcDbLine
 10
558.0
 20
30.9899387204
 30
0.0
 11
558.0
 21
44.0
 31
0.0
  0
LINE
  5
86
330
1F
100
AcDbEntity
  8
0
  6
Continuous
 62
     7
370
     0
100
AcDbLine
 10
318.8
 20
56.75
 30
0.0
 11
348.26
 21
56.75
 31
0.0
  0
LINE
  5
87
330
1F
100
AcDbEntity
  8
0
  6
Continuous
 62
     7
370
     0
100
AcDbLine
 10
348.26
 20
56.75
 30
0.0
 11
377.72
 21
56.75
 31
0.0
  0
LINE
  5
88
330
1F
100
AcDbEntity
  8
0
  6
Continuous
 62
     7
370
     0
100
AcDbLine
 10
377.72
 20
56.75
 30
0.0
 11
407.2
 21
56.75
 31
0.0
  0
LINE
  5
89
330
1F
100
AcDbEntity
  8
0
  6
Continuous
 62
     7
370
     0
100
AcDbLine
 10
318.8
 20
44.0
 30
0.0
 11
318.8
 21
56.75
 31
0.0
  0
LINE
  5
8A
330
1F
100
AcDbEntity
  8
0
  6
Continuous
 62
     7
370
     0
100
AcDbLine
 10
318.8
 20
44.0
 30
0.0
 11
318.8
 21
18.5
 31
0.0
  0
LINE
  5
8B
330
1F
100
AcDbEntity
  8
0
  6
Continuous
 62
     7
370
     0
100
AcDbLine
 10
318.8
 20
10.0
 30
0.0
 11
318.8
 21
18.5
 31
0.0
  0
MTEXT
  5
8D
330
1F
100
AcDbEntity
  8
0
  6
Continuous
 62
     7
370
     0
100
AcDbMText
 10
560.5538745599
 20
38.8648898954
 30
0.0
 40
3.0
 41
0.0
 71
     1
 72
     1
  1
Blattformat
  7
SLDTEXTSTYLE0
 73
     1
 44
1.0
  0
MTEXT
  5
8E
330
1F
100
AcDbEntity
  8
0
  6
Continuous
 62
     7
370
     0
100
AcDbMText
 10
324.7284817854
 20
51.7498609387
 30
0.0
 40
3.0
 41
0.0
 71
     1
 72
     1
  1
Ch. Höfig
  7
SLDTEXTSTYLE0
 73
     1
 44
1.0
  0
MTEXT
  5
8F
330
1F
100
AcDbEntity
  8
0
  6
Continuous
 62
     7
370
     0
100
AcDbMText
 10
333.5523956518
 20
64.4071316317
 30
0.0
 40
3.0
 41
0.0
 71
     2
 72
     1
  1
Name
  7
SLDTEXTSTYLE0
 73
     1
 44
1.0
  0
MTEXT
  5
90
330
1F
100
AcDbEntity
  8
0
  6
Continuous
 62
     7
370
     0
100
AcDbMText
 10
320.8917246175
 20
41.9721125785
 30
0.0
 40
3.0
 41
0.0
 71
     1
 72
     1
  1
Werkstoff:
  7
SLDTEXTSTYLE0
 73
     1
 44
1.0
  0
MTEXT
  5
91
330
1F
100
AcDbEntity
  8
0
  6
Continuous
 62
     7
370
     0
100
AcDbMText
 10
409.7299718068
 20
64.4922029259
 30
0.0
 40
3.0
 41
0.0
 71
     1
 72
     1
  1
Artikelnummer
  7
SLDTEXTSTYLE0
 73
     1
 44
1.0
  0
MTEXT
  5
92
330
1F
100
AcDbEntity
  8
0
  6
Continuous
 62
     7
370
     0
100
AcDbMText
 10
409.747932235
 20
39.7372756541
 30
0.0
 40
3.0
 41
0.0
 71
     1
 72
     1
  1
Hersteller
  7
SLDTEXTSTYLE0
 73
     1
 44
1.0
  0
MTEXT
  5
93
330
1F
100
AcDbEntity
  8
0
  6
Continuous
 62
     7
370
     0
100
AcDbMText
 10
409.747932235
 20
15.8001745491
 30
0.0
 40
3.0
 41
0.0
 71
     1
 72
     1
  1
Massstab: 1:2
  7
SLDTEXTSTYLE0
 73
     1
 44
1.0
  0
MTEXT
  5
95
330
1F
100
AcDbEntity
  8
0
  6
Continuous
 62
     7
370
     0
100
AcDbMText
 10
498.5565888556
 20
15.8001745491
 30
0.0
 40
3.0
 41
0.0
 71
     1
 72
     1
  1
Blatt 1 von 1
  7
SLDTEXTSTYLE1
 73
     1
 44
1.0
  0
MTEXT
  5
96
330
1F
100
AcDbEntity
  8
0
  6
Continuous
 62
     7
370
     0
100
AcDbMText
 10
566.0364025039
 20
28.428987176
 30
0.0
 40
5.8208333333
 41
0.0
 71
     1
 72
     1
  1
A4
  7
SLDTEXTSTYLE0
 73
     1
 44
1.0
  0
MTEXT
  5
97
330
1F
100
AcDbEntity
  8
0
  6
Continuous
 62
     7
370
     0
100
AcDbMText
 10
489.5714421635
 20
36.5754387473
 30
0.0
 40
10.5833333333
 41
0.0
 71
     2
 72
     1
  1
Feldmann GmbH
  7
SLDTEXTSTYLE0
 73
     1
 44
1.0
  0
MTEXT
  5
98
330
1F
100
AcDbEntity
  8
0
  6
Continuous
 62
     7
370
     0
100
AcDbMText
 10
392.5086979932
 20
64.4071316317
 30
0.0
 40
3.0
 41
0.0
 71
     2
 72
     1
  1
Datum
  7
SLDTEXTSTYLE0
 73
     1
 44
1.0
  0
MTEXT
  5
99
330
1F
100
AcDbEntity
  8
0
  6
Continuous
 62
     7
370
     0
100
AcDbMText
 10
360.0535019007
 20
51.7498609387
 30
0.0
 40
3.0
 41
0.0
 71
     1
 72
     1
  1
CH
  7
SLDTEXTSTYLE0
 73
     1
 44
1.0
  0
MTEXT
  5
9A
330
1F
100
AcDbEntity
  8
0
  6
Continuous
 62
     7
370
     0
100
AcDbMText
 10
382.7945986128
 20
51.7539341659
 30
0.0
 40
3.0
 41
0.0
 71
     1
 72
     1
  1
23.06.2014
  7
SLDTEXTSTYLE0
 73
     1
 44
1.0
  0
MTEXT
  5
9B
330
1F
100
AcDbEntity
  8
0
  6
Continuous
 62
     7
370
     0
100
AcDbMText
 10
363.1598432614
 20
15.8248727389
 30
0.0
 40
3.0
 41
0.0
 71
     2
 72
     1
  1
Gewicht 0.654 kg
  7
SLDTEXTSTYLE0
 73
     1
 44
1.0
  0
MTEXT
  5
9C
330
1F
100
AcDbEntity
  8
0
  6
Continuous
 62
     7
370
     0
100
AcDbMText
 10
363.0376521084
 20
31.1954403689
 30
0.0
 40
4.7625
 41
0.0
 71
     2
 72
     1
  1
1.0037 (S235JR)
  7
SLDTEXTSTYLE0
 73
     1
 44
1.0
  0
MTEXT
  5
9D
330
1F
100
AcDbEntity
  8
0
  6
Continuous
 62
     7
370
     0
100
AcDbMText
 10
461.2386999968
 20
58.7524392389
 30
0.0
 40
8.4666666667
 41
0.0
 71
     2
 72
     1
  1
50135-ST
  7
SLDTEXTSTYLE0
 73
     1
 44
1.0
  0
MTEXT
  5
9E
330
1F
100
AcDbEntity
  8
0
  6
Continuous
 62
     7
370
     0
100
AcDbMText
 10
363.5060035649
 20
64.1180780199
 30
0.0
 40
3.0
 41
0.0
 71
     2
 72
     1
  1
Signatur
  7
SLDTEXTSTYLE0
 73
     1
 44
1.0
  0
LINE
  5
9F
330
1F
100
AcDbEntity
  8
0
  6
Continuous
 62
     7
370
    15
100
AcDbLine
 10
99.1033769573
 20
250.8508232711
 30
0.0
 11
159.1033769573
 21
250.8508232711
 31
0.0
  0
LINE
  5
A0
330
1F
100
AcDbEntity
  8
0
  6
Continuous
 62
     7
370
    15
100
AcDbLine
 10
159.1033769573
 20
250.8508232711
 30
0.0
 11
159.1033769573
 21
244.8508232711
 31
0.0
  0
LINE
  5
A1
330
1F
100
AcDbEntity
  8
0
  6
Continuous
 62
     7
370
    15
100
AcDbLine
 10
159.1033769573
 20
244.8508232711
 30
0.0
 11
99.1033769573
 21
244.8508232711
 31
0.0
  0
LINE
  5
A2
330
1F
100
AcDbEntity
  8
0
  6
Continuous
 62
     7
370
    15
100
AcDbLine
 10
99.1033769573
 20
244.8508232711
 30
0.0
 11
99.1033769573
 21
250.8508232711
 31
0.0
  0
LINE
  5
A3
330
1F
100
AcDbEntity
  8
0
  6
Continuous
 62
     7
370
    15
100
AcDbLine
 10
159.1033769573
 20
339.8508232711
 30
0.0
 11
99.1033769573
 21
339.8508232711
 31
0.0
  0
LINE
  5
A4
330
1F
100
AcDbEntity
  8
0
  6
Continuous
 62
     7
370
    15
100
AcDbLine
 10
99.1033769573
 20
339.8508232711
 30
0.0
 11
99.1033769573
 21
345.8508232711
 31
0.0
  0
LINE
  5
A5
330
1F
100
AcDbEntity
  8
0
  6
Continuous
 62
     7
370
    15
100
AcDbLine
 10
99.1033769573
 20
345.8508232711
 30
0.0
 11
159.1033769573
 21
345.8508232711
 31
0.0
  0
LINE
  5
A6
330
1F
100
AcDbEntity
  8
0
  6
Continuous
 62
     7
370
    15
100
AcDbLine
 10
159.1033769573
 20
345.8508232711
 30
0.0
 11
159.1033769573
 21
339.8508232711
 31
0.0
  0
LINE
  5
A7
330
1F
100
AcDbEntity
  8
0
  6
Continuous
 62
     7
370
    15
100
AcDbLine
 10
159.1033769573
 20
250.8508232711
 30
0.0
 11
159.1033769573
 21
253.8508232711
 31
0.0
  0
LINE
  5
A8
330
1F
100
AcDbEntity
  8
0
  6
Continuous
 62
     7
370
    15
100
AcDbLine
 10
99.1033769573
 20
253.8508232711
 30
0.0
 11
99.1033769573
 21
250.8508232711
 31
0.0
  0
LINE
  5
A9
330
1F
100
AcDbEntity
  8
0
  6
Continuous
 62
     7
370
    15
100
AcDbLine
 10
99.1033769573
 20
253.8508232711
 30
0.0
 11
159.1033769573
 21
253.8508232711
 31
0.0
  0
LINE
  5
AA
330
1F
100
AcDbEntity
  8
0
  6
Continuous
 62
     7
370
    15
100
AcDbLine
 10
99.1033769573
 20
339.8508232711
 30
0.0
 11
99.1033769573
 21
336.8508232711
 31
0.0
  0
LINE
  5
AB
330
1F
100
AcDbEntity
  8
0
  6
Continuous
 62
     7
370
    15
100
AcDbLine
 10
159.1033769573
 20
336.8508232711
 30
0.0
 11
159.1033769573
 21
339.8508232711
 31
0.0
  0
LINE
  5
AC
330
1F
100
AcDbEntity
  8
0
  6
Continuous
 62
     7
370
    15
100
AcDbLine
 10
159.1033769573
 20
336.8508232711
 30
0.0
 11
99.1033769573
 21
336.8508232711
 31
0.0
  0
ARC
  5
AD
330
1F
100
AcDbEntity
  8
0
  6
Continuous
 62
     7
370
    15
100
AcDbCircle
 10
114.9090263568
 20
295.3508232711
 30
0.0
 40
60.62499999999997
100
AcDbArc
 50
316.8008664199
 51
43.1991335801
  0
ARC
  5
AE
330
1F
100
AcDbEntity
  8
0
  6
Continuous
 62
     7
370
    15
100
AcDbCircle
 10
143.2977275578
 20
295.3508232711
 30
0.0
 40
60.62500000000004
100
AcDbArc
 50
136.8008664199
 51
223.1991335801
  0
CIRCLE
  5
AF
330
1F
100
AcDbEntity
  8
0
  6
Continuous
 62
     7
370
    15
100
AcDbCircle
 10
166.5533769573
 20
298.8508232711
 30
0.0
 40
5.400000000000006
  0
CIRCLE
  5
B0
330
1F
100
AcDbEntity
  8
0
  6
Continuous
 62
     7
370
    15
100
AcDbCircle
 10
91.6533769573
 20
298.8508232711
 30
0.0
 40
5.399999999999991
  0
LINE
  5
B1
330
1F
100
AcDbEntity
  8
0
  6
Continuous
 62
     7
370
    15
100
AcDbLine
 10
287.7028043964
 20
339.4400658617
 30
0.0
 11
287.7028043964
 21
333.4400658617
 31
0.0
  0
LINE
  5
B2
330
1F
100
AcDbEntity
  8
0
  6
Continuous
 62
     7
370
    15
100
AcDbLine
 10
380.5641031954
 20
333.4400658617
 30
0.0
 11
380.5641031954
 21
339.4400658617
 31
0.0
  0
LINE
  5
B3
330
1F
100
AcDbEntity
  8
0
  6
Continuous
 62
     7
370
    15
100
AcDbLine
 10
304.1334537959
 20
330.4400658617
 30
0.0
 11
364.1334537959
 21
330.4400658617
 31
0.0
  0
LINE
  5
B4
330
1F
100
AcDbEntity
  8
0
  6
Continuous
 62
     7
370
    15
100
AcDbLine
 10
364.1334537959
 20
278.4400658617
 30
0.0
 11
364.1334537959
 21
330.4400658617
 31
0.0
  0
ARC
  5
B5
330
1F
100
AcDbEntity
  8
0
  6
Continuous
 62
     7
370
    15
100
AcDbCircle
 10
334.1334537959
 20
278.4400658617
 30
0.0
 40
30.00000000000006
100
AcDbArc
 50
180.0
 51
0.0
  0
LINE
  5
B6
330
1F
100
AcDbEntity
  8
0
  6
Continuous
 62
     7
370
    15
100
AcDbLine
 10
304.1334537959
 20
330.4400658617
 30
0.0
 11
304.1334537959
 21
278.4400658617
 31
0.0
  0
CIRCLE
  5
B7
330
1F
100
AcDbEntity
  8
0
  6
Continuous
 62
     7
370
    15
100
AcDbCircle
 10
334.1334537959
 20
277.9400658617
 30
0.0
 40
21.50000000000006
  0
LINE
  5
B8
330
1F
100
AcDbEntity
  8
0
  6
Continuous
 62
     7
370
    15
100
AcDbLine
 10
364.1334537959
 20
339.4400658617
 30
0.0
 11
304.1334537959
 21
339.4400658617
 31
0.0
  0
LINE
  5
B9
330
1F
100
AcDbEntity
  8
0
  6
Continuous
 62
     7
370
    15
100
AcDbLine
 10
364.1334537959
 20
339.4400658617
 30
0.0
 11
364.1334537959
 21
330.4400658617
 31
0.0
  0
LINE
  5
BA
330
1F
100
AcDbEntity
  8
0
  6
Continuous
 62
     7
370
    15
100
AcDbLine
 10
304.1334537959
 20
330.4400658617
 30
0.0
 11
304.1334537959
 21
339.4400658617
 31
0.0
  0
LINE
  5
BB
330
1F
100
AcDbEntity
  8
0
  6
Continuous
 62
     7
370
    15
100
AcDbLine
 10
304.1334537959
 20
333.4400658617
 30
0.0
 11
287.7028043964
 21
333.4400658617
 31
0.0
  0
LINE
  5
BC
330
1F
100
AcDbEntity
  8
0
  6
Continuous
 62
     7
370
    15
100
AcDbLine
 10
304.1334537959
 20
339.4400658617
 30
0.0
 11
287.7028043964
 21
339.4400658617
 31
0.0
  0
LINE
  5
BD
330
1F
100
AcDbEntity
  8
0
  6
Continuous
 62
     7
370
    15
100
AcDbLine
 10
380.5641031954
 20
333.4400658617
 30
0.0
 11
364.1334537959
 21
333.4400658617
 31
0.0
  0
LINE
  5
BE
330
1F
100
AcDbEntity
  8
0
  6
Continuous
 62
     7
370
    15
100
AcDbLine
 10
380.5641031954
 20
339.4400658617
 30
0.0
 11
364.1334537959
 21
339.4400658617
 31
0.0
  0
LINE
  5
BF
330
1F
100
AcDbEntity
  8
0
  6
Continuous
 62
     7
370
     0
100
AcDbLine
 10
334.1334537959
 20
299.4400658617
 30
0.0
 11
324.6791575467
 21
299.4400658617
 31
0.0
  0
LINE
  5
C0
330
1F
100
AcDbEntity
  8
0
  6
Continuous
 62
     7
370
    15
100
AcDbLine
 10
182.5976689441
 20
63.803622393
 30
0.0
 11
182.5976689441
 21
69.803622393
 31
0.0
  0
LINE
  5
C1
330
1F
100
AcDbEntity
  8
0
  6
Continuous
 62
     7
370
    15
100
AcDbLine
 10
182.5976689441
 20
158.803622393
 30
0.0
 11
182.5976689441
 21
164.803622393
 31
0.0
  0
LINE
  5
C2
330
1F
100
AcDbEntity
  8
0
  6
Continuous
 62
     7
370
    15
100
AcDbLine
 10
91.5976689441
 20
72.803622393
 30
0.0
 11
97.5976689441
 21
72.803622393
 31
0.0
  0
LINE
  5
C3
330
1F
100
AcDbEntity
  8
0
  6
Continuous
 62
     7
370
    15
100
AcDbLine
 10
91.5976689441
 20
155.803622393
 30
0.0
 11
97.5976689441
 21
155.803622393
 31
0.0
  0
LINE
  5
C4
330
1F
100
AcDbEntity
  8
0
  6
Continuous
 62
     7
370
    15
100
AcDbLine
 10
97.5976689441
 20
155.803622393
 30
0.0
 11
97.5976689441
 21
72.803622393
 31
0.0
  0
LINE
  5
C5
330
1F
100
AcDbEntity
  8
0
  6
Continuous
 62
     7
370
    15
100
AcDbLine
 10
91.5976689441
 20
155.803622393
 30
0.0
 11
91.5976689441
 21
72.803622393
 31
0.0
  0
LINE
  5
C6
330
1F
100
AcDbEntity
  8
0
  6
Continuous
 62
     7
370
    15
100
AcDbLine
 10
100.5976689441
 20
69.803622393
 30
0.0
 11
100.5976689441
 21
63.803622393
 31
0.0
  0
LINE
  5
C7
330
1F
100
AcDbEntity
  8
0
  6
Continuous
 62
     7
370
    15
100
AcDbLine
 10
152.5976689441
 20
69.803622393
 30
0.0
 11
100.5976689441
 21
69.803622393
 31
0.0
  0
LINE
  5
C8
330
1F
100
AcDbEntity
  8
0
  6
Continuous
 62
     7
370
    15
100
AcDbLine
 10
152.5976689441
 20
63.803622393
 30
0.0
 11
152.5976689441
 21
69.803622393
 31
0.0
  0
LINE
  5
C9
330
1F
100
AcDbEntity
  8
0
  6
Continuous
 62
     7
370
    15
100
AcDbLine
 10
152.5976689441
 20
63.803622393
 30
0.0
 11
100.5976689441
 21
63.803622393
 31
0.0
  0
LINE
  5
CA
330
1F
100
AcDbEntity
  8
0
  6
Continuous
 62
     7
370
    15
100
AcDbLine
 10
152.5976689441
 20
69.803622393
 30
0.0
 11
182.5976689441
 21
69.803622393
 31
0.0
  0
LINE
  5
CB
330
1F
100
AcDbEntity
  8
0
  6
Continuous
 62
     7
370
    15
100
AcDbLine
 10
182.5976689441
 20
63.803622393
 30
0.0
 11
152.5976689441
 21
63.803622393
 31
0.0
  0
ARC
  5
CC
330
1F
100
AcDbEntity
  8
0
  6
Continuous
 62
     7
370
    15
100
AcDbCircle
 10
100.5976689441
 20
72.803622393
 30
0.0
 40
3.0
100
AcDbArc
 50
180.0
 51
270.0
  0
ARC
  5
CD
330
1F
100
AcDbEntity
  8
0
  6
Continuous
 62
     7
370
    15
100
AcDbCircle
 10
100.5976689441
 20
72.803622393
 30
0.0
 40
9.000000000000007
100
AcDbArc
 50
180.0
 51
270.0
  0
LINE
  5
CE
330
1F
100
AcDbEntity
  8
0
  6
Continuous
 62
     7
370
    15
100
AcDbLine
 10
182.5976689441
 20
158.803622393
 30
0.0
 11
152.5976689441
 21
158.803622393
 31
0.0
  0
LINE
  5
CF
330
1F
100
AcDbEntity
  8
0
  6
Continuous
 62
     7
370
    15
100
AcDbLine
 10
152.5976689441
 20
158.803622393
 30
0.0
 11
152.5976689441
 21
164.803622393
 31
0.0
  0
LINE
  5
D0
330
1F
100
AcDbEntity
  8
0
  6
Continuous
 62
     7
370
    15
100
AcDbLine
 10
152.5976689441
 20
164.803622393
 30
0.0
 11
182.5976689441
 21
164.803622393
 31
0.0
  0
LINE
  5
D1
330
1F
100
AcDbEntity
  8
0
  6
Continuous
 62
     7
370
    15
100
AcDbLine
 10
100.5976689441
 20
158.803622393
 30
0.0
 11
100.5976689441
 21
164.803622393
 31
0.0
  0
LINE
  5
D2
330
1F
100
AcDbEntity
  8
0
  6
Continuous
 62
     7
370
    15
100
AcDbLine
 10
100.5976689441
 20
164.803622393
 30
0.0
 11
152.5976689441
 21
164.803622393
 31
0.0
  0
LINE
  5
D3
330
1F
100
AcDbEntity
  8
0
  6
Continuous
 62
     7
370
    15
100
AcDbLine
 10
100.5976689441
 20
158.803622393
 30
0.0
 11
152.5976689441
 21
158.803622393
 31
0.0
  0
ARC
  5
D4
330
1F
100
AcDbEntity
  8
0
  6
Continuous
 62
     7
370
    15
100
AcDbCircle
 10
100.5976689441
 20
155.803622393
 30
0.0
 40
9.0
100
AcDbArc
 50
90.0
 51
180.0
  0
ARC
  5
D5
330
1F
100
AcDbEntity
  8
0
  6
Continuous
 62
     7
370
    15
100
AcDbCircle
 10
100.5976689441
 20
155.803622393
 30
0.0
 40
3.0
100
AcDbArc
 50
90.0
 51
180.0
  0
LINE
  5
D6
330
1F
100
AcDbEntity
  8
0
  6
Continuous
 62
     7
370
    15
100
AcDbLine
 10
419.6355698888
 20
199.4364383336
 30
0.0
 11
419.6355698888
 21
194.2934345293
 31
0.0
  0
LINE
  5
D7
330
1F
100
AcDbEntity
  8
0
  6
Continuous
 62
     7
370
    15
100
AcDbLine
 10
419.6355698888
 20
118.0055447669
 30
0.0
 11
419.6355698888
 21
112.8625409626
 31
0.0
  0
LINE
  5
D8
330
1F
100
AcDbEntity
  8
0
  6
Continuous
 62
     7
370
    15
100
AcDbLine
 10
502.7966604885
 20
216.8823866913
 30
0.0
 11
449.7315731879
 21
231.3043403723
 31
0.0
  0
LINE
  5
D9
330
1F
100
AcDbEntity
  8
0
  6
Continuous
 62
     7
370
    15
100
AcDbLine
 10
505.0953137516
 20
141.2291708214
 30
0.0
 11
507.8954860852
 21
143.9622248623
 31
0.0
  0
LINE
  5
DA
330
1F
100
AcDbEntity
  8
0
  6
Continuous
 62
     7
370
    15
100
AcDbLine
 10
447.3711864628
 20
230.3338835279
 30
0.0
 11
500.4362737635
 21
215.9119298469
 31
0.0
  0
LINE
  5
DB
330
1F
100
AcDbEntity
  8
0
  6
Continuous
 62
     7
370
    15
100
AcDbLine
 10
476.1681135391
 20
192.225461493
 30
0.0
 11
500.4362737635
 21
215.9119298469
 31
0.0
  0
LWPOLYLINE
  5
DC
330
1F
100
AcDbEntity
  8
0
  6
Continuous
 62
     7
370
    15
100
AcDbPolyline
 90
       52
 70
   128
 43
0.0
 10
423.1030262385
 20
206.6474151741
 10
422.2914440206
 20
205.7924919052
 10
421.5835874382
 20
204.913457948
 10
420.9821416338
 20
204.0136477794
 10
420.4893880974
 20
203.0964746875
 10
420.1071960117
 20
202.1654178241
 10
419.8370151624
 20
201.2240090068
 10
419.679870438
 20
200.2758193216
 10
419.6363579422
 20
199.3244455768
 10
419.7066427328
 20
198.3734966589
 10
419.8904581956
 20
197.4265798428
 10
420.1871070554
 20
196.4872871084
 10
420.5954640217
 20
195.5591815148
 10
421.1139800565
 20
194.6457836844
 10
421.7406882509
 20
193.7505584479
 10
422.4732112861
 20
192.8769017015
 10
423.3087704513
 20
192.0281275242
 10
424.2441961844
 20
191.2074556075
 10
425.2759400951
 20
190.4179990408
 10
426.4000884254
 20
189.6627525034
 10
427.6123768957
 20
188.9445809042
 10
428.9082068805
 20
188.2662085139
 10
430.2826628529
 20
187.6302086313
 10
431.7305310305
 20
187.038993822
 10
433.2463191535
 20
186.4948067662
 10
434.8242773182
 20
185.9997117518
 10
436.4584197889
 20
185.5555868436
 10
438.1425477035
 20
185.1641167598
 10
439.8702725878
 20
184.8267864803
 10
441.6350405897
 20
184.5448756145
 10
443.4301573397
 20
184.3194535468
 10
445.2488133449
 20
184.1513753804
 10
447.0841098203
 20
184.0412786933
 10
448.9290848576
 20
183.9895811199
 10
450.7767398347
 20
183.9964787669
 10
452.6200659633
 20
184.0619454692
 10
454.452070876
 20
184.185732889
 10
456.2658051507
 20
184.3673714583
 10
458.054388672
 20
184.6061721599
 10
459.81103673
 20
184.9012291408
 10
461.5290857569
 20
185.2514231488
 10
463.2020186043
 20
185.6554257782
 10
464.8234892648
 20
186.1117045085
 10
466.3873469449
 20
186.6185285184
 10
467.8876593967
 20
187.1739752506
 10
469.3187354212
 20
187.7759377055
 10
470.6751464568
 20
188.4221324333
 10
471.9517471719
 20
189.110108196
 10
473.1436949828
 20
189.837255266
 10
474.2464684229
 20
190.6008153254
 10
475.2558842951
 20
191.3978919293
 10
476.1681135391
 20
192.225461493
  0
LINE
  5
DD
330
1F
100
AcDbEntity
  8
0
  6
Continuous
 62
     7
370
    15
100
AcDbLine
 10
447.3711864628
 20
230.3338835279
 30
0.0
 11
423.1030262385
 21
206.6474151741
 31
0.0
  0
LWPOLYLINE
  5
DE
330
1F
100
AcDbEntity
  8
0
  6
Continuous
 62
     7
370
    15
100
AcDbPolyline
 90
       87
 70
   128
 43
0.0
 10
439.3682713323
 20
189.4152401839
 10
440.7830442173
 20
189.064136255
 10
442.243804146
 20
188.7671578767
 10
443.7427573323
 20
188.5258895571
 10
445.2719062123
 20
188.3416185671
 10
446.8230921151
 20
188.2153280722
 10
448.3880387928
 20
188.1476918868
 10
449.9583965778
 20
188.1390708792
 10
451.5257869318
 20
188.1895110462
 10
453.0818471492
 20
188.2987432677
 10
454.6182749753
 20
188.4661847425
 10
456.126872903
 20
188.690942098
 10
457.5995919096
 20
188.9718161563
 10
459.0285744019
 20
189.3073083329
 10
460.4061961402
 20
189.6956286318
 10
461.7251069164
 20
190.1347051963
 10
462.9782697708
 20
190.6221953628
 10
464.1589985374
 20
191.1554981605
 10
465.2609935173
 20
191.7317681881
 10
466.2783750906
 20
192.3479307957
 10
467.2057150863
 20
193.0006984892
 10
468.0380657443
 20
193.6865884705
 10
468.7709861138
 20
194.4019412198
 10
469.4005657475
 20
195.1429400207
 10
469.9234455655
 20
195.905631324
 10
470.3368357779
 20
196.6859458415
 10
470.6385307689
 20
197.4797202577
 10
470.8269208654
 20
198.2827194427
 10
470.9010009245
 20
199.0906590483
 10
470.8603756972
 20
199.8992283671
 10
470.7052619366
 20
200.7041133321
 10
470.4364872417
 20
201.5010195337
 10
470.0554856418
 20
202.2856951324
 10
469.5642899454
 20
203.0539535446
 10
468.9655208939
 20
203.801695779
 10
468.2623731793
 20
204.5249323074
 10
467.4585983989
 20
205.21980435
 10
466.558485039
 20
205.8826044638
 10
465.5668355938
 20
206.5097963234
 10
464.4889409421
 20
207.0980335888
 10
463.3305521182
 20
207.6441777598
 10
462.0978496278
 20
208.1453149208
 10
460.797410472
 20
208.5987712883
 10
459.4361730563
 20
209.0021274764
 10
458.0214001714
 20
209.3532314053
 10
456.5606402427
 20
209.6502097837
 10
455.0616870564
 20
209.8914781032
 10
453.5325381764
 20
210.0757490932
 10
451.9813522736
 20
210.2020395881
 10
450.4164055958
 20
210.2696757735
 10
448.8460478108
 20
210.2782967812
 10
447.2786574568
 20
210.2278566142
 10
445.7225972395
 20
210.1186243926
 10
444.1861694134
 20
209.9511829178
 10
442.6775714857
 20
209.7264255623
 10
441.2048524791
 20
209.445551504
 10
439.7758699867
 20
209.1100593274
 10
438.3982482484
 20
208.7217390285
 10
437.0793374723
 20
208.282662464
 10
435.8261746179
 20
207.7951722975
 10
434.6454458513
 20
207.2618694998
 10
433.5434508713
 20
206.6855994722
 10
432.5260692981
 20
206.0694368646
 10
431.5987293024
 20
205.4166691711
 10
430.7663786443
 20
204.7307791898
 10
430.0334582748
 20
204.0154264405
 10
429.4038786412
 20
203.2744276396
 10
428.8809988232
 20
202.5117363363
 10
428.4676086108
 20
201.7314218188
 10
428.1659136197
 20
200.9376474026
 10
427.9775235233
 20
200.1346482176
 10
427.9034434641
 20
199.326708612
 10
427.9440686914
 20
198.5181392932
 10
428.0991824521
 20
197.7132543282
 10
428.367957147
 20
196.9163481266
 10
428.7489587468
 20
196.1316725279
 10
429.2401544433
 20
195.3634141158
 10
429.8389234948
 20
194.6156718813
 10
430.5420712094
 20
193.8924353529
 10
431.3458459897
 20
193.1975633103
 10
432.2459593496
 20
192.5347631965
 10
433.2376087949
 20
191.9075713369
 10
434.3155034466
 20
191.3193340715
 10
435.4738922704
 20
190.7731899005
 10
436.7065947609
 20
190.2720527395
 10
438.0070339167
 20
189.818596372
 10
439.3682713323
 20
189.4152401839
  0
LWPOLYLINE
  5
DF
330
1F
100
AcDbEntity
  8
0
  6
Continuous
 62
     7
370
    15
100
AcDbPolyline
 90
       45
 70
   128
 43
0.0
 10
476.1681135391
 20
187.0824576888
 10
475.2558842951
 20
186.254888125
 10
474.2464684229
 20
185.4578115212
 10
473.1436949828
 20
184.6942514618
 10
471.9517471719
 20
183.9671043918
 10
470.6751464568
 20
183.2791286291
 10
469.3187354212
 20
182.6329339012
 10
467.8876593967
 20
182.0309714464
 10
466.3873469449
 20
181.4755247141
 10
464.8234892648
 20
180.9687007043
 10
463.2020186043
 20
180.512421974
 10
461.5290857569
 20
180.1084193446
 10
459.81103673
 20
179.7582253366
 10
458.054388672
 20
179.4631683557
 10
456.2658051507
 20
179.2243676541
 10
454.452070876
 20
179.0427290848
 10
452.6200659633
 20
178.918941665
 10
450.7767398347
 20
178.8534749627
 10
448.9290848576
 20
178.8465773157
 10
447.0841098203
 20
178.8982748891
 10
445.2488133449
 20
179.0083715762
 10
443.4301573397
 20
179.1764497426
 10
441.6350405897
 20
179.4018718103
 10
439.8702725878
 20
179.6837826761
 10
438.1425477035
 20
180.0211129556
 10
436.4584197889
 20
180.4125830394
 10
434.8242773182
 20
180.8567079475
 10
433.2463191535
 20
181.351802962
 10
431.7305310305
 20
181.8959900178
 10
430.2826628529
 20
182.4872048271
 10
428.9082068805
 20
183.1232047096
 10
427.6123768957
 20
183.8015771
 10
426.4000884254
 20
184.5197486992
 10
425.2759400951
 20
185.2749952366
 10
424.2441961844
 20
186.0644518033
 10
423.3087704513
 20
186.88512372
 10
422.4732112861
 20
187.7338978972
 10
421.7406882509
 20
188.6075546437
 10
421.1139800565
 20
189.5027798801
 10
420.5954640217
 20
190.4161777106
 10
420.1871070554
 20
191.3442833042
 10
419.8904581956
 20
192.2835760386
 10
419.7066427328
 20
193.2304928546
 10
419.6363579422
 20
194.1814417726
 10
419.6355698888
 20
194.2934345293
  0
LINE
  5
E0
330
1F
100
AcDbEntity
  8
0
  6
Continuous
 62
     7
370
    15
100
AcDbLine
 10
476.1681135391
 20
192.225461493
 30
0.0
 11
476.1681135391
 21
187.0824576888
 31
0.0
  0
LWPOLYLINE
  5
E1
330
1F
100
AcDbEntity
  8
0
  6
Continuous
 62
     7
370
    15
100
AcDbPolyline
 90
       13
 70
   128
 43
0.0
 10
459.4361730563
 20
203.8591236722
 10
460.797410472
 20
203.4557674841
 10
462.0978496278
 20
203.0023111166
 10
463.3305521182
 20
202.5011739556
 10
464.4889409421
 20
201.9550297846
 10
465.5668355938
 20
201.3667925192
 10
466.558485039
 20
200.7396006596
 10
467.4585983989
 20
200.0768005458
 10
468.2623731793
 20
199.3819285032
 10
468.9655208939
 20
198.6586919748
 10
469.5642899454
 20
197.9109497403
 10
470.0554856418
 20
197.1426913282
 10
470.3144569922
 20
196.6371819281
  0
LWPOLYLINE
  5
E2
330
1F
100
AcDbEntity
  8
0
  6
Continuous
 62
     7
370
    15
100
AcDbPolyline
 90
       26
 70
   128
 43
0.0
 10
428.4899873964
 20
196.6371819281
 10
428.8809988232
 20
197.3687325321
 10
429.4038786412
 20
198.1314238354
 10
430.0334582748
 20
198.8724226363
 10
430.7663786443
 20
199.5877753856
 10
431.5987293024
 20
200.2736653669
 10
432.5260692981
 20
200.9264330604
 10
433.5434508713
 20
201.542595668
 10
434.6454458513
 20
202.1188656956
 10
435.8261746179
 20
202.6521684933
 10
437.0793374723
 20
203.1396586598
 10
438.3982482484
 20
203.5787352243
 10
439.7758699867
 20
203.9670555232
 10
441.2048524791
 20
204.3025476998
 10
442.6775714857
 20
204.5834217581
 10
444.1861694134
 20
204.8081791136
 10
445.7225972395
 20
204.9756205884
 10
447.2786574568
 20
205.0848528099
 10
448.8460478108
 20
205.1352929769
 10
450.4164055958
 20
205.1266719693
 10
451.9813522736
 20
205.0590357839
 10
453.5325381764
 20
204.932745289
 10
455.0616870564
 20
204.748474299
 10
456.5606402427
 20
204.5072059794
 10
458.0214001714
 20
204.2102276011
 10
459.4361730563
 20
203.8591236722
  0
LINE
  5
E3
330
1F
100
AcDbEntity
  8
0
  6
Continuous
 62
     7
370
    15
100
AcDbLine
 10
500.4362737635
 20
210.7689260427
 30
0.0
 11
500.4362737635
 21
215.9119298469
 31
0.0
  0
LINE
  5
E4
330
1F
100
AcDbEntity
  8
0
  6
Continuous
 62
     7
370
    15
100
AcDbLine
 10
476.1681135391
 20
187.0824576888
 30
0.0
 11
500.4362737635
 21
210.7689260427
 31
0.0
  0
LINE
  5
E5
330
1F
100
AcDbEntity
  8
0
  6
Continuous
 62
     7
370
    15
100
AcDbLine
 10
447.3711864628
 20
148.9029899612
 30
0.0
 11
500.4362737635
 21
134.4810362802
 31
0.0
  0
LINE
  5
E6
330
1F
100
AcDbEntity
  8
0
  6
Continuous
 62
     7
370
    15
100
AcDbLine
 10
500.4362737635
 20
134.4810362802
 30
0.0
 11
476.1681135391
 21
110.7945679263
 31
0.0
  0
LWPOLYLINE
  5
E7
330
1F
100
AcDbEntity
  8
0
  6
Continuous
 62
     7
370
    15
100
AcDbPolyline
 90
       52
 70
   128
 43
0.0
 10
423.1030262385
 20
125.2165216074
 10
422.2914440206
 20
124.3615983385
 10
421.5835874382
 20
123.4825643813
 10
420.9821416338
 20
122.5827542127
 10
420.4893880974
 20
121.6655811208
 10
420.1071960117
 20
120.7345242574
 10
419.8370151624
 20
119.7931154401
 10
419.679870438
 20
118.8449257549
 10
419.6363579422
 20
117.8935520101
 10
419.7066427328
 20
116.9426030922
 10
419.8904581956
 20
115.9956862761
 10
420.1871070554
 20
115.0563935417
 10
420.5954640217
 20
114.1282879481
 10
421.1139800565
 20
113.2148901177
 10
421.7406882509
 20
112.3196648812
 10
422.4732112861
 20
111.4460081347
 10
423.3087704513
 20
110.5972339575
 10
424.2441961844
 20
109.7765620408
 10
425.2759400951
 20
108.9871054741
 10
426.4000884254
 20
108.2318589367
 10
427.6123768957
 20
107.5136873375
 10
428.9082068805
 20
106.8353149472
 10
430.2826628529
 20
106.1993150646
 10
431.7305310305
 20
105.6081002553
 10
433.2463191535
 20
105.0639131995
 10
434.8242773182
 20
104.568818185
 10
436.4584197889
 20
104.1246932769
 10
438.1425477035
 20
103.7332231931
 10
439.8702725878
 20
103.3958929136
 10
441.6350405897
 20
103.1139820478
 10
443.4301573397
 20
102.8885599801
 10
445.2488133449
 20
102.7204818137
 10
447.0841098203
 20
102.6103851266
 10
448.9290848576
 20
102.5586875532
 10
450.7767398347
 20
102.5655852002
 10
452.6200659633
 20
102.6310519025
 10
454.452070876
 20
102.7548393223
 10
456.2658051507
 20
102.9364778916
 10
458.054388672
 20
103.1752785932
 10
459.81103673
 20
103.4703355741
 10
461.5290857569
 20
103.8205295821
 10
463.2020186043
 20
104.2245322115
 10
464.8234892648
 20
104.6808109418
 10
466.3873469449
 20
105.1876349517
 10
467.8876593967
 20
105.7430816839
 10
469.3187354212
 20
106.3450441388
 10
470.6751464568
 20
106.9912388666
 10
471.9517471719
 20
107.6792146293
 10
473.1436949828
 20
108.4063616993
 10
474.2464684229
 20
109.1699217587
 10
475.2558842951
 20
109.9669983626
 10
476.1681135391
 20
110.7945679263
  0
LINE
  5
E8
330
1F
100
AcDbEntity
  8
0
  6
Continuous
 62
     7
370
    15
100
AcDbLine
 10
423.1030262385
 20
125.2165216074
 30
0.0
 11
447.3711864628
 21
148.9029899612
 31
0.0
  0
LWPOLYLINE
  5
E9
330
1F
100
AcDbEntity
  8
0
  6
Continuous
 62
     7
370
    15
100
AcDbPolyline
 90
       87
 70
   128
 43
0.0
 10
439.3682713323
 20
107.9843466172
 10
440.7830442173
 20
107.6332426883
 10
442.243804146
 20
107.33626431
 10
443.7427573323
 20
107.0949959904
 10
445.2719062123
 20
106.9107250004
 10
446.8230921151
 20
106.7844345055
 10
448.3880387928
 20
106.7167983201
 10
449.9583965778
 20
106.7081773125
 10
451.5257869318
 20
106.7586174795
 10
453.0818471492
 20
106.867849701
 10
454.6182749753
 20
107.0352911758
 10
456.126872903
 20
107.2600485313
 10
457.5995919096
 20
107.5409225896
 10
459.0285744019
 20
107.8764147662
 10
460.4061961402
 20
108.2647350651
 10
461.7251069164
 20
108.7038116296
 10
462.9782697708
 20
109.1913017961
 10
464.1589985374
 20
109.7246045938
 10
465.2609935173
 20
110.3008746214
 10
466.2783750906
 20
110.917037229
 10
467.2057150863
 20
111.5698049225
 10
468.0380657443
 20
112.2556949038
 10
468.7709861138
 20
112.9710476531
 10
469.4005657475
 20
113.712046454
 10
469.9234455655
 20
114.4747377573
 10
470.3368357779
 20
115.2550522748
 10
470.6385307689
 20
116.048826691
 10
470.8269208654
 20
116.851825876
 10
470.9010009245
 20
117.6597654816
 10
470.8603756972
 20
118.4683348004
 10
470.7052619366
 20
119.2732197654
 10
470.4364872417
 20
120.070125967
 10
470.0554856418
 20
120.8548015657
 10
469.5642899454
 20
121.6230599779
 10
468.9655208939
 20
122.3708022123
 10
468.2623731793
 20
123.0940387407
 10
467.4585983989
 20
123.7889107833
 10
466.558485039
 20
124.4517108971
 10
465.5668355938
 20
125.0789027567
 10
464.4889409421
 20
125.6671400221
 10
463.3305521182
 20
126.2132841931
 10
462.0978496278
 20
126.7144213541
 10
460.797410472
 20
127.1678777216
 10
459.4361730563
 20
127.5712339097
 10
458.0214001714
 20
127.9223378386
 10
456.5606402427
 20
128.2193162169
 10
455.0616870564
 20
128.4605845365
 10
453.5325381764
 20
128.6448555265
 10
451.9813522736
 20
128.7711460214
 10
450.4164055958
 20
128.8387822068
 10
448.8460478108
 20
128.8474032145
 10
447.2786574568
 20
128.7969630475
 10
445.7225972395
 20
128.6877308259
 10
444.1861694134
 20
128.5202893511
 10
442.6775714857
 20
128.2955319956
 10
441.2048524791
 20
128.0146579373
 10
439.7758699867
 20
127.6791657607
 10
438.3982482484
 20
127.2908454618
 10
437.0793374723
 20
126.8517688973
 10
435.8261746179
 20
126.3642787308
 10
434.6454458513
 20
125.8309759331
 10
433.5434508713
 20
125.2547059055
 10
432.5260692981
 20
124.6385432979
 10
431.5987293024
 20
123.9857756044
 10
430.7663786443
 20
123.2998856231
 10
430.0334582748
 20
122.5845328738
 10
429.4038786412
 20
121.8435340729
 10
428.8809988232
 20
121.0808427696
 10
428.4676086108
 20
120.3005282521
 10
428.1659136197
 20
119.5067538359
 10
427.9775235233
 20
118.7037546509
 10
427.9034434641
 20
117.8958150453
 10
427.9440686914
 20
117.0872457265
 10
428.0991824521
 20
116.2823607615
 10
428.367957147
 20
115.4854545599
 10
428.7489587468
 20
114.7007789612
 10
429.2401544433
 20
113.9325205491
 10
429.8389234948
 20
113.1847783146
 10
430.5420712094
 20
112.4615417862
 10
431.3458459897
 20
111.7666697436
 10
432.2459593496
 20
111.1038696298
 10
433.2376087949
 20
110.4766777702
 10
434.3155034466
 20
109.8884405048
 10
435.4738922704
 20
109.3422963338
 10
436.7065947609
 20
108.8411591728
 10
438.0070339167
 20
108.3877028053
 10
439.3682713323
 20
107.9843466172
  0
LINE
  5
EA
330
1F
100
AcDbEntity
  8
0
  6
Continuous
 62
     7
370
    15
100
AcDbLine
 10
476.1681135391
 20
110.7945679263
 30
0.0
 11
476.1681135391
 21
105.6515641221
 31
0.0
  0
LWPOLYLINE
  5
EB
330
1F
100
AcDbEntity
  8
0
  6
Continuous
 62
     7
370
    15
100
AcDbPolyline
 90
       45
 70
   128
 43
0.0
 10
476.1681135391
 20
105.6515641221
 10
475.2558842951
 20
104.8239945583
 10
474.2464684229
 20
104.0269179545
 10
473.1436949828
 20
103.2633578951
 10
471.9517471719
 20
102.5362108251
 10
470.6751464568
 20
101.8482350623
 10
469.3187354212
 20
101.2020403345
 10
467.8876593967
 20
100.6000778796
 10
466.3873469449
 20
100.0446311474
 10
464.8234892648
 20
99.5378071376
 10
463.2020186043
 20
99.0815284073
 10
461.5290857569
 20
98.6775257779
 10
459.81103673
 20
98.3273317699
 10
458.054388672
 20
98.032274789
 10
456.2658051507
 20
97.7934740874
 10
454.452070876
 20
97.6118355181
 10
452.6200659633
 20
97.4880480983
 10
450.7767398347
 20
97.422581396
 10
448.9290848576
 20
97.415683749
 10
447.0841098203
 20
97.4673813224
 10
445.2488133449
 20
97.5774780095
 10
443.4301573397
 20
97.7455561759
 10
441.6350405897
 20
97.9709782436
 10
439.8702725878
 20
98.2528891094
 10
438.1425477035
 20
98.5902193889
 10
436.4584197889
 20
98.9816894727
 10
434.8242773182
 20
99.4258143808
 10
433.2463191535
 20
99.9209093953
 10
431.7305310305
 20
100.4650964511
 10
430.2826628529
 20
101.0563112604
 10
428.9082068805
 20
101.6923111429
 10
427.6123768957
 20
102.3706835333
 10
426.4000884254
 20
103.0888551325
 10
425.2759400951
 20
103.8441016699
 10
424.2441961844
 20
104.6335582365
 10
423.3087704513
 20
105.4542301533
 10
422.4732112861
 20
106.3030043305
 10
421.7406882509
 20
107.176661077
 10
421.1139800565
 20
108.0718863134
 10
420.5954640217
 20
108.9852841439
 10
420.1871070554
 20
109.9133897375
 10
419.8904581956
 20
110.8526824719
 10
419.7066427328
 20
111.7995992879
 10
419.6363579422
 20
112.7505482059
 10
419.6355698888
 20
112.8625409626
  0
LWPOLYLINE
  5
EC
330
1F
100
AcDbEntity
  8
0
  6
Continuous
 62
     7
370
    15
100
AcDbPolyline
 90
       38
 70
   128
 43
0.0
 10
470.3144569922
 20
115.2062883613
 10
470.0554856418
 20
115.7117977615
 10
469.5642899454
 20
116.4800561736
 10
468.9655208939
 20
117.2277984081
 10
468.2623731793
 20
117.9510349365
 10
467.4585983989
 20
118.6459069791
 10
466.558485039
 20
119.3087070929
 10
465.5668355938
 20
119.9358989525
 10
464.4889409421
 20
120.5241362179
 10
463.3305521182
 20
121.0702803889
 10
462.0978496278
 20
121.5714175499
 10
460.797410472
 20
122.0248739174
 10
459.4361730563
 20
122.4282301055
 10
458.0214001714
 20
122.7793340344
 10
456.5606402427
 20
123.0763124127
 10
455.0616870564
 20
123.3175807323
 10
453.5325381764
 20
123.5018517223
 10
451.9813522736
 20
123.6281422172
 10
450.4164055958
 20
123.6957784026
 10
448.8460478108
 20
123.7043994102
 10
447.2786574568
 20
123.6539592432
 10
445.7225972395
 20
123.5447270217
 10
444.1861694134
 20
123.3772855469
 10
442.6775714857
 20
123.1525281914
 10
441.2048524791
 20
122.8716541331
 10
439.7758699867
 20
122.5361619565
 10
438.3982482484
 20
122.1478416576
 10
437.0793374723
 20
121.7087650931
 10
435.8261746179
 20
121.2212749266
 10
434.6454458513
 20
120.6879721289
 10
433.5434508713
 20
120.1117021013
 10
432.5260692981
 20
119.4955394937
 10
431.5987293024
 20
118.8427718002
 10
430.7663786443
 20
118.1568818189
 10
430.0334582748
 20
117.4415290696
 10
429.4038786412
 20
116.7005302687
 10
428.8809988232
 20
115.9378389654
 10
428.4899873964
 20
115.2062883613
  0
LWPOLYLINE
  5
ED
330
1F
100
AcDbEntity
  8
0
  6
Continuous
 62
     7
370
    15
100
AcDbPolyline
 90
       15
 70
   128
 43
0.0
 10
504.6365322638
 20
212.2970052018
 10
504.61012192
 20
213.1349784863
 10
504.5312230139
 20
213.9108591602
 10
504.400827745
 20
214.6148900736
 10
504.2205759095
 20
215.2382176295
 10
503.9927342788
 20
215.773003122
 10
503.7201680936
 20
216.2125213134
 10
503.4063050318
 20
216.5512450074
 10
503.0550921036
 20
216.784914557
 10
502.6709460153
 20
216.910591432
 10
502.2586976269
 20
216.9266951729
 10
501.8235312009
 20
216.8330232656
 10
501.3709192078
 20
216.6307536889
 10
500.906553506
 20
216.3224301
 10
500.4362737635
 20
215.9119298469
  0
LINE
  5
EE
330
1F
100
AcDbEntity
  8
0
  6
Continuous
 62
     7
370
    15
100
AcDbLine
 10
504.6365322638
 20
212.2970052018
 30
0.0
 11
501.8363599303
 21
209.563951161
 31
0.0
  0
LWPOLYLINE
  5
EF
330
1F
100
AcDbEntity
  8
0
  6
Continuous
 62
     7
370
    15
100
AcDbPolyline
 90
        9
 70
   128
 43
0.0
 10
501.8363599303
 20
209.563951161
 10
501.8094576672
 20
210.0393688616
 10
501.7297847167
 20
210.4440016596
 10
501.6004028658
 20
210.7622997434
 10
501.4262841863
 20
210.9820310962
 10
501.2141199614
 20
211.0947515653
 10
500.9720635434
 20
211.0961293663
 10
500.7094170246
 20
210.9861115511
 10
500.4362737635
 20
210.7689260427
  0
ARC
  5
F0
330
1F
100
AcDbEntity
  8
0
  6
Continuous
 62
     7
370
    15
100
AcDbCircle
 10
449.3938460524
 20
228.7700294897
 30
0.0
 40
2.556714936814425
100
AcDbArc
 50
82.40937685
 51
142.2899808588
  0
LINE
  5
F1
330
1F
100
AcDbEntity
  8
0
  6
Continuous
 62
     7
370
    15
100
AcDbLine
 10
501.8363599303
 20
209.563951161
 30
0.0
 11
499.7755465925
 21
210.1240360683
 31
0.0
  0
LWPOLYLINE
  5
F2
330
1F
100
AcDbEntity
  8
0
  6
Continuous
 62
     7
370
    15
100
AcDbPolyline
 90
       36
 70
   128
 43
0.0
 10
501.8363599303
 20
138.4190652027
 10
503.3809212331
 20
139.6638914228
 10
504.8500745407
 20
140.9921424854
 10
506.2410932079
 20
142.4013532498
 10
507.5513956016
 20
143.8889083197
 10
508.7785498928
 20
145.4520468976
 10
509.9202785692
 20
147.087867908
 10
510.9744626628
 20
148.7933353821
 10
511.9391456817
 20
150.565284092
 10
512.8125372423
 20
152.4004254255
 10
513.593016391
 20
154.2953534892
 10
514.2791346134
 20
156.2465514297
 10
514.8696185224
 20
158.2503979608
 10
515.3633722212
 20
160.303174084
 10
515.7594793377
 20
162.4010699912
 10
516.0572047249
 20
164.5401921348
 10
516.2559958254
 20
166.7165704546
 10
516.3554836969
 20
168.9261657453
 10
516.3554836969
 20
171.1648771532
 10
516.2559958254
 20
173.4285497872
 10
516.0572047249
 20
175.7129824301
 10
515.7594793377
 20
178.0139353353
 10
515.3633722212
 20
180.3271380959
 10
514.8696185224
 20
182.6482975701
 10
514.2791346134
 20
184.973105849
 10
513.593016391
 20
187.2972482517
 10
512.8125372423
 20
189.6164113334
 10
511.9391456817
 20
191.9262908902
 10
510.9744626628
 20
194.2225999479
 10
509.9202785692
 20
196.5010767184
 10
508.7785498928
 20
198.7574925087
 10
507.5513956016
 20
200.9876595698
 10
506.2410932079
 20
203.1874388682
 10
504.8500745407
 20
205.3527477682
 10
503.3809212331
 20
207.4795676085
 10
501.8363599303
 20
209.563951161
  0
LINE
  5
F3
330
1F
100
AcDbEntity
  8
0
  6
Continuous
 62
     7
370
    15
100
AcDbLine
 10
448.7712726296
 20
152.8410188837
 30
0.0
 11
501.8363599303
 21
138.4190652027
 31
0.0
  0
ARC
  5
F4
330
1F
100
AcDbEntity
  8
0
  6
Continuous
 62
     7
370
    15
100
AcDbCircle
 10
480.7274663702
 20
192.4691847762
 30
0.0
 40
46.49108963008391
100
AcDbArc
 50
167.6264899853
 51
181.3759493984
  0
ARC
  5
F5
330
1F
100
AcDbEntity
  8
0
  6
Continuous
 62
     7
370
    15
100
AcDbCircle
 10
504.6540928024
 20
196.4899631198
 30
0.0
 40
70.90923722184019
100
AcDbArc
 50
192.9034934263
 51
217.9926777038
  0
LWPOLYLINE
  5
F6
330
1F
100
AcDbEntity
  8
0
  6
Continuous
 62
     7
370
    15
100
AcDbPolyline
 90
       44
 70
   128
 43
0.0
 10
513.2011327938
 20
173.9028919876
 10
513.1502382345
 20
174.5906686619
 10
512.9986392858
 20
175.2914506718
 10
512.749567016
 20
175.9903020655
 10
512.4083299681
 20
176.6723280388
 10
511.9822010174
 20
177.3229923921
 10
511.4802623627
 20
177.9284273445
 10
510.9132119549
 20
178.4757291011
 10
510.2931354891
 20
178.9532328751
 10
509.6332488184
 20
179.3507615026
 10
508.9476162816
 20
179.6598423511
 10
508.250850946
 20
179.8738878989
 10
507.5578031549
 20
179.9883361367
 10
506.8832440187
 20
180.0007477991
 10
506.2415505944
 20
179.910858353
 10
505.6463994632
 20
179.720583636
 10
505.1104752381
 20
179.4339790232
 10
504.6452002137
 20
179.0571529944
 10
504.2604909191
 20
178.5981369422
 10
503.9645467653
 20
178.0667139968
 10
503.7636752879
 20
177.4742105156
 10
503.6621577137
 20
176.8332546817
 10
503.6621577137
 20
176.157507356
 10
503.7636752879
 20
175.4613709193
 10
503.9645467653
 20
174.7596823113
 10
504.2604909191
 20
174.0673968065
 10
504.6452002137
 20
173.3992692684
 10
505.1104752381
 20
172.7695396756
 10
505.6463994632
 20
172.191629621
 10
506.2415505944
 20
171.6778562541
 10
506.8832440187
 20
171.2391697622
 10
507.5578031549
 20
170.8849199863
 10
508.250850946
 20
170.6226571454
 10
508.9476162816
 20
170.4579709164
 10
509.6332488184
 20
170.3943713006
 10
510.2931354891
 20
170.4332138132
 10
510.9132119549
 20
170.5736705936
 10
511.4802623627
 20
170.8127480494
 10
511.9822010174
 20
171.1453506596
 10
512.4083299681
 20
171.5643895771
 10
512.749567016
 20
172.0609337148
 10
512.9986392858
 20
172.6244000965
 10
513.1502382345
 20
173.2427794147
 10
513.2011327938
 20
173.9028919876
  0
LWPOLYLINE
  5
F7
330
1F
100
AcDbEntity
  8
0
  6
Continuous
 62
     7
370
    15
100
AcDbPolyline
 90
       32
 70
   128
 43
0.0
 10
446.9582154802
 20
191.9062974994
 10
446.9073209209
 20
192.5940741737
 10
446.7557219721
 20
193.2948561836
 10
446.5066497023
 20
193.9937075773
 10
446.1654126545
 20
194.6757335506
 10
445.7392837038
 20
195.326397904
 10
445.2373450491
 20
195.9318328564
 10
444.6702946413
 20
196.479134613
 10
444.0502181754
 20
196.956638387
 10
443.3903315047
 20
197.3541670145
 10
442.704698968
 20
197.6632478629
 10
442.0079336324
 20
197.8772934107
 10
441.3148858412
 20
197.9917416485
 10
440.6403267051
 20
198.0041533109
 10
439.9986332808
 20
197.9142638649
 10
439.4034821496
 20
197.7239891478
 10
438.8675579245
 20
197.437384535
 10
438.4022829
 20
197.0605585062
 10
438.0175736055
 20
196.601542454
 10
437.7216294516
 20
196.0701195086
 10
437.5207579742
 20
195.4776160274
 10
437.4192404001
 20
194.8366601936
 10
437.4192404001
 20
194.1609128678
 10
437.5207579742
 20
193.4647764311
 10
437.7216294516
 20
192.7630878232
 10
438.0175736055
 20
192.0708023183
 10
438.4022829
 20
191.4026747803
 10
438.8675579245
 20
190.7729451874
 10
439.4034821496
 20
190.1950351328
 10
439.9986332808
 20
189.6812617659
 10
440.6403267051
 20
189.2425752741
 10
441.0855567
 20
188.997372712
  0
ARC
  5
F8
330
1F
100
AcDbEntity
  8
0
  6
Continuous
 62
     7
370
    15
100
AcDbCircle
 10
443.632650286
 20
191.7415977826
 30
0.0
 40
3.329641100392724
100
AcDbArc
 50
280.0271945117
 51
2.8352758747
  0
LWPOLYLINE
  5
F9
330
1F
100
AcDbEntity
  8
0
  6
Continuous
 62
     7
370
    15
100
AcDbPolyline
 90
       34
 70
   128
 43
0.0
 10
507.8954860852
 20
143.9622248623
 10
509.0412655414
 20
145.1344072906
 10
510.3515679352
 20
146.6219623606
 10
511.5787222264
 20
148.1851009384
 10
512.7204509028
 20
149.8209219488
 10
513.7746349963
 20
151.5263894229
 10
514.7393180153
 20
153.2983381328
 10
515.6127095759
 20
155.1334794663
 10
516.3931887246
 20
157.02840753
 10
517.079306947
 20
158.9796054705
 10
517.669790856
 20
160.9834520016
 10
518.1635445548
 20
163.0362281248
 10
518.5596516713
 20
165.134124032
 10
518.8573770585
 20
167.2732461757
 10
519.056168159
 20
169.4496244955
 10
519.1556560305
 20
171.6592197861
 10
519.1556560305
 20
173.897931194
 10
519.056168159
 20
176.1616038281
 10
518.8573770585
 20
178.4460364709
 10
518.5596516713
 20
180.7469893761
 10
518.1635445548
 20
183.0601921367
 10
517.669790856
 20
185.3813516109
 10
517.079306947
 20
187.7061598898
 10
516.3931887246
 20
190.0303022926
 10
515.6127095759
 20
192.3494653742
 10
514.7393180153
 20
194.659344931
 10
513.7746349963
 20
196.9556539887
 10
512.7204509028
 20
199.2341307592
 10
511.5787222264
 20
201.4905465495
 10
510.3515679352
 20
203.7207136106
 10
509.0412655414
 20
205.920492909
 10
507.6502468743
 20
208.085801809
 10
506.1810935667
 20
210.2126216493
 10
504.6365322638
 20
212.2970052018
  0
LINE
  5
FA
330
1F
100
AcDbEntity
  8
0
  6
Continuous
 62
     7
370
    15
100
AcDbLine
 10
500.4362737635
 20
134.4810362802
 30
0.0
 11
500.4362737635
 21
129.3380324759
 31
0.0
  0
LINE
  5
FB
330
1F
100
AcDbEntity
  8
0
  6
Continuous
 62
     7
370
    15
100
AcDbLine
 10
500.4362737635
 20
129.3380324759
 30
0.0
 11
476.1681135391
 21
105.6515641221
 31
0.0
  0
ARC
  5
FC
330
1F
100
AcDbEntity
  8
0
  6
Continuous
 62
     7
370
    15
100
AcDbCircle
 10
512.7067554656
 20
179.3797240698
 30
0.0
 40
6.221854567691721
100
AcDbArc
 50
174.6308150775
 51
273.9792521606
  0
ARC
  5
FD
330
1F
100
AcDbEntity
  8
0
  6
Continuous
 62
     7
370
    15
100
AcDbCircle
 10
495.7014935852
 20
138.3822917222
 30
0.0
 40
6.134976557507678
100
AcDbArc
 50
320.5129436103
 51
0.3434369839
  0
ARC
  5
FE
330
1F
100
AcDbEntity
  8
0
  6
Continuous
 62
     7
370
    15
100
AcDbCircle
 10
442.6364062845
 20
152.8042454033
 30
0.0
 40
6.134976557506442
100
AcDbArc
 50
320.5129436103
 51
0.3434369839
  0
ARC
  5
FF
330
1F
100
AcDbEntity
  8
0
  6
Continuous
 62
     7
370
    15
100
AcDbCircle
 10
486.3500162988
 20
140.9934072717
 30
0.0
 40
18.28306350121175
100
AcDbArc
 50
320.3946656291
 51
359.3472474632
  0
ARC
  5
100
330
1F
100
AcDbEntity
  8
0
  6
Continuous
 62
     7
370
    15
100
AcDbCircle
 10
446.4638381519
 20
197.3831295817
 30
0.0
 40
6.221854567692011
100
AcDbArc
 50
174.6308150775
 51
273.9792521606
  0
ENDSEC
  0
SECTION
  2
OBJECTS
  0
DICTIONARY
  5
C
330
0
100
AcDbDictionary
281
     1
  3
ACAD_GROUP
350
D
  3
ACAD_LAYOUT
350
1A
  3
ACAD_MLINESTYLE
350
17
  3
ACAD_PLOTSETTINGS
350
19
  3
ACAD_PLOTSTYLENAME
350
E
  3
ACAD_SCALELIST
350
47
  0
DICTIONARY
  5
D
102
{ACAD_REACTORS
330
C
102
}
330
C
100
AcDbDictionary
281
     1
  0
DICTIONARY
  5
1A
102
{ACAD_REACTORS
330
C
102
}
330
C
100
AcDbDictionary
281
     1
  3
Layout1
350
1E
  3
Layout2
350
26
  3
Model
350
22
  0
DICTIONARY
  5
17
102
{ACAD_REACTORS
330
C
102
}
330
C
100
AcDbDictionary
281
     1
  3
Standard
350
18
  0
DICTIONARY
  5
19
102
{ACAD_REACTORS
330
C
102
}
330
C
100
AcDbDictionary
281
     1
  0
ACDBDICTIONARYWDFLT
  5
E
102
{ACAD_REACTORS
330
C
102
}
330
C
100
AcDbDictionary
281
     1
  3
Normal
350
F
100
AcDbDictionaryWithDefault
340
F
  0
DICTIONARY
  5
47
102
{ACAD_REACTORS
330
C
102
}
330
C
100
AcDbDictionary
281
     1
  3
A0
350
48
  3
A1
350
49
  3
A2
350
4A
  3
A3
350
4B
  3
A4
350
4C
  3
A5
350
4D
  3
A6
350
4E
  3
A7
350
4F
  3
A8
350
50
  3
A9
350
51
  3
B0
350
52
  3
B1
350
53
  3
B2
350
54
  3
B3
350
55
  3
B4
350
56
  3
B5
350
57
  3
B6
350
58
  3
B7
350
59
  3
B8
350
5A
  3
B9
350
5B
  3
C0
350
5C
  3
C1
350
5D
  3
C2
350
5E
  3
C3
350
5F
  3
C4
350
60
  3
C5
350
61
  3
C6
350
62
  3
C7
350
63
  3
C8
350
64
  3
C9
350
65
  3
D0
350
66
  3
D1
350
67
  3
D2
350
68
  0
LAYOUT
  5
1E
102
{ACAD_REACTORS
330
1A
102
}
330
1A
100
AcDbPlotSettings
  1

  2
none_device
  4

  6

 40
0.0
 41
0.0
 42
0.0
 43
0.0
 44
0.0
 45
0.0
 46
0.0
 47
0.0
 48
0.0
 49
0.0
140
0.0
141
0.0
142
1.0
143
1.0
 70
   688
 72
     1
 73
     0
 74
     5
  7

 75
    16
147
1.0
148
0.0
149
0.0
100
AcDbLayout
  1
Layout1
 70
     1
 71
     1
 10
0.0
 20
0.0
 11
420.0
 21
297.0
 12
0.0
 22
0.0
 32
0.0
 14
1.0000000000E+20
 24
1.0000000000E+20
 34
1.0000000000E+20
 15
-1.0000000000E+20
 25
-1.0000000000E+20
 35
-1.0000000000E+20
146
0.0
 13
0.0
 23
0.0
 33
0.0
 16
1.0
 26
0.0
 36
0.0
 17
0.0
 27
1.0
 37
0.0
 76
     0
330
1B
  0
LAYOUT
  5
26
102
{ACAD_REACTORS
330
1A
102
}
330
1A
100
AcDbPlotSettings
  1

  2
none_device
  4

  6

 40
0.0
 41
0.0
 42
0.0
 43
0.0
 44
0.0
 45
0.0
 46
0.0
 47
0.0
 48
0.0
 49
0.0
140
0.0
141
0.0
142
1.0
143
1.0
 70
   688
 72
     1
 73
     0
 74
     5
  7

 75
    16
147
1.0
148
0.0
149
0.0
100
AcDbLayout
  1
Layout2
 70
     1
 71
     2
 10
0.0
 20
0.0
 11
0.0
 21
0.0
 12
0.0
 22
0.0
 32
0.0
 14
0.0
 24
0.0
 34
0.0
 15
0.0
 25
0.0
 35
0.0
146
0.0
 13
0.0
 23
0.0
 33
0.0
 16
1.0
 26
0.0
 36
0.0
 17
0.0
 27
1.0
 37
0.0
 76
     0
330
23
  0
LAYOUT
  5
22
102
{ACAD_REACTORS
330
1A
102
}
330
1A
100
AcDbPlotSettings
  1

  2
none_device
  4
Letter_(8.50_x_11.00_Inches)
  6

 40
6.35
 41
6.35
 42
6.35000508
 43
6.35000508
 44
215.9
 45
279.4
 46
0.0
 47
0.0
 48
0.0
 49
0.0
140
0.0
141
0.0
142
1.0
143
1.0
 70
  1712
 72
     1
 73
     0
 74
     0
  7

 75
     0
147
1.0
148
0.0
149
0.0
100
AcDbLayout
  1
Model
 70
     1
 71
     0
 10
0.0
 20
0.0
 11
594.0
 21
420.0
 12
0.0
 22
0.0
 32
0.0
 14
0.0
 24
0.0
 34
0.0
 15
594.0
 25
420.0
 35
0.0
146
0.0
 13
0.0
 23
0.0
 33
0.0
 16
1.0
 26
0.0
 36
0.0
 17
0.0
 27
1.0
 37
0.0
 76
     0
330
1F
331
29
  0
MLINESTYLE
  5
18
102
{ACAD_REACTORS
330
17
102
}
330
17
100
AcDbMlineStyle
  2
Standard
 70
     0
  3

 62
   256
 51
90.0
 52
90.0
 71
     2
 49
0.5
 62
   256
  6
BYLAYER
 49
-0.5
 62
   256
  6
BYLAYER
  0
ACDBPLACEHOLDER
  5
F
102
{ACAD_REACTORS
330
E
102
}
330
E
  0
SCALE
  5
48
102
{ACAD_REACTORS
330
47
102
}
330
47
100
AcDbScale
 70
     0
300
1:1
140
1.0
141
1.0
290
     1
  0
SCALE
  5
49
102
{ACAD_REACTORS
330
47
102
}
330
47
100
AcDbScale
 70
     0
300
1:2
140
1.0
141
2.0
290
     0
  0
SCALE
  5
4A
102
{ACAD_REACTORS
330
47
102
}
330
47
100
AcDbScale
 70
     0
300
1:4
140
1.0
141
4.0
290
     0
  0
SCALE
  5
4B
102
{ACAD_REACTORS
330
47
102
}
330
47
100
AcDbScale
 70
     0
300
1:5
140
1.0
141
5.0
290
     0
  0
SCALE
  5
4C
102
{ACAD_REACTORS
330
47
102
}
330
47
100
AcDbScale
 70
     0
300
1:8
140
1.0
141
8.0
290
     0
  0
SCALE
  5
4D
102
{ACAD_REACTORS
330
47
102
}
330
47
100
AcDbScale
 70
     0
300
1:10
140
1.0
141
10.0
290
     0
  0
SCALE
  5
4E
102
{ACAD_REACTORS
330
47
102
}
330
47
100
AcDbScale
 70
     0
300
1:16
140
1.0
141
16.0
290
     0
  0
SCALE
  5
4F
102
{ACAD_REACTORS
330
47
102
}
330
47
100
AcDbScale
 70
     0
300
1:20
140
1.0
141
20.0
290
     0
  0
SCALE
  5
50
102
{ACAD_REACTORS
330
47
102
}
330
47
100
AcDbScale
 70
     0
300
1:30
140
1.0
141
30.0
290
     0
  0
SCALE
  5
51
102
{ACAD_REACTORS
330
47
102
}
330
47
100
AcDbScale
 70
     0
300
1:40
140
1.0
141
40.0
290
     0
  0
SCALE
  5
52
102
{ACAD_REACTORS
330
47
102
}
330
47
100
AcDbScale
 70
     0
300
1:50
140
1.0
141
50.0
290
     0
  0
SCALE
  5
53
102
{ACAD_REACTORS
330
47
102
}
330
47
100
AcDbScale
 70
     0
300
1:100
140
1.0
141
100.0
290
     0
  0
SCALE
  5
54
102
{ACAD_REACTORS
330
47
102
}
330
47
100
AcDbScale
 70
     0
300
2:1
140
2.0
141
1.0
290
     0
  0
SCALE
  5
55
102
{ACAD_REACTORS
330
47
102
}
330
47
100
AcDbScale
 70
     0
300
4:1
140
4.0
141
1.0
290
     0
  0
SCALE
  5
56
102
{ACAD_REACTORS
330
47
102
}
330
47
100
AcDbScale
 70
     0
300
8:1
140
8.0
141
1.0
290
     0
  0
SCALE
  5
57
102
{ACAD_REACTORS
330
47
102
}
330
47
100
AcDbScale
 70
     0
300
10:1
140
10.0
141
1.0
290
     0
  0
SCALE
  5
58
102
{ACAD_REACTORS
330
47
102
}
330
47
100
AcDbScale
 70
     0
300
100:1
140
100.0
141
1.0
290
     0
  0
SCALE
  5
59
102
{ACAD_REACTORS
330
47
102
}
330
47
100
AcDbScale
 70
     0
300
1/128" = 1'-0"
140
0.0078125
141
12.0
290
     0
  0
SCALE
  5
5A
102
{ACAD_REACTORS
330
47
102
}
330
47
100
AcDbScale
 70
     0
300
1/64" = 1'-0"
140
0.015625
141
12.0
290
     0
  0
SCALE
  5
5B
102
{ACAD_REACTORS
330
47
102
}
330
47
100
AcDbScale
 70
     0
300
1/32" = 1'-0"
140
0.03125
141
12.0
290
     0
  0
SCALE
  5
5C
102
{ACAD_REACTORS
330
47
102
}
330
47
100
AcDbScale
 70
     0
300
1/16" = 1'-0"
140
0.0625
141
12.0
290
     0
  0
SCALE
  5
5D
102
{ACAD_REACTORS
330
47
102
}
330
47
100
AcDbScale
 70
     0
300
3/32" = 1'-0"
140
0.09375
141
12.0
290
     0
  0
SCALE
  5
5E
102
{ACAD_REACTORS
330
47
102
}
330
47
100
AcDbScale
 70
     0
300
1/8" = 1'-0"
140
0.125
141
12.0
290
     0
  0
SCALE
  5
5F
102
{ACAD_REACTORS
330
47
102
}
330
47
100
AcDbScale
 70
     0
300
3/16" = 1'-0"
140
0.1875
141
12.0
290
     0
  0
SCALE
  5
60
102
{ACAD_REACTORS
330
47
102
}
330
47
100
AcDbScale
 70
     0
300
1/4" = 1'-0"
140
0.25
141
12.0
290
     0
  0
SCALE
  5
61
102
{ACAD_REACTORS
330
47
102
}
330
47
100
AcDbScale
 70
     0
300
3/8" = 1'-0"
140
0.375
141
12.0
290
     0
  0
SCALE
  5
62
102
{ACAD_REACTORS
330
47
102
}
330
47
100
AcDbScale
 70
     0
300
1/2" = 1'-0"
140
0.5
141
12.0
290
     0
  0
SCALE
  5
63
102
{ACAD_REACTORS
330
47
102
}
330
47
100
AcDbScale
 70
     0
300
3/4" = 1'-0"
140
0.75
141
12.0
290
     0
  0
SCALE
  5
64
102
{ACAD_REACTORS
330
47
102
}
330
47
100
AcDbScale
 70
     0
300
1" = 1'-0"
140
1.0
141
12.0
290
     0
  0
SCALE
  5
65
102
{ACAD_REACTORS
330
47
102
}
330
47
100
AcDbScale
 70
     0
300
1-1/2" = 1'-0"
140
1.5
141
12.0
290
     0
  0
SCALE
  5
66
102
{ACAD_REACTORS
330
47
102
}
330
47
100
AcDbScale
 70
     0
300
3" = 1'-0"
140
3.0
141
12.0
290
     0
  0
SCALE
  5
67
102
{ACAD_REACTORS
330
47
102
}
330
47
100
AcDbScale
 70
     0
300
6" = 1'-0"
140
6.0
141
12.0
290
     0
  0
SCALE
  5
68
102
{ACAD_REACTORS
330
47
102
}
330
47
100
AcDbScale
 70
     0
300
1'-0" = 1'-0"
140
12.0
141
12.0
290
     0
  0
ENDSEC
  0
EOF
