  0
SECTION
  2
HEADER
  9
$ACADVER
  1
AC1015
  9
$ACADMAINTVER
 70
     6
  9
$DWGCODEPAGE
  3
ANSI_1252
  9
$INSBASE
 10
0.0
 20
0.0
 30
0.0
  9
$EXTMIN
 10
0.0
 20
0.0
 30
0.0
  9
$EXTMAX
 10
2970.0
 20
2100.0
 30
0.0
  9
$LIMMIN
 10
0.0
 20
0.0
  9
$LIMMAX
 10
2970.0
 20
2100.0
  9
$ORTHOMODE
 70
     0
  9
$REGENMODE
 70
     1
  9
$FILLMODE
 70
     1
  9
$QTEXTMODE
 70
     0
  9
$MIRRTEXT
 70
     1
  9
$LTSCALE
 40
10.0
  9
$ATTMODE
 70
     1
  9
$TEXTSIZE
 40
35.0
  9
$TRACEWID
 40
1.0
  9
$TEXTSTYLE
  7
Standard
  9
$CLAYER
  8
0
  9
$CELTYPE
  6
ByLayer
  9
$CECOLOR
 62
   256
  9
$CELTSCALE
 40
1.0
  9
$DISPSILH
 70
     0
  9
$DIMSCALE
 40
1.0
  9
$DIMASZ
 40
33.02
  9
$DIMEXO
 40
10.0
  9
$DIMDLI
 40
3.75
  9
$DIMRND
 40
0.0
  9
$DIMDLE
 40
0.0
  9
$DIMEXE
 40
10.0
  9
$DIMTP
 40
0.0
  9
$DIMTM
 40
0.0
  9
$DIMTXT
 40
35.0
  9
$DIMCEN
 40
2.5
  9
$DIMTSZ
 40
0.0
  9
$DIMTOL
 70
     0
  9
$DIMLIM
 70
     0
  9
$DIMTIH
 70
     1
  9
$DIMTOH
 70
     1
  9
$DIMSE1
 70
     0
  9
$DIMSE2
 70
     0
  9
$DIMTAD
 70
     1
  9
$DIMZIN
 70
     0
  9
$DIMBLK
  1

  9
$DIMASO
 70
     1
  9
$DIMSHO
 70
     1
  9
$DIMPOST
  1

  9
$DIMAPOST
  1

  9
$DIMALT
 70
     0
  9
$DIMALTD
 70
     3
  9
$DIMALTF
 40
0.0393700787
  9
$DIMLFAC
 40
1.0
  9
$DIMTOFL
 70
     1
  9
$DIMTVP
 40
0.0
  9
$DIMTIX
 70
     0
  9
$DIMSOXD
 70
     0
  9
$DIMSAH
 70
     0
  9
$DIMBLK1
  1

  9
$DIMBLK2
  1

  9
$DIMSTYLE
  2
ISO-25
  9
$DIMCLRD
 70
     0
  9
$DIMCLRE
 70
     0
  9
$DIMCLRT
 70
     0
  9
$DIMTFAC
 40
1.0
  9
$DIMGAP
 40
15.24
  9
$DIMJUST
 70
     0
  9
$DIMSD1
 70
     0
  9
$DIMSD2
 70
     0
  9
$DIMTOLJ
 70
     0
  9
$DIMTZIN
 70
     0
  9
$DIMALTZ
 70
     0
  9
$DIMALTTZ
 70
     0
  9
$DIMUPT
 70
     0
  9
$DIMDEC
 70
     2
  9
$DIMTDEC
 70
     2
  9
$DIMALTU
 70
     2
  9
$DIMALTTD
 70
     3
  9
$DIMTXSTY
  7
Standard
  9
$DIMAUNIT
 70
     0
  9
$DIMADEC
 70
     2
  9
$DIMALTRND
 40
0.0
  9
$DIMAZIN
 70
     0
  9
$DIMDSEP
 70
    44
  9
$DIMATFIT
 70
     3
  9
$DIMFRAC
 70
     0
  9
$DIMLDRBLK
  1

  9
$DIMLUNIT
 70
     2
  9
$DIMLWD
 70
    -2
  9
$DIMLWE
 70
    -2
  9
$DIMTMOVE
 70
     0
  9
$LUNITS
 70
     2
  9
$LUPREC
 70
     2
  9
$SKETCHINC
 40
1.0
  9
$FILLETRAD
 40
10.0
  9
$AUNITS
 70
     0
  9
$AUPREC
 70
     2
  9
$MENU
  1
.
  9
$ELEVATION
 40
0.0
  9
$PELEVATION
 40
0.0
  9
$THICKNESS
 40
0.0
  9
$LIMCHECK
 70
     0
  9
$CHAMFERA
 40
0.0
  9
$CHAMFERB
 40
0.0
  9
$CHAMFERC
 40
0.0
  9
$CHAMFERD
 40
0.0
  9
$SKPOLY
 70
     0
  9
$TDCREATE
 40
2456874.647026088
  9
$TDUCREATE
 40
2456874.563692755
  9
$TDUPDATE
 40
2456874.647027176
  9
$TDUUPDATE
 40
2456874.563693842
  9
$TDINDWG
 40
0.0000000116
  9
$TDUSRTIMER
 40
0.0000000116
  9
$USRTIMER
 70
     1
  9
$ANGBASE
 50
0.0
  9
$ANGDIR
 70
     0
  9
$PDMODE
 70
     0
  9
$PDSIZE
 40
-1.0
  9
$PLINEWID
 40
0.0
  9
$SPLFRAME
 70
     0
  9
$SPLINETYPE
 70
     6
  9
$SPLINESEGS
 70
     8
  9
$HANDSEED
  5
231
  9
$SURFTAB1
 70
     6
  9
$SURFTAB2
 70
     6
  9
$SURFTYPE
 70
     6
  9
$SURFU
 70
     6
  9
$SURFV
 70
     6
  9
$UCSBASE
  2

  9
$UCSNAME
  2

  9
$UCSORG
 10
0.0
 20
0.0
 30
0.0
  9
$UCSXDIR
 10
1.0
 20
0.0
 30
0.0
  9
$UCSYDIR
 10
0.0
 20
1.0
 30
0.0
  9
$UCSORTHOREF
  2

  9
$UCSORTHOVIEW
 70
     0
  9
$UCSORGTOP
 10
0.0
 20
0.0
 30
0.0
  9
$UCSORGBOTTOM
 10
0.0
 20
0.0
 30
0.0
  9
$UCSORGLEFT
 10
0.0
 20
0.0
 30
0.0
  9
$UCSORGRIGHT
 10
0.0
 20
0.0
 30
0.0
  9
$UCSORGFRONT
 10
0.0
 20
0.0
 30
0.0
  9
$UCSORGBACK
 10
0.0
 20
0.0
 30
0.0
  9
$PUCSBASE
  2

  9
$PUCSNAME
  2

  9
$PUCSORG
 10
0.0
 20
0.0
 30
0.0
  9
$PUCSXDIR
 10
1.0
 20
0.0
 30
0.0
  9
$PUCSYDIR
 10
0.0
 20
1.0
 30
0.0
  9
$PUCSORTHOREF
  2

  9
$PUCSORTHOVIEW
 70
     0
  9
$PUCSORGTOP
 10
0.0
 20
0.0
 30
0.0
  9
$PUCSORGBOTTOM
 10
0.0
 20
0.0
 30
0.0
  9
$PUCSORGLEFT
 10
0.0
 20
0.0
 30
0.0
  9
$PUCSORGRIGHT
 10
0.0
 20
0.0
 30
0.0
  9
$PUCSORGFRONT
 10
0.0
 20
0.0
 30
0.0
  9
$PUCSORGBACK
 10
0.0
 20
0.0
 30
0.0
  9
$USERI1
 70
     0
  9
$USERI2
 70
     0
  9
$USERI3
 70
     0
  9
$USERI4
 70
     0
  9
$USERI5
 70
     0
  9
$USERR1
 40
0.0
  9
$USERR2
 40
0.0
  9
$USERR3
 40
0.0
  9
$USERR4
 40
0.0
  9
$USERR5
 40
0.0
  9
$WORLDVIEW
 70
     1
  9
$SHADEDGE
 70
     3
  9
$SHADEDIF
 70
    70
  9
$TILEMODE
 70
     1
  9
$MAXACTVP
 70
    64
  9
$PINSBASE
 10
0.0
 20
0.0
 30
0.0
  9
$PLIMCHECK
 70
     0
  9
$PEXTMIN
 10
1.0000000000E+20
 20
1.0000000000E+20
 30
1.0000000000E+20
  9
$PEXTMAX
 10
-1.0000000000E+20
 20
-1.0000000000E+20
 30
-1.0000000000E+20
  9
$PLIMMIN
 10
0.0
 20
0.0
  9
$PLIMMAX
 10
420.0
 20
297.0
  9
$UNITMODE
 70
     0
  9
$VISRETAIN
 70
     1
  9
$PLINEGEN
 70
     0
  9
$PSLTSCALE
 70
     1
  9
$TREEDEPTH
 70
  3020
  9
$CMLSTYLE
  2
Standard
  9
$CMLJUST
 70
     0
  9
$CMLSCALE
 40
20.0
  9
$PROXYGRAPHICS
 70
     1
  9
$MEASUREMENT
 70
     1
  9
$CELWEIGHT
370
    -1
  9
$ENDCAPS
280
     0
  9
$JOINSTYLE
280
     0
  9
$LWDISPLAY
290
     1
  9
$INSUNITS
 70
     4
  9
$HYPERLINKBASE
  1

  9
$STYLESHEET
  1

  9
$XEDIT
290
     1
  9
$CEPSNTYPE
380
     0
  9
$PSTYLEMODE
290
     1
  9
$FINGERPRINTGUID
  2
{9F73468A-DFEE-420B-8035-BCFBD0ADEAAD}
  9
$VERSIONGUID
  2
{FAEB1C32-E019-11D5-929B-00C0DF256EC4}
  9
$EXTNAMES
290
     1
  9
$PSVPSCALE
 40
0.0
  9
$OLESTARTUP
290
     0
  0
ENDSEC
  0
SECTION
  2
CLASSES
  0
CLASS
  1
ACDBDICTIONARYWDFLT
  2
AcDbDictionaryWithDefault
  3
ObjectDBX Classes
 90
        0
280
     0
281
     0
  0
CLASS
  1
VISUALSTYLE
  2
AcDbVisualStyle
  3
ObjectDBX Classes
 90
     4095
280
     0
281
     0
  0
CLASS
  1
MATERIAL
  2
AcDbMaterial
  3
ObjectDBX Classes
 90
     1153
280
     0
281
     0
  0
CLASS
  1
SCALE
  2
AcDbScale
  3
ObjectDBX Classes
 90
     1153
280
     0
281
     0
  0
CLASS
  1
SUN
  2
AcDbSun
  3
SCENEOE
 90
     1153
280
     0
281
     0
  0
CLASS
  1
ACDBPLACEHOLDER
  2
AcDbPlaceHolder
  3
ObjectDBX Classes
 90
        0
280
     0
281
     0
  0
CLASS
  1
LAYOUT
  2
AcDbLayout
  3
ObjectDBX Classes
 90
        0
280
     0
281
     0
  0
ENDSEC
  0
SECTION
  2
TABLES
  0
TABLE
  2
VPORT
  5
8
330
0
100
AcDbSymbolTable
 70
     1
  0
VPORT
  5
29
330
8
100
AcDbSymbolTableRecord
100
AcDbViewportTableRecord
  2
*Active
 70
     0
 10
0.0
 20
0.0
 11
1.0
 21
1.0
 12
1485.0
 22
1050.0
 13
0.0
 23
0.0
 14
10.0
 24
10.0
 15
10.0
 25
10.0
 16
0.0
 26
0.0
 36
1.0
 17
0.0
 27
0.0
 37
0.0
 40
2100.0
 41
1.4142857143
 42
50.0
 43
0.0
 44
0.0
 50
0.0
 51
0.0
 71
     0
 72
  2000
 73
     1
 74
     3
 75
     0
 76
     0
 77
     0
 78
     0
281
     0
 65
     1
110
0.0
120
0.0
130
0.0
111
1.0
121
0.0
131
0.0
112
0.0
122
1.0
132
0.0
 79
     0
146
0.0
  0
ENDTAB
  0
TABLE
  2
LTYPE
  5
5
330
0
100
AcDbSymbolTable
 70
     6
  0
LTYPE
  5
14
330
5
100
AcDbSymbolTableRecord
100
AcDbLinetypeTableRecord
  2
ByBlock
 70
     0
  3

 72
    65
 73
     0
 40
0.0
  0
LTYPE
  5
15
330
5
100
AcDbSymbolTableRecord
100
AcDbLinetypeTableRecord
  2
ByLayer
 70
     0
  3

 72
    65
 73
     0
 40
0.0
  0
LTYPE
  5
16
330
5
100
AcDbSymbolTableRecord
100
AcDbLinetypeTableRecord
  2
Continuous
 70
     0
  3
Solid line
 72
    65
 73
     0
 40
0.0
  0
LTYPE
  5
6A
330
5
100
AcDbSymbolTableRecord
100
AcDbLinetypeTableRecord
  2
HIDDEN
 70
     0
  3
Hidden __ __ __ __ __ __ __ __ __ __ __ __ __ __
 72
    65
 73
     2
 40
1.905
 49
1.27
 74
     0
 49
-0.635
 74
     0
  0
LTYPE
  5
6B
330
5
100
AcDbSymbolTableRecord
100
AcDbLinetypeTableRecord
  2
PHANTOM
 70
     0
  3
Phantom ______  __  __  ______  __  __  ______
 72
    65
 73
     6
 40
12.7
 49
6.35
 74
     0
 49
-1.27
 74
     0
 49
1.27
 74
     0
 49
-1.27
 74
     0
 49
1.27
 74
     0
 49
-1.27
 74
     0
  0
LTYPE
  5
6C
330
5
100
AcDbSymbolTableRecord
100
AcDbLinetypeTableRecord
  2
CENTER
 70
     0
  3
Center ____ _ ____ _ ____ _ ____ _ ____ _ ____
 72
    65
 73
     4
 40
10.16
 49
6.35
 74
     0
 49
-1.27
 74
     0
 49
1.27
 74
     0
 49
-1.27
 74
     0
  0
LTYPE
  5
6D
330
5
100
AcDbSymbolTableRecord
100
AcDbLinetypeTableRecord
  2
CENTERX2
 70
     0
  3
Center (2x) ________  __  ________  __  _____
 72
    65
 73
     4
 40
20.32
 49
12.7
 74
     0
 49
-2.54
 74
     0
 49
2.54
 74
     0
 49
-2.54
 74
     0
  0
LTYPE
  5
6E
330
5
100
AcDbSymbolTableRecord
100
AcDbLinetypeTableRecord
  2
DOT2
 70
     0
  3
Dot (.5x) ........................................
 72
    65
 73
     2
 40
0.635
 49
0.0
 74
     0
 49
-0.635
 74
     0
  0
ENDTAB
  0
TABLE
  2
LAYER
  5
2
330
0
100
AcDbSymbolTable
 70
     2
  0
LAYER
  5
10
330
2
100
AcDbSymbolTableRecord
100
AcDbLayerTableRecord
  2
0
 70
     0
 62
     7
  6
Continuous
370
    -3
390
F
  0
LAYER
  5
6F
330
2
100
AcDbSymbolTableRecord
100
AcDbLayerTableRecord
  2
FORMAT
 70
     0
 62
     7
  6
Continuous
370
    -3
390
F
  0
ENDTAB
  0
TABLE
  2
STYLE
  5
3
330
0
100
AcDbSymbolTable
 70
     3
  0
STYLE
  5
11
330
3
100
AcDbSymbolTableRecord
100
AcDbTextStyleTableRecord
  2
Standard
 70
     0
 40
0.0
 41
1.0
 50
0.0
 71
     0
 42
35.0
  3
txt
  4

  0
STYLE
  5
8C
330
3
100
AcDbSymbolTableRecord
100
AcDbTextStyleTableRecord
  2
SLDTEXTSTYLE0
 70
     0
 40
0.0
 41
0.75
 50
0.0
 71
     0
 42
35.0
  3
TXT
  4

  0
STYLE
  5
94
330
3
100
AcDbSymbolTableRecord
100
AcDbTextStyleTableRecord
  2
SLDTEXTSTYLE1
 70
     0
 40
0.0
 41
0.6923076923
 50
0.0
 71
     0
 42
35.0
  3
TXT
  4

  0
ENDTAB
  0
TABLE
  2
VIEW
  5
6
330
0
100
AcDbSymbolTable
 70
     0
  0
ENDTAB
  0
TABLE
  2
UCS
  5
7
330
0
100
AcDbSymbolTable
 70
     0
  0
ENDTAB
  0
TABLE
  2
APPID
  5
9
330
0
100
AcDbSymbolTable
 70
     1
  0
APPID
  5
12
330
9
100
AcDbSymbolTableRecord
100
AcDbRegAppTableRecord
  2
ACAD
 70
     0
  0
ENDTAB
  0
TABLE
  2
DIMSTYLE
  5
A
330
0
100
AcDbSymbolTable
 70
     1
100
AcDbDimStyleTable
  0
DIMSTYLE
105
27
330
A
100
AcDbSymbolTableRecord
100
AcDbDimStyleTableRecord
  2
ISO-25
 70
     0
 41
2.5
 42
0.625
 43
3.75
 44
1.25
 73
     0
 74
     0
 77
     1
 78
     8
140
2.5
141
2.5
143
0.0393700787
147
0.625
171
     3
172
     1
178
     0
271
     2
272
     2
274
     3
278
    44
283
     0
284
     8
340
11
  0
ENDTAB
  0
TABLE
  2
BLOCK_RECORD
  5
1
330
0
100
AcDbSymbolTable
 70
     1
  0
BLOCK_RECORD
  5
1F
330
1
100
AcDbSymbolTableRecord
100
AcDbBlockTableRecord
  2
*Model_Space
340
22
  0
BLOCK_RECORD
  5
1B
330
1
100
AcDbSymbolTableRecord
100
AcDbBlockTableRecord
  2
*Paper_Space
340
1E
  0
BLOCK_RECORD
  5
23
330
1
100
AcDbSymbolTableRecord
100
AcDbBlockTableRecord
  2
*Paper_Space0
340
26
  0
ENDTAB
  0
ENDSEC
  0
SECTION
  2
BLOCKS
  0
BLOCK
  5
20
330
1F
100
AcDbEntity
  8
0
100
AcDbBlockBegin
  2
*Model_Space
 70
     0
 10
0.0
 20
0.0
 30
0.0
  3
*Model_Space
  1
*Model_Space
  0
ENDBLK
  5
21
330
1F
100
AcDbEntity
  8
0
100
AcDbBlockEnd
  0
BLOCK
  5
1C
330
1B
100
AcDbEntity
 67
     1
  8
0
100
AcDbBlockBegin
  2
*Paper_Space
 70
     0
 10
0.0
 20
0.0
 30
0.0
  3
*Paper_Space
  1
*Paper_Space
  0
ENDBLK
  5
1D
330
1B
100
AcDbEntity
 67
     1
  8
0
100
AcDbBlockEnd
  0
BLOCK
  5
24
330
23
100
AcDbEntity
  8
0
100
AcDbBlockBegin
  2
*Paper_Space0
 70
     0
 10
0.0
 20
0.0
 30
0.0
  3
*Paper_Space0
  1
*Paper_Space0
  0
ENDBLK
  5
25
330
23
100
AcDbEntity
  8
0
100
AcDbBlockEnd
  0
ENDSEC
  0
SECTION
  2
ENTITIES
  0
LINE
  5
70
330
1F
100
AcDbEntity
  8
0
  6
Continuous
 62
     7
370
     0
100
AcDbLine
 10
2920.0
 20
2050.0
 30
0.0
 11
2920.0
 21
50.0
 31
0.0
  0
LINE
  5
71
330
1F
100
AcDbEntity
  8
0
  6
Continuous
 62
     7
370
     0
100
AcDbLine
 10
1594.0
 20
347.5
 30
0.0
 11
1741.3
 21
347.5
 31
0.0
  0
LINE
  5
72
330
1F
100
AcDbEntity
  8
0
  6
Continuous
 62
     7
370
     0
100
AcDbLine
 10
2036.0
 20
347.5
 30
0.0
 11
2920.0
 21
347.5
 31
0.0
  0
LINE
  5
73
330
1F
100
AcDbEntity
  8
0
  6
Continuous
 62
     7
370
     0
100
AcDbLine
 10
1594.0
 20
92.5
 30
0.0
 11
2920.0
 21
92.5
 31
0.0
  0
LINE
  5
74
330
1F
100
AcDbEntity
  8
0
  6
Continuous
 62
     7
370
     0
100
AcDbLine
 10
1594.0
 20
347.5
 30
0.0
 11
1594.0
 21
283.75
 31
0.0
  0
LINE
  5
75
330
1F
100
AcDbEntity
  8
0
  6
Continuous
 62
     7
370
     0
100
AcDbLine
 10
2920.0
 20
220.0
 30
0.0
 11
2790.0
 21
220.0
 31
0.0
  0
LINE
  5
76
330
1F
100
AcDbEntity
  8
0
  6
Continuous
 62
     7
370
     0
100
AcDbLine
 10
1888.6
 20
220.0
 30
0.0
 11
2036.0
 21
220.0
 31
0.0
  0
LINE
  5
77
330
1F
100
AcDbEntity
  8
0
  6
Continuous
 62
     7
370
     0
100
AcDbLine
 10
2036.0
 20
347.5
 30
0.0
 11
2036.0
 21
50.0
 31
0.0
  0
LINE
  5
78
330
1F
100
AcDbEntity
  8
0
  6
Continuous
 62
     7
370
     0
100
AcDbLine
 10
2478.0
 20
50.0
 30
0.0
 11
2478.0
 21
92.5
 31
0.0
  0
LINE
  5
79
330
1F
100
AcDbEntity
  8
0
  6
Continuous
 62
     7
370
     0
100
AcDbLine
 10
1741.3
 20
347.5
 30
0.0
 11
1888.6
 21
347.5
 31
0.0
  0
LINE
  5
7A
330
1F
100
AcDbEntity
  8
0
  6
Continuous
 62
     7
370
     0
100
AcDbLine
 10
2790.0
 20
92.5
 30
0.0
 11
2790.0
 21
154.9496936018
 31
0.0
  0
LINE
  5
7B
330
1F
100
AcDbEntity
  8
0
  6
Continuous
 62
     7
370
     0
100
AcDbLine
 10
1888.6
 20
347.5
 30
0.0
 11
2036.0
 21
347.5
 31
0.0
  0
LINE
  5
7C
330
1F
100
AcDbEntity
  8
0
  6
Continuous
 62
     7
370
     0
100
AcDbLine
 10
2920.0
 20
154.9496936018
 30
0.0
 11
2790.0
 21
154.9496936018
 31
0.0
  0
LINE
  5
7D
330
1F
100
AcDbEntity
  8
0
  6
Continuous
 62
     7
370
     0
100
AcDbLine
 10
2036.0
 20
220.0
 30
0.0
 11
2790.0
 21
220.0
 31
0.0
  0
LINE
  5
7E
330
1F
100
AcDbEntity
  8
0
  6
Continuous
 62
     7
370
     0
100
AcDbLine
 10
1888.6
 20
347.5
 30
0.0
 11
1888.6
 21
220.0
 31
0.0
  0
LINE
  5
7F
330
1F
100
AcDbEntity
  8
0
  6
Continuous
 62
     7
370
     0
100
AcDbLine
 10
1888.6
 20
220.0
 30
0.0
 11
1741.3
 21
220.0
 31
0.0
  0
LINE
  5
80
330
1F
100
AcDbEntity
  8
0
  6
Continuous
 62
     7
370
     0
100
AcDbLine
 10
2920.0
 20
2050.0
 30
0.0
 11
50.0
 21
2050.0
 31
0.0
  0
LINE
  5
81
330
1F
100
AcDbEntity
  8
0
  6
Continuous
 62
     7
370
     0
100
AcDbLine
 10
50.0
 20
2050.0
 30
0.0
 11
50.0
 21
50.0
 31
0.0
  0
LINE
  5
82
330
1F
100
AcDbEntity
  8
0
  6
Continuous
 62
     7
370
     0
100
AcDbLine
 10
50.0
 20
50.0
 30
0.0
 11
2920.0
 21
50.0
 31
0.0
  0
LINE
  5
83
330
1F
100
AcDbEntity
  8
0
  6
Continuous
 62
     7
370
     0
100
AcDbLine
 10
1741.3
 20
220.0
 30
0.0
 11
1741.3
 21
347.5
 31
0.0
  0
LINE
  5
84
330
1F
100
AcDbEntity
  8
0
  6
Continuous
 62
     7
370
     0
100
AcDbLine
 10
1741.3
 20
220.0
 30
0.0
 11
1594.0
 21
220.0
 31
0.0
  0
LINE
  5
85
330
1F
100
AcDbEntity
  8
0
  6
Continuous
 62
     7
370
     0
100
AcDbLine
 10
2790.0
 20
154.9496936018
 30
0.0
 11
2790.0
 21
220.0
 31
0.0
  0
LINE
  5
86
330
1F
100
AcDbEntity
  8
0
  6
Continuous
 62
     7
370
     0
100
AcDbLine
 10
1594.0
 20
283.75
 30
0.0
 11
1741.3
 21
283.75
 31
0.0
  0
LINE
  5
87
330
1F
100
AcDbEntity
  8
0
  6
Continuous
 62
     7
370
     0
100
AcDbLine
 10
1741.3
 20
283.75
 30
0.0
 11
1888.6
 21
283.75
 31
0.0
  0
LINE
  5
88
330
1F
100
AcDbEntity
  8
0
  6
Continuous
 62
     7
370
     0
100
AcDbLine
 10
1888.6
 20
283.75
 30
0.0
 11
2036.0
 21
283.75
 31
0.0
  0
LINE
  5
89
330
1F
100
AcDbEntity
  8
0
  6
Continuous
 62
     7
370
     0
100
AcDbLine
 10
1594.0
 20
220.0
 30
0.0
 11
1594.0
 21
283.75
 31
0.0
  0
LINE
  5
8A
330
1F
100
AcDbEntity
  8
0
  6
Continuous
 62
     7
370
     0
100
AcDbLine
 10
1594.0
 20
220.0
 30
0.0
 11
1594.0
 21
92.5
 31
0.0
  0
LINE
  5
8B
330
1F
100
AcDbEntity
  8
0
  6
Continuous
 62
     7
370
     0
100
AcDbLine
 10
1594.0
 20
50.0
 30
0.0
 11
1594.0
 21
92.5
 31
0.0
  0
MTEXT
  5
8D
330
1F
100
AcDbEntity
  8
0
  6
Continuous
 62
     7
370
     0
100
AcDbMText
 10
2802.7693727994
 20
194.3244494768
 30
0.0
 40
15.0
 41
0.0
 71
     1
 72
     1
  1
Blattformat
  7
SLDTEXTSTYLE0
 73
     1
 44
1.0
  0
MTEXT
  5
8E
330
1F
100
AcDbEntity
  8
0
  6
Continuous
 62
     7
370
     0
100
AcDbMText
 10
1623.642408927
 20
258.7493046935
 30
0.0
 40
15.0
 41
0.0
 71
     1
 72
     1
  1
Ch. Höfig
  7
SLDTEXTSTYLE0
 73
     1
 44
1.0
  0
MTEXT
  5
8F
330
1F
100
AcDbEntity
  8
0
  6
Continuous
 62
     7
370
     0
100
AcDbMText
 10
1667.7619782589
 20
322.1696719569
 30
0.0
 40
15.0
 41
0.0
 71
     2
 72
     1
  1
Name
  7
SLDTEXTSTYLE0
 73
     1
 44
1.0
  0
MTEXT
  5
90
330
1F
100
AcDbEntity
  8
0
  6
Continuous
 62
     7
370
     0
100
AcDbMText
 10
1604.4586230876
 20
209.8605628925
 30
0.0
 40
15.0
 41
0.0
 71
     1
 72
     1
  1
Werkstoff:
  7
SLDTEXTSTYLE0
 73
     1
 44
1.0
  0
MTEXT
  5
91
330
1F
100
AcDbEntity
  8
0
  6
Continuous
 62
     7
370
     0
100
AcDbMText
 10
2048.6498590342
 20
322.4610146297
 30
0.0
 40
15.0
 41
0.0
 71
     1
 72
     1
  1
Artikelnummer
  7
SLDTEXTSTYLE0
 73
     1
 44
1.0
  0
MTEXT
  5
92
330
1F
100
AcDbEntity
  8
0
  6
Continuous
 62
     7
370
     0
100
AcDbMText
 10
2048.7396611749
 20
198.6863782703
 30
0.0
 40
15.0
 41
0.0
 71
     1
 72
     1
  1
Hersteller
  7
SLDTEXTSTYLE0
 73
     1
 44
1.0
  0
MTEXT
  5
93
330
1F
100
AcDbEntity
  8
0
  6
Continuous
 62
     7
370
     0
100
AcDbMText
 10
2048.7396611749
 20
79.0008727453
 30
0.0
 40
15.0
 41
0.0
 71
     1
 72
     1
  1
Massstab: 1:10
  7
SLDTEXTSTYLE0
 73
     1
 44
1.0
  0
MTEXT
  5
95
330
1F
100
AcDbEntity
  8
0
  6
Continuous
 62
     7
370
     0
100
AcDbMText
 10
2492.7829442782
 20
79.0008727453
 30
0.0
 40
15.0
 41
0.0
 71
     1
 72
     1
  1
Blatt 1 von 1
  7
SLDTEXTSTYLE1
 73
     1
 44
1.0
  0
MTEXT
  5
96
330
1F
100
AcDbEntity
  8
0
  6
Continuous
 62
     7
370
     0
100
AcDbMText
 10
2830.1820125196
 20
142.1449358799
 30
0.0
 40
29.1041666667
 41
0.0
 71
     1
 72
     1
  1
A4
  7
SLDTEXTSTYLE0
 73
     1
 44
1.0
  0
MTEXT
  5
97
330
1F
100
AcDbEntity
  8
0
  6
Continuous
 62
     7
370
     0
100
AcDbMText
 10
2447.8572108176
 20
182.8771937365
 30
0.0
 40
52.9166666667
 41
0.0
 71
     2
 72
     1
  1
Feldmann GmbH
  7
SLDTEXTSTYLE0
 73
     1
 44
1.0
  0
MTEXT
  5
98
330
1F
100
AcDbEntity
  8
0
  6
Continuous
 62
     7
370
     0
100
AcDbMText
 10
1962.5434899658
 20
322.1696719569
 30
0.0
 40
15.0
 41
0.0
 71
     2
 72
     1
  1
Datum
  7
SLDTEXTSTYLE0
 73
     1
 44
1.0
  0
MTEXT
  5
99
330
1F
100
AcDbEntity
  8
0
  6
Continuous
 62
     7
370
     0
100
AcDbMText
 10
1800.2675095033
 20
258.7493046935
 30
0.0
 40
15.0
 41
0.0
 71
     1
 72
     1
  1
CH
  7
SLDTEXTSTYLE0
 73
     1
 44
1.0
  0
MTEXT
  5
9A
330
1F
100
AcDbEntity
  8
0
  6
Continuous
 62
     7
370
     0
100
AcDbMText
 10
1913.972993064
 20
258.7696708294
 30
0.0
 40
15.0
 41
0.0
 71
     1
 72
     1
  1
04.08.2014
  7
SLDTEXTSTYLE0
 73
     1
 44
1.0
  0
MTEXT
  5
9B
330
1F
100
AcDbEntity
  8
0
  6
Continuous
 62
     7
370
     0
100
AcDbMText
 10
1816.1624973036
 20
79.2644690292
 30
0.0
 40
15.0
 41
0.0
 71
     2
 72
     1
  1
Gewicht 1.287 kg
  7
SLDTEXTSTYLE0
 73
     1
 44
1.0
  0
MTEXT
  5
9C
330
1F
100
AcDbEntity
  8
0
  6
Continuous
 62
     7
370
     0
100
AcDbMText
 10
1817.3958841428
 20
156.1538563969
 30
0.0
 40
23.8125
 41
0.0
 71
     2
 72
     1
  1
1.4301 (X5CrNi18-10)
  7
SLDTEXTSTYLE0
 73
     1
 44
1.0
  0
MTEXT
  5
9D
330
1F
100
AcDbEntity
  8
0
  6
Continuous
 62
     7
370
     0
100
AcDbMText
 10
2305.5565352457
 20
294.0728645459
 30
0.0
 40
42.3333333333
 41
0.0
 71
     2
 72
     1
  1
56301-240
  7
SLDTEXTSTYLE0
 73
     1
 44
1.0
  0
MTEXT
  5
9E
330
1F
100
AcDbEntity
  8
0
  6
Continuous
 62
     7
370
     0
100
AcDbMText
 10
1817.5300178247
 20
320.1755564777
 30
0.0
 40
15.0
 41
0.0
 71
     2
 72
     1
  1
Signatur
  7
SLDTEXTSTYLE0
 73
     1
 44
1.0
  0
LINE
  5
9F
330
1F
100
AcDbEntity
  8
0
  6
Continuous
 62
     7
370
    15
100
AcDbLine
 10
553.0561236165
 20
1135.2738376849
 30
0.0
 11
494.2229272925
 21
1194.1070340089
 31
0.0
  0
LINE
  5
A0
330
1F
100
AcDbEntity
  8
0
  6
Continuous
 62
     7
370
    15
100
AcDbLine
 10
485.7376459182
 20
1185.6217526347
 30
0.0
 11
544.5708422423
 21
1126.7885563106
 31
0.0
  0
SPLINE
  5
A1
330
1F
100
AcDbEntity
  8
0
  6
Continuous
 62
     7
370
    15
100
AcDbSpline
210
0.0
220
0.0
230
1.0
 70
     8
 71
     3
 72
    33
 73
    29
 74
     0
 42
0.000000001
 43
0.00000001
 40
0.0
 40
0.0
 40
0.0
 40
0.0
 40
0.025557690436973
 40
0.0541373007913116
 40
0.0785050407744773
 40
0.10093086893114
 40
0.1427713208400589
 40
0.1787082400938058
 40
0.2173453795258536
 40
0.2495387589267702
 40
0.2820110493994766
 40
0.3317923467089364
 40
0.3826656973469783
 40
0.4330466590250742
 40
0.4837604512426636
 40
0.5346411196970839
 40
0.5851991669582379
 40
0.6346409272391186
 40
0.6813836314666363
 40
0.7105871867284255
 40
0.7454063329773319
 40
0.7918498118316162
 40
0.8341309062654636
 40
0.8831947080892871
 40
0.9097275320704378
 40
0.9374459042464858
 40
0.9697353870624398
 40
1.0
 40
1.0
 40
1.0
 40
1.0
 10
544.4505539247275
 20
1126.908844628202
 30
0.0
 10
544.7848131245046
 20
1126.595986093511
 30
0.0
 10
545.4928540519592
 20
1125.933276892949
 30
0.0
 10
546.5915007339497
 20
1125.052177234222
 30
0.0
 10
547.7209771590407
 20
1124.309294587895
 30
0.0
 10
549.1164207612901
 20
1123.550474224244
 30
0.0
 10
550.7619024600851
 20
1122.822532096377
 30
0.0
 10
552.7621267955633
 20
1122.217688481763
 30
0.0
 10
554.6501651843408
 20
1121.885291930136
 30
0.0
 10
556.4988872136727
 20
1121.760149914539
 30
0.0
 10
558.5510308315215
 20
1121.820306230004
 30
0.0
 10
560.9153526649492
 20
1122.198042390608
 30
0.0
 10
563.5007846202694
 20
1123.03070171607
 30
0.0
 10
565.937803136507
 20
1124.266705791277
 30
0.0
 10
568.1612756292564
 20
1125.855907814856
 30
0.0
 10
570.1051275031405
 20
1127.782204362681
 30
0.0
 10
571.7163985601635
 20
1129.964886899992
 30
0.0
 10
572.9407440469577
 20
1132.302002330447
 30
0.0
 10
573.6804789315921
 20
1134.431077981978
 30
0.0
 10
574.1104708578457
 20
1136.37029330641
 30
0.0
 10
574.3434934836409
 20
1138.33885403767
 30
0.0
 10
574.3327563361216
 20
1140.559012737574
 30
0.0
 10
573.990365765985
 20
1143.010279641587
 30
0.0
 10
573.3845995861469
 20
1145.042189131635
 30
0.0
 10
572.6745081630156
 20
1146.751885995064
 30
0.0
 10
571.9715409418594
 20
1148.136292166248
 30
0.0
 10
571.0676820905932
 20
1149.481785049652
 30
0.0
 10
570.3644699695391
 20
1150.354188496434
 30
0.0
 10
570.0242453623357
 20
1150.776270413281
 30
0.0
  0
SPLINE
  5
A2
330
1F
100
AcDbEntity
  8
0
  6
Continuous
 62
     7
370
    15
100
AcDbSpline
210
0.0
220
0.0
230
1.0
 70
     8
 71
     3
 72
    18
 73
    14
 74
     0
 42
0.000000001
 43
0.00000001
 40
0.0
 40
0.0
 40
0.0
 40
0.0
 40
0.0989046349684936
 40
0.1888170923712604
 40
0.2679524448258067
 40
0.3373637487634975
 40
0.4462019773632579
 40
0.5358339785726409
 40
0.6322844583491591
 40
0.7318945473293409
 40
0.8529546876087364
 40
0.922590684116239
 40
0.9999999999999999
 40
0.9999999999999999
 40
0.9999999999999999
 40
0.9999999999999999
 10
561.1854577328587
 20
1142.64449529428
 30
0.0
 10
561.4807190676396
 20
1142.182312672449
 30
0.0
 10
562.044397268775
 20
1141.299967989345
 30
0.0
 10
562.360601524101
 20
1139.829296268276
 30
0.0
 10
562.3155030185383
 20
1138.507986926265
 30
0.0
 10
561.9630376591607
 20
1137.125009997705
 30
0.0
 10
561.2048826153633
 20
1135.825298638443
 30
0.0
 10
560.0033391110061
 20
1134.706784984405
 30
0.0
 10
558.5799247001661
 20
1133.984530460126
 30
0.0
 10
556.83317835895
 20
1133.681549619522
 30
0.0
 10
555.2221915499534
 20
1133.947408741648
 30
0.0
 10
553.8678299092376
 20
1134.572774435943
 30
0.0
 10
553.2572591240947
 20
1135.1108604563
 30
0.0
 10
552.9358352989628
 20
1135.394126002445
 30
0.0
  0
ARC
  5
A3
330
1F
100
AcDbEntity
  8
0
  6
Continuous
 62
     7
370
    15
100
AcDbCircle
 10
481.8485586217
 20
1181.7326653382
 30
0.0
 40
5.500000000000171
100
AcDbArc
 50
180.0
 51
225.0
  0
ARC
  5
A4
330
1F
100
AcDbEntity
  8
0
  6
Continuous
 62
     7
370
    15
100
AcDbCircle
 10
481.8485586217
 20
1181.7326653382
 30
0.0
 40
5.500000000000205
100
AcDbArc
 50
45.0
 51
180.0
  0
ARC
  5
A5
330
1F
100
AcDbEntity
  8
0
  6
Continuous
 62
     7
370
    15
100
AcDbCircle
 10
481.8485586217
 20
1181.7326653382
 30
0.0
 40
17.50000000000082
100
AcDbArc
 50
45.0
 51
225.0
  0
ARC
  5
A6
330
1F
100
AcDbEntity
  8
0
  6
Continuous
 62
     7
370
    15
100
AcDbCircle
 10
556.8249225955
 20
1074.2293894298
 30
0.0
 40
5.499999999999804
100
AcDbArc
 50
225.0
 51
45.0
  0
ARC
  5
A7
330
1F
100
AcDbEntity
  8
0
  6
Continuous
 62
     7
370
    15
100
AcDbCircle
 10
556.8249225955
 20
1074.2293894298
 30
0.0
 40
17.50000000000034
100
AcDbArc
 50
225.0
 51
0.0
  0
ARC
  5
A8
330
1F
100
AcDbEntity
  8
0
  6
Continuous
 62
     7
370
    15
100
AcDbCircle
 10
556.8249225955
 20
1074.2293894298
 30
0.0
 40
17.50000000000038
100
AcDbArc
 50
0.0
 51
45.0
  0
LINE
  5
A9
330
1F
100
AcDbEntity
  8
0
  6
Continuous
 62
     7
370
    15
100
AcDbLine
 10
487.5638082388
 20
1118.741766445
 30
0.0
 11
544.4505539247
 21
1061.855020759
 31
0.0
  0
LINE
  5
AA
330
1F
100
AcDbEntity
  8
0
  6
Continuous
 62
     7
370
    15
100
AcDbLine
 10
552.935835299
 20
1070.3403021333
 30
0.0
 11
498.7916585159
 21
1124.4844789163
 31
0.0
  0
LINE
  5
AB
330
1F
100
AcDbEntity
  8
0
  6
Continuous
 62
     7
370
    15
100
AcDbLine
 10
469.4741899509
 20
1169.3582966674
 30
0.0
 11
560.714009892
 21
1078.1184767263
 31
0.0
  0
LINE
  5
AC
330
1F
100
AcDbEntity
  8
0
  6
Continuous
 62
     7
370
    15
100
AcDbLine
 10
569.1992912663
 20
1086.6037581006
 30
0.0
 11
477.9594713252
 21
1177.8435780416
 31
0.0
  0
LINE
  5
AD
330
1F
100
AcDbEntity
  8
0
  6
Continuous
 62
     7
370
    15
100
AcDbLine
 10
570.0242453623
 20
1150.7762704133
 30
0.0
 11
535.3541007256
 21
1185.44641505
 31
0.0
  0
LINE
  5
AE
330
1F
100
AcDbEntity
  8
0
  6
Continuous
 62
     7
370
    15
100
AcDbLine
 10
526.8688193514
 20
1176.9611336757
 30
0.0
 11
561.1854577329
 21
1142.6444952943
 31
0.0
  0
LINE
  5
AF
330
1F
100
AcDbEntity
  8
0
  6
Continuous
 62
     7
370
    15
100
AcDbLine
 10
513.395731286
 20
1796.0566037736
 30
0.0
 11
513.395731286
 21
1209.4880456103
 31
0.0
  0
LINE
  5
B0
330
1F
100
AcDbEntity
  8
0
  6
Continuous
 62
     7
370
    15
100
AcDbLine
 10
525.395731286
 20
1209.4880456103
 30
0.0
 11
525.395731286
 21
1796.0566037736
 31
0.0
  0
ARC
  5
B1
330
1F
100
AcDbEntity
  8
0
  6
Continuous
 62
     7
370
    15
100
AcDbCircle
 10
559.395731286
 20
1209.4880456103
 30
0.0
 40
34.00000000000092
100
AcDbArc
 50
180.0
 51
225.0
  0
ARC
  5
B2
330
1F
100
AcDbEntity
  8
0
  6
Continuous
 62
     7
370
    15
100
AcDbCircle
 10
559.395731286
 20
1209.4880456103
 30
0.0
 40
46.00000000000134
100
AcDbArc
 50
180.0
 51
225.0
  0
SPLINE
  5
B3
330
1F
100
AcDbEntity
  8
0
  6
Continuous
 62
     7
370
    15
100
AcDbSpline
210
0.0
220
0.0
230
1.0
 70
     8
 71
     3
 72
    31
 73
    27
 74
     0
 42
0.000000001
 43
0.00000001
 40
0.0
 40
0.0
 40
0.0
 40
0.0
 40
0.0317414204905617
 40
0.0507543244568667
 40
0.0759610673308437
 40
0.1013282917768764
 40
0.1452526612133944
 40
0.1881774008606839
 40
0.2617400069062344
 40
0.3239679536408501
 40
0.3732778888168131
 40
0.4096084184362188
 40
0.4704851022613984
 40
0.497296142639594
 40
0.5243375964797146
 40
0.5652256409558628
 40
0.6200955055979337
 40
0.6917320551172327
 40
0.776867838215358
 40
0.8270134330262014
 40
0.8792924593952651
 40
0.9019694120402949
 40
0.9271548658571421
 40
0.9503656031922324
 40
0.9690992160343984
 40
1.0
 40
1.0
 40
1.0
 40
1.0
 10
478.3825022849732
 20
1115.484305458344
 30
0.0
 10
478.1908311549546
 20
1115.644836880524
 30
0.0
 10
477.8843502674695
 20
1115.90152557816
 30
0.0
 10
477.512931359109
 20
1116.370266408941
 30
0.0
 10
477.1953496813064
 20
1116.81419474441
 30
0.0
 10
476.8057624747805
 20
1117.447861435849
 30
0.0
 10
476.5078917499563
 20
1118.284981040077
 30
0.0
 10
476.2732880639236
 20
1119.525325064117
 30
0.0
 10
476.3592157148801
 20
1120.953969523236
 30
0.0
 10
476.8814626719824
 20
1122.32563022918
 30
0.0
 10
477.5197081330765
 20
1123.306164369806
 30
0.0
 10
478.3352100092121
 20
1124.122657769409
 30
0.0
 10
479.1462865535787
 20
1124.681447441194
 30
0.0
 10
479.9744090426494
 20
1125.040149197459
 30
0.0
 10
480.6878499997472
 20
1125.254412236694
 30
0.0
 10
481.6442649079274
 20
1125.409771510014
 30
0.0
 10
482.9675570289147
 20
1125.336165629017
 30
0.0
 10
484.5765966421636
 20
1124.833219518515
 30
0.0
 10
485.9010882891667
 20
1123.828032650634
 30
0.0
 10
486.8064347261486
 20
1122.658852375925
 30
0.0
 10
487.2413715893412
 20
1121.767225740732
 30
0.0
 10
487.4522006955158
 20
1121.008169420317
 30
0.0
 10
487.5737746941701
 20
1120.466880531269
 30
0.0
 10
487.6636210439224
 20
1119.936366989696
 30
0.0
 10
487.4995199026147
 20
1119.377431478889
 30
0.0
 10
487.5391412551505
 20
1118.985666659735
 30
0.0
 10
487.5638082388126
 20
1118.741766444953
 30
0.0
  0
SPLINE
  5
B4
330
1F
100
AcDbEntity
  8
0
  6
Continuous
 62
     7
370
    15
100
AcDbSpline
210
0.0
220
0.0
230
1.0
 70
     8
 71
     3
 72
    32
 73
    28
 74
     0
 42
0.000000001
 43
0.00000001
 40
0.0
 40
0.0
 40
0.0
 40
0.0
 40
0.0280573343008897
 40
0.0528474839706089
 40
0.1002660538212436
 40
0.1421850654738566
 40
0.1776543329474256
 40
0.2159704459606769
 40
0.2483582011187907
 40
0.2812222021355452
 40
0.3308585693182528
 40
0.3815501555120894
 40
0.4324581476036776
 40
0.4828613579221011
 40
0.5334436019067992
 40
0.5838075060920481
 40
0.6338085323720609
 40
0.6800401704301018
 40
0.701964563096222
 40
0.7253851829941796
 40
0.75524822638981
 40
0.7915663571015225
 40
0.833816950024838
 40
0.8827768447169192
 40
0.9387157862555404
 40
0.9676368001407912
 40
1.0
 40
1.0
 40
1.0
 40
1.0
 10
498.7916585159166
 20
1124.484478916327
 30
0.0
 10
498.6393700077205
 20
1125.076670955074
 30
0.0
 10
498.3525264890349
 20
1126.19209621036
 30
0.0
 10
497.2875648534837
 20
1128.099197195106
 30
0.0
 10
496.0792753513778
 20
1130.266951107283
 30
0.0
 10
494.242411874815
 20
1132.281190252597
 30
0.0
 10
492.3348417521788
 20
1133.916913623556
 30
0.0
 10
490.3889315720954
 20
1135.164435558496
 30
0.0
 10
488.3519851096186
 20
1136.123849182152
 30
0.0
 10
485.9756517338068
 20
1136.891388221842
 30
0.0
 10
483.1113323096578
 20
1137.376619991126
 30
0.0
 10
479.812412102141
 20
1137.300395439511
 30
0.0
 10
476.56955517311
 20
1136.609120785908
 30
0.0
 10
473.5153646428429
 20
1135.323049165815
 30
0.0
 10
470.7684297840499
 20
1133.492161136657
 30
0.0
 10
468.4082463398482
 20
1131.19571040713
 30
0.0
 10
466.582333211149
 20
1128.570782258675
 30
0.0
 10
465.5018627656771
 20
1126.232430486769
 30
0.0
 10
464.9081309155785
 20
1124.335334841468
 30
0.0
 10
464.5471350666465
 20
1122.742811988225
 30
0.0
 10
464.3065981781883
 20
1120.810240242217
 30
0.0
 10
464.3181410339127
 20
1118.451220754555
 30
0.0
 10
464.7236800636842
 20
1115.705530491247
 30
0.0
 10
465.7106583246192
 20
1112.649002381989
 30
0.0
 10
467.1738001682518
 20
1110.1208023847
 30
0.0
 10
468.71551272716
 20
1108.09077200857
 30
0.0
 10
469.6860452941254
 20
1107.179110728442
 30
0.0
 10
470.1985678103731
 20
1106.697677184467
 30
0.0
  0
LINE
  5
B5
330
1F
100
AcDbEntity
  8
0
  6
Continuous
 62
     7
370
    15
100
AcDbLine
 10
470.1985678104
 20
1106.6976771845
 30
0.0
 11
503.3665531558
 21
1073.529691839
 31
0.0
  0
LINE
  5
B6
330
1F
100
AcDbEntity
  8
0
  6
Continuous
 62
     7
370
    15
100
AcDbLine
 10
511.8518345301
 20
1082.0149732132
 30
0.0
 11
478.382502285
 21
1115.4843054583
 31
0.0
  0
ARC
  5
B7
330
1F
100
AcDbEntity
  8
0
  6
Continuous
 62
     7
370
    15
100
AcDbCircle
 10
479.3249225955
 20
1049.4880612787
 30
0.0
 40
34.00000000000011
100
AcDbArc
 50
0.0
 51
45.0
  0
ARC
  5
B8
330
1F
100
AcDbEntity
  8
0
  6
Continuous
 62
     7
370
    15
100
AcDbCircle
 10
479.3249225955
 20
1049.4880612787
 30
0.0
 40
46.00000000000017
100
AcDbArc
 50
0.0
 51
45.0
  0
LINE
  5
B9
330
1F
100
AcDbEntity
  8
0
  6
Continuous
 62
     7
370
    15
100
AcDbLine
 10
525.3249225955
 20
796.0566037736
 30
0.0
 11
525.3249225955
 21
1049.4880612787
 31
0.0
  0
LINE
  5
BA
330
1F
100
AcDbEntity
  8
0
  6
Continuous
 62
     7
370
    15
100
AcDbLine
 10
513.3249225955
 20
1049.4880612787
 30
0.0
 11
513.3249225955
 21
796.0566037736
 31
0.0
  0
SPLINE
  5
BB
330
1F
100
AcDbEntity
  8
0
  6
Continuous
 62
     7
370
    15
100
AcDbSpline
210
0.0
220
0.0
230
1.0
 70
    24
 71
     3
 72
    22
 73
    18
 74
     0
 42
0.000000001
 43
0.00000001
 40
0.0
 40
0.0
 40
0.0
 40
0.0
 40
0.1249999999999999
 40
0.1249999999999999
 40
0.2499999999999997
 40
0.2499999999999997
 40
0.3749999999999996
 40
0.3749999999999996
 40
0.4999999999999995
 40
0.4999999999999995
 40
0.6249999999999994
 40
0.6249999999999994
 40
0.7499999999999997
 40
0.7499999999999997
 40
0.8749999999999999
 40
0.8749999999999999
 40
1.0
 40
1.0
 40
1.0
 40
1.0
 10
544.4505539247275
 20
1126.908844628202
 30
0.0
 10
544.4505539247275
 20
1126.908844628202
 30
0.0
 10
544.5609785056714
 20
1127.019269209146
 30
0.0
 10
544.9860329287645
 20
1127.444323632239
 30
0.0
 10
545.3004955301489
 20
1127.758786233623
 30
0.0
 10
546.0858936935468
 20
1128.544184397021
 30
0.0
 10
546.5565202349213
 20
1129.014810938396
 30
0.0
 10
547.5826923878991
 20
1130.040983091373
 30
0.0
 10
548.1378342445797
 20
1130.596124948054
 30
0.0
 10
549.2485549791197
 20
1131.706845682594
 30
0.0
 10
549.8036968358002
 20
1132.261987539274
 30
0.0
 10
550.8298689887773
 20
1133.288159692252
 30
0.0
 10
551.3004955301515
 20
1133.758786233626
 30
0.0
 10
552.0858936935485
 20
1134.544184397023
 30
0.0
 10
552.4003562949324
 20
1134.858646998407
 30
0.0
 10
552.825410718024
 20
1135.283701421498
 30
0.0
 10
552.9358352989673
 20
1135.394126002442
 30
0.0
 10
552.9358352989666
 20
1135.394126002441
 30
0.0
  0
LINE
  5
BC
330
1F
100
AcDbEntity
  8
0
  6
Continuous
 62
     7
370
    15
100
AcDbLine
 10
561.1854577329
 20
1142.6444952943
 30
0.0
 11
570.0242453623
 21
1150.7762704133
 31
0.0
  0
LINE
  5
BD
330
1F
100
AcDbEntity
  8
0
  6
Continuous
 62
     7
370
    15
100
AcDbLine
 10
498.7916585159
 20
1124.4844789163
 30
0.0
 11
487.5638082388
 21
1118.741766445
 31
0.0
  0
LINE
  5
BE
330
1F
100
AcDbEntity
  8
0
  6
Continuous
 62
     7
370
    15
100
AcDbLine
 10
525.395731286
 20
1796.0566037736
 30
0.0
 11
513.395731286
 21
1796.0566037736
 31
0.0
  0
SPLINE
  5
BF
330
1F
100
AcDbEntity
  8
0
  6
Continuous
 62
     7
370
    15
100
AcDbSpline
210
0.0
220
0.0
230
1.0
 70
    24
 71
     3
 72
    34
 73
    30
 74
     0
 42
0.000000001
 43
0.00000001
 40
0.0
 40
0.0
 40
0.0
 40
0.0
 40
0.1249999999999997
 40
0.1249999999999997
 40
0.1874999999999998
 40
0.1874999999999998
 40
0.2499999999999998
 40
0.2499999999999998
 40
0.3124999999999998
 40
0.3124999999999998
 40
0.3749999999999998
 40
0.3749999999999998
 40
0.4374999999999998
 40
0.4374999999999998
 40
0.4999999999999999
 40
0.4999999999999999
 40
0.5624999999999999
 40
0.5624999999999999
 40
0.6249999999999999
 40
0.6249999999999999
 40
0.6875
 40
0.6875
 40
0.7500000000000001
 40
0.7500000000000001
 40
0.8125000000000002
 40
0.8125000000000002
 40
0.8750000000000002
 40
0.8750000000000002
 40
1.0
 40
1.0
 40
1.0
 40
1.0
 10
478.3825022849732
 20
1115.484305458344
 30
0.0
 10
478.3825022849732
 20
1115.484305458344
 30
0.0
 10
478.3410370169686
 20
1115.439786541756
 30
0.0
 10
478.1577168847376
 20
1115.242966068421
 30
0.0
 10
478.0761600842765
 20
1115.155403137525
 30
0.0
 10
477.861255606216
 20
1114.924672335737
 30
0.0
 10
477.7277875270052
 20
1114.781375196434
 30
0.0
 10
477.4004301480213
 20
1114.429910065479
 30
0.0
 10
477.2063848485941
 20
1114.221574585808
 30
0.0
 10
476.7559024355305
 20
1113.737917059004
 30
0.0
 10
476.4993478124442
 20
1113.462468848611
 30
0.0
 10
475.9329855650669
 20
1112.854397687789
 30
0.0
 10
475.623208874543
 20
1112.521807949199
 30
0.0
 10
474.9723681683973
 20
1111.823037037951
 30
0.0
 10
474.6315323174482
 20
1111.457100832817
 30
0.0
 10
473.9495377778982
 20
1110.724881809994
 30
0.0
 10
473.6087019269491
 20
1110.35894560486
 30
0.0
 10
472.9578612208034
 20
1109.660174693612
 30
0.0
 10
472.6480845302794
 20
1109.327584955022
 30
0.0
 10
472.0817222829022
 20
1108.7195137942
 30
0.0
 10
471.8251676598159
 20
1108.444065583807
 30
0.0
 10
471.3746852467523
 20
1107.960408057003
 30
0.0
 10
471.1806399473251
 20
1107.752072577332
 30
0.0
 10
470.8532825683411
 20
1107.400607446377
 30
0.0
 10
470.7198144891303
 20
1107.257310307074
 30
0.0
 10
470.5049100110698
 20
1107.026579505286
 30
0.0
 10
470.4233532106088
 20
1106.939016574389
 30
0.0
 10
470.2400330783777
 20
1106.742196101055
 30
0.0
 10
470.1985678103731
 20
1106.697677184467
 30
0.0
 10
470.1985678103731
 20
1106.697677184467
 30
0.0
  0
LINE
  5
C0
330
1F
100
AcDbEntity
  8
0
  6
Continuous
 62
     7
370
    15
100
AcDbLine
 10
519.3249225955
 20
796.0566037736
 30
0.0
 11
525.3249225955
 21
796.0566037736
 31
0.0
  0
LINE
  5
C1
330
1F
100
AcDbEntity
  8
0
  6
Continuous
 62
     7
370
    15
100
AcDbLine
 10
513.3249225955
 20
796.0566037736
 30
0.0
 11
519.3249225955
 21
796.0566037736
 31
0.0
  0
LINE
  5
C2
330
1F
100
AcDbEntity
  8
0
  6
Continuous
 62
     8
370
    15
100
AcDbLine
 10
485.7376459182
 20
1185.6217526347
 30
0.0
 11
494.2229272925
 21
1194.1070340089
 31
0.0
  0
LINE
  5
C3
330
1F
100
AcDbEntity
  8
0
  6
Continuous
 62
     8
370
    15
100
AcDbLine
 10
477.9594713252
 20
1177.8435780416
 30
0.0
 11
469.4741899509
 21
1169.3582966674
 31
0.0
  0
LINE
  5
C4
330
1F
100
AcDbEntity
  8
0
  6
Continuous
 62
     8
370
    15
100
AcDbLine
 10
569.1992912663
 20
1086.6037581006
 30
0.0
 11
560.714009892
 21
1078.1184767263
 31
0.0
  0
LINE
  5
C5
330
1F
100
AcDbEntity
  8
0
  6
Continuous
 62
     8
370
    15
100
AcDbLine
 10
544.4505539247
 20
1061.855020759
 30
0.0
 11
552.935835299
 21
1070.3403021333
 31
0.0
  0
LINE
  5
C6
330
1F
100
AcDbEntity
  8
0
  6
Continuous
 62
     8
370
    15
100
AcDbLine
 10
535.3541007256
 20
1185.44641505
 30
0.0
 11
526.8688198624
 21
1176.9611341868
 31
0.0
  0
LINE
  5
C7
330
1F
100
AcDbEntity
  8
0
  6
Continuous
 62
     8
370
    15
100
AcDbLine
 10
525.395731286
 20
1209.4880456103
 30
0.0
 11
513.395731286
 21
1209.4880456103
 31
0.0
  0
LINE
  5
C8
330
1F
100
AcDbEntity
  8
0
  6
Continuous
 62
     8
370
    15
100
AcDbLine
 10
507.609193843
 20
1077.7723325261
 30
0.0
 11
511.8518345301
 21
1082.0149732132
 31
0.0
  0
LINE
  5
C9
330
1F
100
AcDbEntity
  8
0
  6
Continuous
 62
     8
370
    15
100
AcDbLine
 10
503.3665531558
 20
1073.529691839
 30
0.0
 11
507.609193843
 21
1077.7723325261
 31
0.0
  0
LINE
  5
CA
330
1F
100
AcDbEntity
  8
0
  6
Continuous
 62
     8
370
    15
100
AcDbLine
 10
519.3249225955
 20
1049.4880612787
 30
0.0
 11
525.3249225955
 21
1049.4880612787
 31
0.0
  0
LINE
  5
CB
330
1F
100
AcDbEntity
  8
0
  6
Continuous
 62
     8
370
    15
100
AcDbLine
 10
513.3249225955
 20
1049.4880612787
 30
0.0
 11
519.3249225955
 21
1049.4880612787
 31
0.0
  0
LINE
  5
CC
330
1F
100
AcDbEntity
  8
0
  6
Continuous
 62
     7
370
     0
100
AcDbLine
 10
464.3249225955
 20
1181.6555942832
 30
0.0
 11
464.3486619832
 21
1181.6725185171
 31
0.0
  0
LINE
  5
CD
330
1F
100
AcDbEntity
  8
0
  6
Continuous
 62
     7
370
    15
100
AcDbLine
 10
519.395731286
 20
507.9056603774
 30
0.0
 11
531.1114600385
 21
507.9056603774
 31
0.0
  0
LINE
  5
CE
330
1F
100
AcDbEntity
  8
0
  6
Continuous
 62
     7
370
    15
100
AcDbLine
 10
531.1114600385
 20
519.9056603774
 30
0.0
 11
519.395731286
 21
519.9056603774
 31
0.0
  0
ARC
  5
CF
330
1F
100
AcDbEntity
  8
0
  6
Continuous
 62
     7
370
    15
100
AcDbCircle
 10
470.3485586217
 20
513.9056603774
 30
0.0
 40
6.000000000000341
100
AcDbArc
 50
90.0
 51
270.0
  0
LINE
  5
D0
330
1F
100
AcDbEntity
  8
0
  6
Continuous
 62
     7
370
    15
100
AcDbLine
 10
470.3485586217
 20
507.9056603774
 30
0.0
 11
489.9802866053
 21
507.9056603774
 31
0.0
  0
LINE
  5
D1
330
1F
100
AcDbEntity
  8
0
  6
Continuous
 62
     7
370
    15
100
AcDbLine
 10
489.9802866053
 20
519.9056603774
 30
0.0
 11
470.3485586217
 21
519.9056603774
 31
0.0
  0
LINE
  5
D2
330
1F
100
AcDbEntity
  8
0
  6
Continuous
 62
     7
370
    15
100
AcDbLine
 10
519.395731286
 20
519.9056603774
 30
0.0
 11
489.9802866053
 21
519.9056603774
 31
0.0
  0
LINE
  5
D3
330
1F
100
AcDbEntity
  8
0
  6
Continuous
 62
     7
370
    15
100
AcDbLine
 10
489.9802866053
 20
507.9056603774
 30
0.0
 11
519.395731286
 21
507.9056603774
 31
0.0
  0
LINE
  5
D4
330
1F
100
AcDbEntity
  8
0
  6
Continuous
 62
     7
370
    15
100
AcDbLine
 10
565.6048515476
 20
519.9056603774
 30
0.0
 11
531.1114600385
 21
519.9056603774
 31
0.0
  0
LINE
  5
D5
330
1F
100
AcDbEntity
  8
0
  6
Continuous
 62
     7
370
    15
100
AcDbLine
 10
531.1114600385
 20
507.9056603774
 30
0.0
 11
565.6048515476
 21
507.9056603774
 31
0.0
  0
SPLINE
  5
D6
330
1F
100
AcDbEntity
  8
0
  6
Continuous
 62
     7
370
    15
100
AcDbSpline
210
0.0
220
0.0
230
1.0
 70
    24
 71
     3
 72
    10
 73
     6
 74
     0
 42
0.000000001
 43
0.00000001
 40
0.0
 40
0.0
 40
0.0
 40
0.0
 40
0.4325901402102966
 40
0.7037630521310578
 40
1.0
 40
1.0
 40
1.0
 40
1.0
 10
565.7798815475973
 20
507.9056603773577
 30
0.0
 10
566.3653732526283
 20
507.9056603773577
 30
0.0
 10
567.3178855524455
 20
507.9056603773577
 30
0.0
 10
568.0663095453806
 20
507.9056603773577
 30
0.0
 10
568.2203956800835
 20
507.9056603773577
 30
0.0
 10
568.3008419491529
 20
507.9056603773577
 30
0.0
  0
SPLINE
  5
D7
330
1F
100
AcDbEntity
  8
0
  6
Continuous
 62
     7
370
    15
100
AcDbSpline
210
0.0
220
0.0
230
1.0
 70
     8
 71
     3
 72
    12
 73
     8
 74
     0
 42
0.000000001
 43
0.00000001
 40
0.0
 40
0.0
 40
0.0
 40
0.0
 40
0.0321611620059157
 40
0.1173752295575157
 40
0.3242327201681855
 40
0.6480400263736392
 40
1.0
 40
1.0
 40
1.0
 40
1.0
 10
565.6597894559161
 20
507.9323738557922
 30
0.0
 10
565.7278022259172
 20
507.9294294061042
 30
0.0
 10
565.9760213198122
 20
507.9186833560087
 30
0.0
 10
566.5220065642823
 20
507.9139094337619
 30
0.0
 10
567.377807926438
 20
507.9044382711115
 30
0.0
 10
568.1832417309598
 20
507.9062436765788
 30
0.0
 10
568.225949620351
 20
507.9058757236569
 30
0.0
 10
568.2481931767828
 20
507.9056840826814
 30
0.0
  0
SPLINE
  5
D8
330
1F
100
AcDbEntity
  8
0
  6
Continuous
 62
     7
370
    15
100
AcDbSpline
210
0.0
220
0.0
230
1.0
 70
    24
 71
     3
 72
    11
 73
     7
 74
     0
 42
0.000000001
 43
0.00000001
 40
0.0
 40
0.0
 40
0.0
 40
0.0
 40
0.1823955621015012
 40
0.4545536900014295
 40
0.7295970642105419
 40
1.0
 40
1.0
 40
1.0
 40
1.0
 10
568.2774111130387
 20
519.9056603773583
 30
0.0
 10
568.2773413959303
 20
519.9056603773583
 30
0.0
 10
568.2771676517419
 20
519.9056603773583
 30
0.0
 10
567.7960645164003
 20
519.9056603773583
 30
0.0
 10
566.9269415581897
 20
519.9056603773583
 30
0.0
 10
566.0430415956824
 20
519.9056603773583
 30
0.0
 10
565.6048515475974
 20
519.9056603773583
 30
0.0
  0
SPLINE
  5
D9
330
1F
100
AcDbEntity
  8
0
  6
Continuous
 62
     7
370
    15
100
AcDbSpline
210
0.0
220
0.0
230
1.0
 70
     8
 71
     3
 72
    19
 73
    15
 74
     0
 42
0.000000001
 43
0.00000001
 40
0.0
 40
0.0
 40
0.0
 40
0.0
 40
0.1019925117086035
 40
0.1908502192562532
 40
0.2651969719136683
 40
0.3257500883744593
 40
0.4121169129017433
 40
0.4658284479513978
 40
0.5248841210834484
 40
0.6189455567705038
 40
0.6868805268769943
 40
0.7725578544079106
 40
0.8775979212879272
 40
1.0
 40
1.0
 40
1.0
 40
1.0
 10
568.3008419491529
 20
507.9056603773577
 30
0.0
 10
568.9447067797059
 20
507.9649066292983
 30
0.0
 10
570.1495182116819
 20
508.0757692797377
 30
0.0
 10
571.6605633750592
 20
508.8502541420381
 30
0.0
 10
572.7295540750439
 20
509.7701019364997
 30
0.0
 10
573.5673043996321
 20
510.8826739333252
 30
0.0
 10
574.0805925631076
 20
512.0458319528481
 30
0.0
 10
574.3232015401488
 20
513.2825081284784
 30
0.0
 10
574.3446681309061
 20
514.587452380303
 30
0.0
 10
574.0304647616191
 20
515.9569667699707
 30
0.0
 10
573.308478477827
 20
517.3442403469968
 30
0.0
 10
572.2240021907979
 20
518.5699395362977
 30
0.0
 10
570.5164464442187
 20
519.6589284915217
 30
0.0
 10
569.076382921348
 20
519.8193348255472
 30
0.0
 10
568.3013868527086
 20
519.9056603773583
 30
0.0
  0
LINE
  5
DA
330
1F
100
AcDbEntity
  8
0
  6
Continuous
 62
     7
370
    15
100
AcDbLine
 10
518.3865833159
 20
514.6853119866
 30
0.0
 11
518.3865833159
 21
515.2624979842
 31
0.0
  0
SPLINE
  5
DB
330
1F
100
AcDbEntity
  8
0
  6
Continuous
 62
     7
370
    15
100
AcDbSpline
210
0.0
220
0.0
230
1.0
 70
     8
 71
     3
 72
    15
 73
    11
 74
     0
 42
0.000000001
 43
0.00000001
 40
0.0
 40
0.0
 40
0.0
 40
0.0
 40
0.1288840014739258
 40
0.252984971857837
 40
0.374210437182597
 40
0.4941015128996903
 40
0.6147527632399877
 40
0.738511070373329
 40
0.8662425140769306
 40
0.9999999999999999
 40
0.9999999999999999
 40
0.9999999999999999
 40
0.9999999999999999
 10
517.9954324745527
 20
514.8893676423124
 30
0.0
 10
518.0151691846163
 20
514.8887753173228
 30
0.0
 10
518.0539101531066
 20
514.8876126491941
 30
0.0
 10
518.1105682252323
 20
514.877896254523
 30
0.0
 10
518.16416056612
 20
514.8615817143982
 30
0.0
 10
518.2149957131694
 20
514.8392466169994
 30
0.0
 10
518.2627706034893
 20
514.8102177616024
 30
0.0
 10
518.3078354349025
 20
514.775159922685
 30
0.0
 10
518.3494065123126
 20
514.7330809121112
 30
0.0
 10
518.3740021119038
 20
514.7014777280954
 30
0.0
 10
518.3865833158989
 20
514.6853119865966
 30
0.0
  0
SPLINE
  5
DC
330
1F
100
AcDbEntity
  8
0
  6
Continuous
 62
     7
370
    15
100
AcDbSpline
210
0.0
220
0.0
230
1.0
 70
     8
 71
     3
 72
    23
 73
    19
 74
     0
 42
0.000000001
 43
0.00000001
 40
0.0
 40
0.0
 40
0.0
 40
0.0
 40
0.063774532305632
 40
0.1260788099895058
 40
0.1869040927472074
 40
0.2475739349176196
 40
0.3080033561644469
 40
0.3691318984609777
 40
0.4320332277442044
 40
0.4967907944370909
 40
0.5616108232295652
 40
0.6249138657484625
 40
0.6867263492419248
 40
0.7480788332577711
 40
0.8095822911398957
 40
0.8716307425688274
 40
0.9348858208285538
 40
1.0
 40
1.0
 40
1.0
 40
1.0
 10
517.487678401369
 20
514.3916838482419
 30
0.0
 10
517.4881519947198
 20
514.4084900695315
 30
0.0
 10
517.4890882632259
 20
514.4417150623933
 30
0.0
 10
517.4960631409632
 20
514.4905793321677
 30
0.0
 10
517.5077921234029
 20
514.5376442700044
 30
0.0
 10
517.524252172967
 20
514.582758352711
 30
0.0
 10
517.5453591023727
 20
514.625976169285
 30
0.0
 10
517.5710343019311
 20
514.667328285883
 30
0.0
 10
517.6012796258501
 20
514.7069286236141
 30
0.0
 10
517.6361488392164
 20
514.7438460218463
 30
0.0
 10
517.6739218029386
 20
514.7779472659302
 30
0.0
 10
517.7143307577786
 20
514.8075840182254
 30
0.0
 10
517.7563705099445
 20
514.8331793747718
 30
0.0
 10
517.8006931359455
 20
514.853459111352
 30
0.0
 10
517.8466426071103
 20
514.8698667193197
 30
0.0
 10
517.8946279869017
 20
514.881218466191
 30
0.0
 10
517.9444496252701
 20
514.887907632255
 30
0.0
 10
517.9782749005446
 20
514.8888762960859
 30
0.0
 10
517.9954324745527
 20
514.8893676423124
 30
0.0
  0
SPLINE
  5
DD
330
1F
100
AcDbEntity
  8
0
  6
Continuous
 62
     7
370
    15
100
AcDbSpline
210
0.0
220
0.0
230
1.0
 70
     8
 71
     3
 72
    23
 73
    19
 74
     0
 42
0.000000001
 43
0.00000001
 40
0.0
 40
0.0
 40
0.0
 40
0.0
 40
0.064619991340768
 40
0.1274334841444695
 40
0.1890041265579399
 40
0.249930070686047
 40
0.310668453740672
 40
0.3723289611368242
 40
0.4349391099970084
 40
0.499575544194034
 40
0.5641912077719239
 40
0.6267352169294786
 40
0.6881093335614016
 40
0.7492936065367515
 40
0.8103305278109454
 40
0.8719011702244159
 40
0.9350459146845316
 40
1.0
 40
1.0
 40
1.0
 40
1.0
 10
517.9917223717215
 20
513.8886999072697
 30
0.0
 10
517.9746499606002
 20
513.8891634467881
 30
0.0
 10
517.9409824099432
 20
513.8900775672428
 30
0.0
 10
517.8914565385246
 20
513.8971692712889
 30
0.0
 10
517.843796670428
 20
513.908557928874
 30
0.0
 10
517.7979577694516
 20
513.9243954674616
 30
0.0
 10
517.7542364525762
 20
513.9454036946879
 30
0.0
 10
517.712258380322
 20
513.9705547021322
 30
0.0
 10
517.6722410235172
 20
514.0005058492162
 30
0.0
 10
517.634794340635
 20
514.0347459670758
 30
0.0
 10
517.6003108166834
 20
514.0719369294934
 30
0.0
 10
517.5700495618531
 20
514.1116038475087
 30
0.0
 10
517.544818487027
 20
514.1535751945157
 30
0.0
 10
517.5237198255693
 20
514.1973195711344
 30
0.0
 10
517.5074682310931
 20
514.2431737222678
 30
0.0
 10
517.4961389110016
 20
514.290979080388
 30
0.0
 10
517.4890554683499
 20
514.3406791218747
 30
0.0
 10
517.4881417257695
 20
514.3745229297115
 30
0.0
 10
517.487678401369
 20
514.3916838482419
 30
0.0
  0
SPLINE
  5
DE
330
1F
100
AcDbEntity
  8
0
  6
Continuous
 62
     7
370
    15
100
AcDbSpline
210
0.0
220
0.0
230
1.0
 70
     8
 71
     3
 72
    15
 73
    11
 74
     0
 42
0.000000001
 43
0.00000001
 40
0.0
 40
0.0
 40
0.0
 40
0.0
 40
0.1342983790141679
 40
0.262084975382301
 40
0.3862699121345002
 40
0.5071645966228003
 40
0.6273002357255065
 40
0.748144941602994
 40
0.8723701771613523
 40
1.0
 40
1.0
 40
1.0
 40
1.0
 10
518.3865833158989
 20
514.0728800121041
 30
0.0
 10
518.3731958563467
 20
514.0577459989116
 30
0.0
 10
518.3470700606899
 20
514.0282117818639
 30
0.0
 10
518.3034360666948
 20
513.9896271511903
 30
0.0
 10
518.2571838089757
 20
513.9577341546559
 30
0.0
 10
518.2085377739055
 20
513.9319751091381
 30
0.0
 10
518.1575418902603
 20
513.9126257307012
 30
0.0
 10
518.1043092025101
 20
513.8988726288886
 30
0.0
 10
518.0488179960519
 20
513.8900303161897
 30
0.0
 10
518.0109249929021
 20
513.8891473555427
 30
0.0
 10
517.9917223717215
 20
513.8886999072697
 30
0.0
  0
LINE
  5
DF
330
1F
100
AcDbEntity
  8
0
  6
Continuous
 62
     7
370
    15
100
AcDbLine
 10
518.3865833159
 20
513.9056603774
 30
0.0
 11
518.3865833159
 21
514.0728800121
 31
0.0
  0
LINE
  5
E0
330
1F
100
AcDbEntity
  8
0
  6
Continuous
 62
     7
370
    15
100
AcDbLine
 10
518.5053066065
 20
513.9056603774
 30
0.0
 11
518.3865833159
 21
513.9056603774
 31
0.0
  0
LINE
  5
E1
330
1F
100
AcDbEntity
  8
0
  6
Continuous
 62
     7
370
    15
100
AcDbLine
 10
518.5053066065
 20
515.2624979842
 30
0.0
 11
518.5053066065
 21
513.9056603774
 31
0.0
  0
LINE
  5
E2
330
1F
100
AcDbEntity
  8
0
  6
Continuous
 62
     7
370
    15
100
AcDbLine
 10
518.3865833159
 20
515.2624979842
 30
0.0
 11
518.5053066065
 21
515.2624979842
 31
0.0
  0
SPLINE
  5
E3
330
1F
100
AcDbEntity
  8
0
  6
Continuous
 62
     7
370
    15
100
AcDbSpline
210
0.0
220
0.0
230
1.0
 70
     8
 71
     3
 72
    23
 73
    19
 74
     0
 42
0.000000001
 43
0.00000001
 40
0.0
 40
0.0
 40
0.0
 40
0.0
 40
0.0683846151037681
 40
0.1344755875434509
 40
0.1983910577839565
 40
0.2607534774484865
 40
0.321829222807649
 40
0.3830372384795246
 40
0.4446531231064264
 40
0.5073980112040047
 40
0.5698252379730248
 40
0.6307776406313128
 40
0.6909286865237168
 40
0.7509451326917356
 40
0.8110494767293276
 40
0.8723308525469933
 40
0.9350040935894052
 40
1.0
 40
1.0
 40
1.0
 40
1.0
 10
516.0460384441039
 20
514.3635930696628
 30
0.0
 10
516.046620378677
 20
514.3508550965694
 30
0.0
 10
516.0477647295443
 20
514.3258063862236
 30
0.0
 10
516.0530999175863
 20
514.2891537390466
 30
0.0
 10
516.0615094243402
 20
514.254238815074
 30
0.0
 10
516.0733283855161
 20
514.2213234986137
 30
0.0
 10
516.087641151431
 20
514.1899778849398
 30
0.0
 10
516.1051738479541
 20
514.1604344959666
 30
0.0
 10
516.1260908817397
 20
514.1328278974061
 30
0.0
 10
516.1494217264476
 20
514.1069111519467
 30
0.0
 10
516.1753913726012
 20
514.083831638053
 30
0.0
 10
516.2027125300331
 20
514.0631745678692
 30
0.0
 10
516.2317764667997
 20
514.045861142915
 30
0.0
 10
516.2623540162156
 20
514.0318080298237
 30
0.0
 10
516.2943957326243
 20
514.0208065353609
 30
0.0
 10
516.3279117111354
 20
514.013296972186
 30
0.0
 10
516.3628359991623
 20
514.0082672026232
 30
0.0
 10
516.3866431069663
 20
514.0077079244076
 30
0.0
 10
516.3987632204127
 20
514.007423197868
 30
0.0
  0
LINE
  5
E4
330
1F
100
AcDbEntity
  8
0
  6
Continuous
 62
     7
370
    15
100
AcDbLine
 10
516.9110224185
 20
514.3635930697
 30
0.0
 11
516.0460384441
 21
514.3635930697
 31
0.0
  0
SPLINE
  5
E5
330
1F
100
AcDbEntity
  8
0
  6
Continuous
 62
     7
370
    15
100
AcDbSpline
210
0.0
220
0.0
230
1.0
 70
     8
 71
     3
 72
    15
 73
    11
 74
     0
 42
0.000000001
 43
0.00000001
 40
0.0
 40
0.0
 40
0.0
 40
0.0
 40
0.1185218400132604
 40
0.2362547631617461
 40
0.3561744339909311
 40
0.477249654898558
 40
0.6015398708217021
 40
0.7296183821680425
 40
0.8621582661414386
 40
1.0
 40
1.0
 40
1.0
 40
1.0
 10
516.805814502464
 20
514.699092368541
 30
0.0
 10
516.8141779583143
 20
514.6876761339099
 30
0.0
 10
516.8308492003478
 20
514.6649196545246
 30
0.0
 10
516.8517312887539
 20
514.627813294549
 30
0.0
 10
516.869858042215
 20
514.588991135375
 30
0.0
 10
516.884346988789
 20
514.5478256361783
 30
0.0
 10
516.8960791812056
 20
514.5048045448631
 30
0.0
 10
516.9045673240032
 20
514.459620309212
 30
0.0
 10
516.9095451262648
 20
514.4122863843822
 30
0.0
 10
516.9105235922269
 20
514.3800349779967
 30
0.0
 10
516.911022418463
 20
514.3635930696628
 30
0.0
  0
SPLINE
  5
E6
330
1F
100
AcDbEntity
  8
0
  6
Continuous
 62
     7
370
    15
100
AcDbSpline
210
0.0
220
0.0
230
1.0
 70
     8
 71
     3
 72
    15
 73
    11
 74
     0
 42
0.000000001
 43
0.00000001
 40
0.0
 40
0.0
 40
0.0
 40
0.0
 40
0.1320402344259815
 40
0.2590328407793702
 40
0.381879823925017
 40
0.5022584437149851
 40
0.6227521895274793
 40
0.7447426318590014
 40
0.8701089273418184
 40
1.0
 40
1.0
 40
1.0
 40
1.0
 10
516.4165187125334
 20
514.8893676423124
 30
0.0
 10
516.4363426585858
 20
514.8888558440702
 30
0.0
 10
516.4752327217828
 20
514.887851812586
 30
0.0
 10
516.5319412913414
 20
514.8785436448986
 30
0.0
 10
516.5855990621766
 20
514.8637827090964
 30
0.0
 10
516.6361845623171
 20
514.8429358894726
 30
0.0
 10
516.6837029203994
 20
514.816039273171
 30
0.0
 10
516.7278452665183
 20
514.7827237557065
 30
0.0
 10
516.7693665227496
 20
514.7440121572613
 30
0.0
 10
516.7935224439229
 20
514.7142415394122
 30
0.0
 10
516.805814502464
 20
514.699092368541
 30
0.0
  0
SPLINE
  5
E7
330
1F
100
AcDbEntity
  8
0
  6
Continuous
 62
     7
370
    15
100
AcDbSpline
210
0.0
220
0.0
230
1.0
 70
     8
 71
     3
 72
    15
 73
    11
 74
     0
 42
0.000000001
 43
0.00000001
 40
0.0
 40
0.0
 40
0.0
 40
0.0
 40
0.1288352544875544
 40
0.2535893349864763
 40
0.3746432573141701
 40
0.4953400422377924
 40
0.6163247746357905
 40
0.7397593354405149
 40
0.8668423203805464
 40
1.0
 40
1.0
 40
1.0
 40
1.0
 10
516.0386182384416
 20
514.7091626476544
 30
0.0
 10
516.050602987586
 20
514.7234761789078
 30
0.0
 10
516.074192839429
 20
514.7516498250602
 30
0.0
 10
516.1140906285062
 20
514.7886681803408
 30
0.0
 10
516.1572933812904
 20
514.8196787739345
 30
0.0
 10
516.2032596804413
 20
514.8453838521772
 30
0.0
 10
516.2525237643869
 20
514.8649152604155
 30
0.0
 10
516.3044234071302
 20
514.8794702096521
 30
0.0
 10
516.3595495662099
 20
514.8876261840605
 30
0.0
 10
516.397235765753
 20
514.8887781926022
 30
0.0
 10
516.4165187125334
 20
514.8893676423124
 30
0.0
  0
SPLINE
  5
E8
330
1F
100
AcDbEntity
  8
0
  6
Continuous
 62
     7
370
    15
100
AcDbSpline
210
0.0
220
0.0
230
1.0
 70
     8
 71
     3
 72
    15
 73
    11
 74
     0
 42
0.000000001
 43
0.00000001
 40
0.0
 40
0.0
 40
0.0
 40
0.0
 40
0.1280448079611198
 40
0.2537679000244897
 40
0.3774284265813011
 40
0.5005508414825327
 40
0.6232958832424765
 40
0.7465783319335079
 40
0.8723475406047168
 40
1.0
 40
1.0
 40
1.0
 40
1.0
 10
515.9273151535057
 20
514.3863837013402
 30
0.0
 10
515.927715483711
 20
514.4012362116468
 30
0.0
 10
515.9285088853111
 20
514.4306719256803
 30
0.0
 10
515.9335098079272
 20
514.474239557095
 30
0.0
 10
515.9423727044141
 20
514.5165836448067
 30
0.0
 10
515.954534588764
 20
514.557739373652
 30
0.0
 10
515.9702399705059
 20
514.5976378350091
 30
0.0
 10
515.9894533390786
 20
514.6363033114382
 30
0.0
 10
516.012204624731
 20
514.6736946589449
 30
0.0
 10
516.0297701889186
 20
514.6972815576975
 30
0.0
 10
516.0386182384416
 20
514.7091626476544
 30
0.0
  0
SPLINE
  5
E9
330
1F
100
AcDbEntity
  8
0
  6
Continuous
 62
     7
370
    15
100
AcDbSpline
210
0.0
220
0.0
230
1.0
 70
     8
 71
     3
 72
    23
 73
    19
 74
     0
 42
0.000000001
 43
0.00000001
 40
0.0
 40
0.0
 40
0.0
 40
0.0
 40
0.0715786576891421
 40
0.139629224692848
 40
0.2047966973966659
 40
0.2681349633966817
 40
0.3298137469867307
 40
0.39130139777456
 40
0.4534335150970542
 40
0.5165516903197667
 40
0.5796312707049233
 40
0.6411189214927528
 40
0.7012940466987744
 40
0.7608103356761335
 40
0.8199317217781439
 40
0.8789195754993824
 40
0.9389828222504466
 40
1.0
 40
1.0
 40
1.0
 40
1.0
 10
516.4136036317375
 20
513.8886999072697
 30
0.0
 10
516.3950291342762
 20
513.8891335122305
 30
0.0
 10
516.3587956707926
 20
513.8899793498931
 30
0.0
 10
516.3060529687589
 20
513.897271442105
 30
0.0
 10
516.2563946766861
 20
513.9091672443493
 30
0.0
 10
516.2098235864304
 20
513.9257851722344
 30
0.0
 10
516.1664537469144
 20
513.9474913334233
 30
0.0
 10
516.1261989595301
 20
513.9739343518431
 30
0.0
 10
516.0888475315976
 20
514.0049783885855
 30
0.0
 10
516.0555764763401
 20
514.0408923419274
 30
0.0
 10
516.0256241754346
 20
514.079325700786
 30
0.0
 10
515.9991938803843
 20
514.1193745023626
 30
0.0
 10
515.9770983632912
 20
514.1609379830417
 30
0.0
 10
515.9591246088422
 20
514.2037515442129
 30
0.0
 10
515.9446084842851
 20
514.2475453373081
 30
0.0
 10
515.9344913075629
 20
514.2927178265381
 30
0.0
 10
515.9286592302007
 20
514.3391467527241
 30
0.0
 10
515.9277655260839
 20
514.3705555671174
 30
0.0
 10
515.9273151535057
 20
514.3863837013402
 30
0.0
  0
SPLINE
  5
EA
330
1F
100
AcDbEntity
  8
0
  6
Continuous
 62
     7
370
    15
100
AcDbSpline
210
0.0
220
0.0
230
1.0
 70
     8
 71
     3
 72
    19
 73
    15
 74
     0
 42
0.000000001
 43
0.00000001
 40
0.0
 40
0.0
 40
0.0
 40
0.0
 40
0.0933698567361952
 40
0.1816607660710049
 40
0.2658742270426188
 40
0.3463547840343077
 40
0.4245998617178937
 40
0.501903183837377
 40
0.579992090987348
 40
0.6584434305294311
 40
0.7386722364878345
 40
0.821894148436244
 40
0.9088007920466156
 40
0.9999999999999999
 40
0.9999999999999999
 40
0.9999999999999999
 40
0.9999999999999999
 10
516.8601410082065
 20
514.1555623037707
 30
0.0
 10
516.8517361046486
 20
514.1406536636756
 30
0.0
 10
516.8353834907273
 20
514.1116473539796
 30
0.0
 10
516.807261779471
 20
514.0717966210036
 30
0.0
 10
516.7777826329905
 20
514.0359464426955
 30
0.0
 10
516.7456153593702
 20
514.0050545793204
 30
0.0
 10
516.7117223557178
 20
513.9781232522616
 30
0.0
 10
516.6759156677483
 20
513.9545610387518
 30
0.0
 10
516.6380088824733
 20
513.9344835027878
 30
0.0
 10
516.5980002067387
 20
513.9175681127882
 30
0.0
 10
516.555553650206
 20
513.904562143289
 30
0.0
 10
516.5105663508486
 20
513.8953757264528
 30
0.0
 10
516.4629521249168
 20
513.8896972885999
 30
0.0
 10
516.4303153247881
 20
513.889037666937
 30
0.0
 10
516.4136036317375
 20
513.8886999072697
 30
0.0
  0
LINE
  5
EB
330
1F
100
AcDbEntity
  8
0
  6
Continuous
 62
     7
370
    15
100
AcDbLine
 10
516.7546680849
 20
514.2109488389
 30
0.0
 11
516.8601410082
 21
514.1555623038
 31
0.0
  0
SPLINE
  5
EC
330
1F
100
AcDbEntity
  8
0
  6
Continuous
 62
     7
370
    15
100
AcDbSpline
210
0.0
220
0.0
230
1.0
 70
     8
 71
     3
 72
    19
 73
    15
 74
     0
 42
0.000000001
 43
0.00000001
 40
0.0
 40
0.0
 40
0.0
 40
0.0
 40
0.0825922633314363
 40
0.1638788940984966
 40
0.2456587396295034
 40
0.327725695354122
 40
0.4086099609103185
 40
0.4857490859539307
 40
0.5591690561972782
 40
0.6302684758575455
 40
0.7053060284320704
 40
0.7920649660966079
 40
0.8897964374100896
 40
1.0
 40
1.0
 40
1.0
 40
1.0
 10
516.3987632204127
 20
514.007423197868
 30
0.0
 10
516.4106132077511
 20
514.0076530288078
 30
0.0
 10
516.4341258558101
 20
514.008109057481
 30
0.0
 10
516.469141894151
 20
514.0125434404741
 30
0.0
 10
516.5035904655193
 20
514.0197137529857
 30
0.0
 10
516.5373289919328
 20
514.0294995528089
 30
0.0
 10
516.5696727342882
 20
514.0414348510755
 30
0.0
 10
516.5996256654126
 20
514.055836824056
 30
0.0
 10
516.6271726516761
 20
514.0717684247594
 30
0.0
 10
516.6529192432131
 20
514.0899905340783
 30
0.0
 10
516.6778925055813
 20
514.1122942238086
 30
0.0
 10
516.7026660049106
 20
514.1401267731109
 30
0.0
 10
516.7292289066284
 20
514.1730437851005
 30
0.0
 10
516.7458559253142
 20
514.197818486229
 30
0.0
 10
516.7546680848625
 20
514.2109488388936
 30
0.0
  0
LINE
  5
ED
330
1F
100
AcDbEntity
  8
0
  6
Continuous
 62
     7
370
    15
100
AcDbLine
 10
515.23193588
 20
513.9056603774
 30
0.0
 11
515.1132125894
 21
513.9056603774
 31
0.0
  0
LINE
  5
EE
330
1F
100
AcDbEntity
  8
0
  6
Continuous
 62
     7
370
    15
100
AcDbLine
 10
515.23193588
 20
514.5501582406
 30
0.0
 11
515.23193588
 21
513.9056603774
 31
0.0
  0
LINE
  5
EF
330
1F
100
AcDbEntity
  8
0
  6
Continuous
 62
     7
370
    15
100
AcDbLine
 10
515.7577104527
 20
514.5501582406
 30
0.0
 11
515.23193588
 21
514.5501582406
 31
0.0
  0
LINE
  5
F0
330
1F
100
AcDbEntity
  8
0
  6
Continuous
 62
     7
370
    15
100
AcDbLine
 10
515.7577104527
 20
514.6858420013
 30
0.0
 11
515.7577104527
 21
514.5501582406
 31
0.0
  0
LINE
  5
F1
330
1F
100
AcDbEntity
  8
0
  6
Continuous
 62
     7
370
    15
100
AcDbLine
 10
515.23193588
 20
514.6858420013
 30
0.0
 11
515.7577104527
 21
514.6858420013
 31
0.0
  0
LINE
  5
F2
330
1F
100
AcDbEntity
  8
0
  6
Continuous
 62
     7
370
    15
100
AcDbLine
 10
515.23193588
 20
515.0928932833
 30
0.0
 11
515.23193588
 21
514.6858420013
 31
0.0
  0
LINE
  5
F3
330
1F
100
AcDbEntity
  8
0
  6
Continuous
 62
     7
370
    15
100
AcDbLine
 10
515.7577104527
 20
515.0928932833
 30
0.0
 11
515.23193588
 21
515.0928932833
 31
0.0
  0
LINE
  5
F4
330
1F
100
AcDbEntity
  8
0
  6
Continuous
 62
     7
370
    15
100
AcDbLine
 10
515.7577104527
 20
515.228577044
 30
0.0
 11
515.7577104527
 21
515.0928932833
 31
0.0
  0
LINE
  5
F5
330
1F
100
AcDbEntity
  8
0
  6
Continuous
 62
     7
370
    15
100
AcDbLine
 10
515.1132125894
 20
515.228577044
 30
0.0
 11
515.7577104527
 21
515.228577044
 31
0.0
  0
LINE
  5
F6
330
1F
100
AcDbEntity
  8
0
  6
Continuous
 62
     7
370
    15
100
AcDbLine
 10
515.1132125894
 20
513.9056603774
 30
0.0
 11
515.1132125894
 21
515.228577044
 31
0.0
  0
LINE
  5
F7
330
1F
100
AcDbEntity
  8
0
  6
Continuous
 62
     7
370
    15
100
AcDbLine
 10
517.2502318202
 20
513.9056603774
 30
0.0
 11
517.1315085296
 21
513.9056603774
 31
0.0
  0
LINE
  5
F8
330
1F
100
AcDbEntity
  8
0
  6
Continuous
 62
     7
370
    15
100
AcDbLine
 10
517.2502318202
 20
515.2624979842
 30
0.0
 11
517.2502318202
 21
513.9056603774
 31
0.0
  0
LINE
  5
F9
330
1F
100
AcDbEntity
  8
0
  6
Continuous
 62
     7
370
    15
100
AcDbLine
 10
517.1315085296
 20
515.2624979842
 30
0.0
 11
517.2502318202
 21
515.2624979842
 31
0.0
  0
LINE
  5
FA
330
1F
100
AcDbEntity
  8
0
  6
Continuous
 62
     7
370
    15
100
AcDbLine
 10
517.1315085296
 20
513.9056603774
 30
0.0
 11
517.1315085296
 21
515.2624979842
 31
0.0
  0
LINE
  5
FB
330
1F
100
AcDbEntity
  8
0
  6
Continuous
 62
     7
370
    15
100
AcDbLine
 10
518.8953974185
 20
513.9056603774
 30
0.0
 11
518.7766741279
 21
513.9056603774
 31
0.0
  0
LINE
  5
FC
330
1F
100
AcDbEntity
  8
0
  6
Continuous
 62
     7
370
    15
100
AcDbLine
 10
519.4381324612
 20
513.9056603774
 30
0.0
 11
519.4381324612
 21
514.3972490025
 31
0.0
  0
LINE
  5
FD
330
1F
100
AcDbEntity
  8
0
  6
Continuous
 62
     7
370
    15
100
AcDbLine
 10
519.5568557518
 20
513.9056603774
 30
0.0
 11
519.4381324612
 21
513.9056603774
 31
0.0
  0
LINE
  5
FE
330
1F
100
AcDbEntity
  8
0
  6
Continuous
 62
     7
370
    15
100
AcDbLine
 10
519.5568557518
 20
514.2817058
 30
0.0
 11
519.5568557518
 21
513.9056603774
 31
0.0
  0
SPLINE
  5
FF
330
1F
100
AcDbEntity
  8
0
  6
Continuous
 62
     7
370
    15
100
AcDbSpline
210
0.0
220
0.0
230
1.0
 70
     8
 71
     3
 72
    11
 73
     7
 74
     0
 42
0.000000001
 43
0.00000001
 40
0.0
 40
0.0
 40
0.0
 40
0.0
 40
0.283594808138694
 40
0.5433948405759664
 40
0.7806456291745597
 40
0.9999999999999999
 40
0.9999999999999999
 40
0.9999999999999999
 40
0.9999999999999999
 10
518.895397418463
 20
514.7043925154427
 30
0.0
 10
518.9060880781032
 20
514.7190911030013
 30
0.0
 10
518.9265724068854
 20
514.7472550059144
 30
0.0
 10
518.9601615076785
 20
514.7843685954917
 30
0.0
 10
518.9937167644787
 20
514.8158646539474
 30
0.0
 10
519.0178820605637
 20
514.8323984179168
 30
0.0
 10
519.0294911350761
 20
514.8403412834716
 30
0.0
  0
LINE
  5
100
330
1F
100
AcDbEntity
  8
0
  6
Continuous
 62
     7
370
    15
100
AcDbLine
 10
518.8953974185
 20
514.8724071722
 30
0.0
 11
518.8953974185
 21
514.7043925154
 31
0.0
  0
LINE
  5
101
330
1F
100
AcDbEntity
  8
0
  6
Continuous
 62
     7
370
    15
100
AcDbLine
 10
518.7766741279
 20
514.8724071722
 30
0.0
 11
518.8953974185
 21
514.8724071722
 31
0.0
  0
LINE
  5
102
330
1F
100
AcDbEntity
  8
0
  6
Continuous
 62
     7
370
    15
100
AcDbLine
 10
518.7766741279
 20
513.9056603774
 30
0.0
 11
518.7766741279
 21
514.8724071722
 31
0.0
  0
CIRCLE
  5
103
330
1F
100
AcDbEntity
  8
0
  6
Continuous
 62
     7
370
    15
100
AcDbCircle
 10
519.395731286
 20
513.9056603774
 30
0.0
 40
6.000000000000227
  0
LINE
  5
104
330
1F
100
AcDbEntity
  8
0
  6
Continuous
 62
     7
370
    15
100
AcDbLine
 10
518.8953974185
 20
514.3124466521
 30
0.0
 11
518.8953974185
 21
513.9056603774
 31
0.0
  0
LINE
  5
105
330
1F
100
AcDbEntity
  8
0
  6
Continuous
 62
     7
370
    15
100
AcDbLine
 10
520.2183140851
 20
513.9056603774
 30
0.0
 11
520.0995907945
 21
513.9056603774
 31
0.0
  0
SPLINE
  5
106
330
1F
100
AcDbEntity
  8
0
  6
Continuous
 62
     7
370
    15
100
AcDbSpline
210
0.0
220
0.0
230
1.0
 70
     8
 71
     3
 72
    11
 73
     7
 74
     0
 42
0.000000001
 43
0.00000001
 40
0.0
 40
0.0
 40
0.0
 40
0.0
 40
0.253734075690661
 40
0.5030351201318565
 40
0.7500135973308792
 40
1.0
 40
1.0
 40
1.0
 40
1.0
 10
519.0294911350761
 20
514.8403412834716
 30
0.0
 10
519.0453149806045
 20
514.8479028352161
 30
0.0
 10
519.0766862105611
 20
514.8628938295468
 30
0.0
 10
519.1263595485524
 20
514.8781011568931
 30
0.0
 10
519.1771877718593
 20
514.8874466564948
 30
0.0
 10
519.2115111146144
 20
514.8887247351439
 30
0.0
 10
519.2287766585805
 20
514.8893676423124
 30
0.0
  0
SPLINE
  5
107
330
1F
100
AcDbEntity
  8
0
  6
Continuous
 62
     7
370
    15
100
AcDbSpline
210
0.0
220
0.0
230
1.0
 70
     8
 71
     3
 72
    19
 73
    15
 74
     0
 42
0.000000001
 43
0.00000001
 40
0.0
 40
0.0
 40
0.0
 40
0.0
 40
0.0841520188443168
 40
0.1665323202984584
 40
0.2488363311465307
 40
0.3312461454872607
 40
0.4129571090216171
 40
0.4904942776695666
 40
0.5661557919819237
 40
0.6399873346864665
 40
0.7167654882718498
 40
0.8021439047100982
 40
0.8958332007101922
 40
1.0
 40
1.0
 40
1.0
 40
1.0
 10
519.2287766585805
 20
514.8893676423124
 30
0.0
 10
519.2404534757355
 20
514.8889725472853
 30
0.0
 10
519.2635612690033
 20
514.8881906754715
 30
0.0
 10
519.2977998982971
 20
514.8831031026516
 30
0.0
 10
519.3310083616982
 20
514.8743090432067
 30
0.0
 10
519.362990450165
 20
514.86205984635
 30
0.0
 10
519.393122968821
 20
514.8472255331415
 30
0.0
 10
519.4207489453515
 20
514.8298198399706
 30
0.0
 10
519.4455533335636
 20
514.81027957635
 30
0.0
 10
519.4675235970044
 20
514.7877223606087
 30
0.0
 10
519.4872800441035
 20
514.7615147772392
 30
0.0
 10
519.5054527033951
 20
514.7309500164929
 30
0.0
 10
519.5222443759307
 20
514.6953417636535
 30
0.0
 10
519.5315506444475
 20
514.6695008389386
 30
0.0
 10
519.5364501862247
 20
514.655896171292
 30
0.0
  0
LINE
  5
108
330
1F
100
AcDbEntity
  8
0
  6
Continuous
 62
     7
370
    15
100
AcDbLine
 10
520.0995907945
 20
513.9056603774
 30
0.0
 11
520.0995907945
 21
514.4298449059
 31
0.0
  0
SPLINE
  5
109
330
1F
100
AcDbEntity
  8
0
  6
Continuous
 62
     7
370
    15
100
AcDbSpline
210
0.0
220
0.0
230
1.0
 70
     8
 71
     3
 72
    23
 73
    19
 74
     0
 42
0.000000001
 43
0.00000001
 40
0.0
 40
0.0
 40
0.0
 40
0.0
 40
0.0686770684130349
 40
0.1368709585090958
 40
0.2061143571452995
 40
0.2775381819697278
 40
0.3497719775548987
 40
0.4212508361555696
 40
0.4929107569233712
 40
0.5670265889927394
 40
0.6066141532413349
 40
0.6497039535189881
 40
0.6973031504846855
 40
0.7490856597091364
 40
0.804880647459309
 40
0.8654850057023367
 40
0.9302371271531362
 40
1.0
 40
1.0
 40
1.0
 40
1.0
 10
519.2081060856639
 20
514.770644351714
 30
0.0
 10
519.1937368628825
 20
514.7700658742672
 30
0.0
 10
519.1650995121545
 20
514.7689129892583
 30
0.0
 10
519.1230300176718
 20
514.7585359274167
 30
0.0
 10
519.0824029884473
 20
514.7422814110645
 30
0.0
 10
519.0438665397962
 20
514.7197314199217
 30
0.0
 10
519.0084599420734
 20
514.691799327714
 30
0.0
 10
518.9774627696139
 20
514.6589475665146
 30
0.0
 10
518.9514041364545
 20
514.6215849853953
 30
0.0
 10
518.9341185992741
 20
514.5867489925457
 30
0.0
 10
518.9229688784009
 20
514.5559162368554
 30
0.0
 10
518.9155623084484
 20
514.5297032298478
 30
0.0
 10
518.9091973308348
 20
514.5005989693364
 30
0.0
 10
518.9044673285836
 20
514.4685136624681
 30
0.0
 10
518.8999012191128
 20
514.4336562846253
 30
0.0
 10
518.8976975010985
 20
514.3958531888123
 30
0.0
 10
518.8955537856414
 20
514.3551368044726
 30
0.0
 10
518.8954508193709
 20
514.3270257531461
 30
0.0
 10
518.895397418463
 20
514.3124466520613
 30
0.0
  0
SPLINE
  5
10A
330
1F
100
AcDbEntity
  8
0
  6
Continuous
 62
     7
370
    15
100
AcDbSpline
210
0.0
220
0.0
230
1.0
 70
     8
 71
     3
 72
    23
 73
    19
 74
     0
 42
0.000000001
 43
0.00000001
 40
0.0
 40
0.0
 40
0.0
 40
0.0
 40
0.0825297038220665
 40
0.1587788549175701
 40
0.2277380621151794
 40
0.289945652796676
 40
0.3454988386981375
 40
0.3938963373401232
 40
0.4363737851900879
 40
0.4721222744615227
 40
0.5363836155048269
 40
0.5990779017254959
 40
0.661948234024458
 40
0.7263105423531546
 40
0.7917711030502105
 40
0.8586473037978581
 40
0.9273053338076842
 40
1.0
 40
1.0
 40
1.0
 40
1.0
 10
519.4381324611979
 20
514.3972490024887
 30
0.0
 10
519.4381024381802
 20
514.4111182033315
 30
0.0
 10
519.4380446769115
 20
514.4378011517302
 30
0.0
 10
519.4370330926879
 20
514.4760650706721
 30
0.0
 10
519.4351104707968
 20
514.5108695265405
 30
0.0
 10
519.4328877635274
 20
514.54217406793
 30
0.0
 10
519.4296900174804
 20
514.5699218023127
 30
0.0
 10
519.4260577562068
 20
514.5942614876292
 30
0.0
 10
519.4217682516327
 20
514.6151321048541
 30
0.0
 10
519.4146661226241
 20
514.638023622347
 30
0.0
 10
519.4038127372885
 20
514.6632425426416
 30
0.0
 10
519.3863546739776
 20
514.6901321548147
 30
0.0
 10
519.3645803802026
 20
514.7136680131044
 30
0.0
 10
519.3390401979563
 20
514.7337607543286
 30
0.0
 10
519.3103118597475
 20
514.7503695880337
 30
0.0
 10
519.2785681338464
 20
514.7623362204054
 30
0.0
 10
519.2440948483398
 20
514.7693001632091
 30
0.0
 10
519.2203285725944
 20
514.7701878390359
 30
0.0
 10
519.2081060856639
 20
514.770644351714
 30
0.0
  0
SPLINE
  5
10B
330
1F
100
AcDbEntity
  8
0
  6
Continuous
 62
     7
370
    15
100
AcDbSpline
210
0.0
220
0.0
230
1.0
 70
     8
 71
     3
 72
    23
 73
    19
 74
     0
 42
0.000000001
 43
0.00000001
 40
0.0
 40
0.0
 40
0.0
 40
0.0
 40
0.078342985193701
 40
0.1505633028794202
 40
0.216151056659977
 40
0.2756797924514263
 40
0.3287070503654625
 40
0.3759044348322083
 40
0.4173018977400331
 40
0.4526927480535834
 40
0.5172652917530132
 40
0.5812165680623068
 40
0.645321893972802
 40
0.712024493379763
 40
0.7801300447160445
 40
0.8502182262116653
 40
0.922648521734738
 40
1.0
 40
1.0
 40
1.0
 40
1.0
 10
520.0995907945313
 20
514.4298449059341
 30
0.0
 10
520.0995613566207
 20
514.4422125038212
 30
0.0
 10
520.0995047814337
 20
514.4659811460546
 30
0.0
 10
520.0984866528364
 20
514.5000944237432
 30
0.0
 10
520.0965683049642
 20
514.5311899040106
 30
0.0
 10
520.0943251528112
 20
514.5592251873268
 30
0.0
 10
520.0912091891465
 20
514.5842656520265
 30
0.0
 10
520.0871852804254
 20
514.6062610007114
 30
0.0
 10
520.0829225859399
 20
514.6253842567912
 30
0.0
 10
520.0758408273957
 20
514.6465834474011
 30
0.0
 10
520.06452123741
 20
514.6699689138636
 30
0.0
 10
520.047278916088
 20
514.6951888368576
 30
0.0
 10
520.0255565842557
 20
514.7171419964507
 30
0.0
 10
520.0004740250786
 20
514.7361989197718
 30
0.0
 10
519.9719185117569
 20
514.7516935400678
 30
0.0
 10
519.940446428894
 20
514.7627591746875
 30
0.0
 10
519.9062531712973
 20
514.7696091912302
 30
0.0
 10
519.8825832482968
 20
514.7702918221178
 30
0.0
 10
519.8703594410324
 20
514.770644351714
 30
0.0
  0
LINE
  5
10C
330
1F
100
AcDbEntity
  8
0
  6
Continuous
 62
     7
370
    15
100
AcDbLine
 10
520.2183140851
 20
514.4293148912
 30
0.0
 11
520.2183140851
 21
513.9056603774
 31
0.0
  0
SPLINE
  5
10D
330
1F
100
AcDbEntity
  8
0
  6
Continuous
 62
     7
370
    15
100
AcDbSpline
210
0.0
220
0.0
230
1.0
 70
     8
 71
     3
 72
    23
 73
    19
 74
     0
 42
0.000000001
 43
0.00000001
 40
0.0
 40
0.0
 40
0.0
 40
0.0
 40
0.0681582441559978
 40
0.1347066022023566
 40
0.2018649976035982
 40
0.2707882662774627
 40
0.3400242943604918
 40
0.4080827390537217
 40
0.4768131952581443
 40
0.5473460643070951
 40
0.5856397954238958
 40
0.6288649531777643
 40
0.6771532033637913
 40
0.7308028113651059
 40
0.7898066155325021
 40
0.8543250087420141
 40
0.9243651340575436
 40
1.0
 40
1.0
 40
1.0
 40
1.0
 10
519.8703594410324
 20
514.770644351714
 30
0.0
 10
519.855365142802
 20
514.77010907794
 30
0.0
 10
519.8257307091097
 20
514.7690511734672
 30
0.0
 10
519.7824730402156
 20
514.7582509298173
 30
0.0
 10
519.7409066142957
 20
514.7419676207883
 30
0.0
 10
519.7022717277437
 20
514.7183696384827
 30
0.0
 10
519.6667314616475
 20
514.6900938580982
 30
0.0
 10
519.636153347425
 20
514.6564730287487
 30
0.0
 10
519.6108923724873
 20
514.6184373123178
 30
0.0
 10
519.5937874470573
 20
514.5832300766211
 30
0.0
 10
519.5829813718844
 20
514.5516050189636
 30
0.0
 10
519.5758463471832
 20
514.523975952762
 30
0.0
 10
519.5702963748122
 20
514.4925730982536
 30
0.0
 10
519.56509144264
 20
514.4576074692663
 30
0.0
 10
519.5616942954622
 20
514.4188383832404
 30
0.0
 10
519.5586068452086
 20
514.3764451781005
 30
0.0
 10
519.5571626500379
 20
514.3303003481947
 30
0.0
 10
519.556960637352
 20
514.2983134748199
 30
0.0
 10
519.5568557517963
 20
514.2817058000314
 30
0.0
  0
SPLINE
  5
10E
330
1F
100
AcDbEntity
  8
0
  6
Continuous
 62
     7
370
    15
100
AcDbSpline
210
0.0
220
0.0
230
1.0
 70
     8
 71
     3
 72
    19
 73
    15
 74
     0
 42
0.000000001
 43
0.00000001
 40
0.0
 40
0.0
 40
0.0
 40
0.0
 40
0.0717660641583407
 40
0.1412255357663695
 40
0.2091158524974625
 40
0.2748396534685271
 40
0.3394829303752205
 40
0.4024762667354
 40
0.4649418891713276
 40
0.5268326406463836
 40
0.6474148160608225
 40
0.7655615117859493
 40
0.8816150870393313
 40
0.9999999999999999
 40
0.9999999999999999
 40
0.9999999999999999
 40
0.9999999999999999
 10
519.5364501862247
 20
514.655896171292
 30
0.0
 10
519.5416327127788
 20
514.6652414131014
 30
0.0
 10
519.551831197227
 20
514.6836315365792
 30
0.0
 10
519.5689556493347
 20
514.7096583202255
 30
0.0
 10
519.5868973462179
 20
514.734002554048
 30
0.0
 10
519.6058091932974
 20
514.7566835537355
 30
0.0
 10
519.6256244389187
 20
514.7775893149336
 30
0.0
 10
519.6464363372464
 20
514.7967889563326
 30
0.0
 10
519.6681264183203
 20
514.8143649299575
 30
0.0
 10
519.698285985192
 20
514.8348977908452
 30
0.0
 10
519.7375246790555
 20
514.8567074635625
 30
0.0
 10
519.7869972700277
 20
514.8756170242444
 30
0.0
 10
519.8384587932176
 20
514.8873025846658
 30
0.0
 10
519.8733904827563
 20
514.8886747413627
 30
0.0
 10
519.891030013949
 20
514.8893676423124
 30
0.0
  0
LINE
  5
10F
330
1F
100
AcDbEntity
  8
0
  6
Continuous
 62
     7
370
    15
100
AcDbLine
 10
521.3546655809
 20
514.6935272143
 30
0.0
 11
521.3546655809
 21
514.8724071722
 31
0.0
  0
LINE
  5
110
330
1F
100
AcDbEntity
  8
0
  6
Continuous
 62
     7
370
    15
100
AcDbLine
 10
521.4733888715
 20
513.9056603774
 30
0.0
 11
521.3546655809
 21
513.9056603774
 31
0.0
  0
LINE
  5
111
330
1F
100
AcDbEntity
  8
0
  6
Continuous
 62
     7
370
    15
100
AcDbLine
 10
521.8634796834
 20
514.2552050655
 30
0.0
 11
521.8634796834
 21
513.9056603774
 31
0.0
  0
SPLINE
  5
112
330
1F
100
AcDbEntity
  8
0
  6
Continuous
 62
     7
370
    15
100
AcDbSpline
210
0.0
220
0.0
230
1.0
 70
     8
 71
     3
 72
    23
 73
    19
 74
     0
 42
0.000000001
 43
0.00000001
 40
0.0
 40
0.0
 40
0.0
 40
0.0
 40
0.0756043304957459
 40
0.1479650154827366
 40
0.2187969985237005
 40
0.2894704453213774
 40
0.3597242180875002
 40
0.4297077387530454
 40
0.5004965198485857
 40
0.5744290198679489
 40
0.6139472962286697
 40
0.657155269826111
 40
0.7039727697209368
 40
0.7549389848168006
 40
0.8097066112894876
 40
0.8688329536985496
 40
0.9323854739325979
 40
1.0
 40
1.0
 40
1.0
 40
1.0
 10
519.891030013949
 20
514.8893676423124
 30
0.0
 10
519.9072381859072
 20
514.8887563713334
 30
0.0
 10
519.9389591521405
 20
514.887560054677
 30
0.0
 10
519.9851392495974
 20
514.8781660335056
 30
0.0
 10
520.0282065391099
 20
514.8620348990296
 30
0.0
 10
520.0680743625279
 20
514.8400239709212
 30
0.0
 10
520.1040425062868
 20
514.8123639819937
 30
0.0
 10
520.1353073017223
 20
514.7794540344416
 30
0.0
 10
520.1616788378642
 20
514.7415269120535
 30
0.0
 10
520.1789064784639
 20
514.7058489877554
 30
0.0
 10
520.1905917122651
 20
514.6743502161133
 30
0.0
 10
520.1977964050013
 20
514.6475115286248
 30
0.0
 10
520.204161408799
 20
514.6179721023723
 30
0.0
 10
520.2094459866216
 20
514.5856966166256
 30
0.0
 10
520.2133083560149
 20
514.5505710593206
 30
0.0
 10
520.2161699062142
 20
514.5126529127815
 30
0.0
 10
520.2181066840175
 20
514.4719127069006
 30
0.0
 10
520.2182435387116
 20
514.4438043184218
 30
0.0
 10
520.2183140851297
 20
514.4293148912441
 30
0.0
  0
LINE
  5
113
330
1F
100
AcDbEntity
  8
0
  6
Continuous
 62
     7
370
    15
100
AcDbLine
 10
521.3546655809
 20
513.9056603774
 30
0.0
 11
521.3546655809
 21
514.0728800121
 31
0.0
  0
LINE
  5
114
330
1F
100
AcDbEntity
  8
0
  6
Continuous
 62
     7
370
    15
100
AcDbLine
 10
521.3546655809
 20
514.8724071722
 30
0.0
 11
521.4733888715
 21
514.8724071722
 31
0.0
  0
LINE
  5
115
330
1F
100
AcDbEntity
  8
0
  6
Continuous
 62
     7
370
    15
100
AcDbLine
 10
521.7447563928
 20
513.9056603774
 30
0.0
 11
521.7447563928
 21
514.8724071722
 31
0.0
  0
LINE
  5
116
330
1F
100
AcDbEntity
  8
0
  6
Continuous
 62
     7
370
    15
100
AcDbLine
 10
521.8634796834
 20
513.9056603774
 30
0.0
 11
521.7447563928
 21
513.9056603774
 31
0.0
  0
LINE
  5
117
330
1F
100
AcDbEntity
  8
0
  6
Continuous
 62
     7
370
    15
100
AcDbLine
 10
521.4733888715
 20
514.8724071722
 30
0.0
 11
521.4733888715
 21
513.9056603774
 31
0.0
  0
LINE
  5
118
330
1F
100
AcDbEntity
  8
0
  6
Continuous
 62
     7
370
    15
100
AcDbLine
 10
521.7447563928
 20
514.8724071722
 30
0.0
 11
521.8634796834
 21
514.8724071722
 31
0.0
  0
LINE
  5
119
330
1F
100
AcDbEntity
  8
0
  6
Continuous
 62
     7
370
    15
100
AcDbLine
 10
521.8634796834
 20
514.8724071722
 30
0.0
 11
521.8634796834
 21
514.6980323392
 31
0.0
  0
SPLINE
  5
11A
330
1F
100
AcDbEntity
  8
0
  6
Continuous
 62
     7
370
    15
100
AcDbSpline
210
0.0
220
0.0
230
1.0
 70
     8
 71
     3
 72
    15
 73
    11
 74
     0
 42
0.000000001
 43
0.00000001
 40
0.0
 40
0.0
 40
0.0
 40
0.0
 40
0.0769954547170576
 40
0.1676150771831735
 40
0.2710523936342344
 40
0.3894595025720742
 40
0.5208428024655765
 40
0.6663987586080736
 40
0.8260936125153157
 40
1.0
 40
1.0
 40
1.0
 40
1.0
 10
521.8817651902311
 20
514.5146472563615
 30
0.0
 10
521.8802760968706
 20
514.5081252004453
 30
0.0
 10
521.8770344185214
 20
514.4939270258933
 30
0.0
 10
521.8735331570866
 20
514.4706269030902
 30
0.0
 10
521.8703552937652
 20
514.4436734303997
 30
0.0
 10
521.867695490954
 20
514.4130980605601
 30
0.0
 10
521.8660681460381
 20
514.3787937446675
 30
0.0
 10
521.864293775829
 20
514.3409069845452
 30
0.0
 10
521.8636477914379
 20
514.2992867076963
 30
0.0
 10
521.86353728858
 20
514.2703104131248
 30
0.0
 10
521.8634796834202
 20
514.2552050655229
 30
0.0
  0
SPLINE
  5
11B
330
1F
100
AcDbEntity
  8
0
  6
Continuous
 62
     7
370
    15
100
AcDbSpline
210
0.0
220
0.0
230
1.0
 70
     8
 71
     3
 72
    15
 73
    11
 74
     0
 42
0.000000001
 43
0.00000001
 40
0.0
 40
0.0
 40
0.0
 40
0.0
 40
0.1298621417207367
 40
0.2546535308972871
 40
0.3760145541937124
 40
0.4952552518176077
 40
0.6147977192994577
 40
0.7381055541683327
 40
0.8651963000723575
 40
1.0
 40
1.0
 40
1.0
 40
1.0
 10
520.96351473951
 20
514.8893676423124
 30
0.0
 10
520.983245043382
 20
514.8888242064618
 30
0.0
 10
521.0219352380769
 20
514.8877585544068
 30
0.0
 10
521.0785288606272
 20
514.8788902021166
 30
0.0
 10
521.1320671007873
 20
514.8639078053051
 30
0.0
 10
521.1829632397985
 20
514.8435282748022
 30
0.0
 10
521.2310345110308
 20
514.8164467611313
 30
0.0
 10
521.2758258176026
 20
514.7822852877682
 30
0.0
 10
521.3178059258767
 20
514.7412593034076
 30
0.0
 10
521.3421401432597
 20
514.7097472604087
 30
0.0
 10
521.3546655808561
 20
514.6935272142942
 30
0.0
  0
SPLINE
  5
11C
330
1F
100
AcDbEntity
  8
0
  6
Continuous
 62
     7
370
    15
100
AcDbSpline
210
0.0
220
0.0
230
1.0
 70
     8
 71
     3
 72
    23
 73
    19
 74
     0
 42
0.000000001
 43
0.00000001
 40
0.0
 40
0.0
 40
0.0
 40
0.0
 40
0.063774532305632
 40
0.1260788099895058
 40
0.1869040927472074
 40
0.2475739349176196
 40
0.3080033561644469
 40
0.3691318984609777
 40
0.4320332277442044
 40
0.4967907944370909
 40
0.5616108232295652
 40
0.6249138657484625
 40
0.6867263492419248
 40
0.7480788332577711
 40
0.8095822911398957
 40
0.8716307425688274
 40
0.9348858208285538
 40
1.0
 40
1.0
 40
1.0
 40
1.0
 10
520.4557606663262
 20
514.3916838482419
 30
0.0
 10
520.4562342596771
 20
514.4084900695315
 30
0.0
 10
520.4571705281832
 20
514.4417150623933
 30
0.0
 10
520.4641454059205
 20
514.4905793321677
 30
0.0
 10
520.47587438836
 20
514.5376442700044
 30
0.0
 10
520.4923344379242
 20
514.582758352711
 30
0.0
 10
520.51344136733
 20
514.625976169285
 30
0.0
 10
520.5391165668884
 20
514.667328285883
 30
0.0
 10
520.5693618908074
 20
514.7069286236141
 30
0.0
 10
520.6042311041737
 20
514.7438460218463
 30
0.0
 10
520.6420040678958
 20
514.7779472659302
 30
0.0
 10
520.6824130227358
 20
514.8075840182254
 30
0.0
 10
520.7244527749018
 20
514.8331793747718
 30
0.0
 10
520.7687754009028
 20
514.853459111352
 30
0.0
 10
520.8147248720676
 20
514.8698667193197
 30
0.0
 10
520.862710251859
 20
514.881218466191
 30
0.0
 10
520.9125318902273
 20
514.887907632255
 30
0.0
 10
520.9463571655018
 20
514.8888762960859
 30
0.0
 10
520.96351473951
 20
514.8893676423124
 30
0.0
  0
SPLINE
  5
11D
330
1F
100
AcDbEntity
  8
0
  6
Continuous
 62
     7
370
    15
100
AcDbSpline
210
0.0
220
0.0
230
1.0
 70
     8
 71
     3
 72
    23
 73
    19
 74
     0
 42
0.000000001
 43
0.00000001
 40
0.0
 40
0.0
 40
0.0
 40
0.0
 40
0.064619991340768
 40
0.1274334841444695
 40
0.1890041265579399
 40
0.249930070686047
 40
0.310668453740672
 40
0.3723289611368242
 40
0.4349391099970084
 40
0.499575544194034
 40
0.5641912077719239
 40
0.6267352169294786
 40
0.6881093335614016
 40
0.7492936065367515
 40
0.8103305278109454
 40
0.8719011702244159
 40
0.9350459146845316
 40
1.0
 40
1.0
 40
1.0
 40
1.0
 10
520.9598046366788
 20
513.8886999072697
 30
0.0
 10
520.9427322255575
 20
513.8891634467881
 30
0.0
 10
520.9090646749005
 20
513.8900775672428
 30
0.0
 10
520.8595388034819
 20
513.8971692712889
 30
0.0
 10
520.8118789353853
 20
513.908557928874
 30
0.0
 10
520.7660400344089
 20
513.9243954674616
 30
0.0
 10
520.7223187175334
 20
513.9454036946879
 30
0.0
 10
520.6803406452793
 20
513.9705547021322
 30
0.0
 10
520.6403232884745
 20
514.0005058492162
 30
0.0
 10
520.6028766055923
 20
514.0347459670758
 30
0.0
 10
520.5683930816407
 20
514.0719369294934
 30
0.0
 10
520.5381318268104
 20
514.1116038475087
 30
0.0
 10
520.5129007519843
 20
514.1535751945157
 30
0.0
 10
520.4918020905264
 20
514.1973195711344
 30
0.0
 10
520.4755504960503
 20
514.2431737222678
 30
0.0
 10
520.4642211759588
 20
514.290979080388
 30
0.0
 10
520.457137733307
 20
514.3406791218747
 30
0.0
 10
520.4562239907268
 20
514.3745229297115
 30
0.0
 10
520.4557606663262
 20
514.3916838482419
 30
0.0
  0
SPLINE
  5
11E
330
1F
100
AcDbEntity
  8
0
  6
Continuous
 62
     7
370
    15
100
AcDbSpline
210
0.0
220
0.0
230
1.0
 70
     8
 71
     3
 72
    15
 73
    11
 74
     0
 42
0.000000001
 43
0.00000001
 40
0.0
 40
0.0
 40
0.0
 40
0.0
 40
0.1342983790141676
 40
0.2620849753823007
 40
0.3862699121345
 40
0.5071645966228001
 40
0.6273002357255062
 40
0.748144941602994
 40
0.8723701771613523
 40
0.9999999999999999
 40
0.9999999999999999
 40
0.9999999999999999
 40
0.9999999999999999
 10
521.3546655808561
 20
514.0728800121041
 30
0.0
 10
521.341278121304
 20
514.0577459989116
 30
0.0
 10
521.3151523256472
 20
514.0282117818639
 30
0.0
 10
521.271518331652
 20
513.9896271511903
 30
0.0
 10
521.2252660739329
 20
513.9577341546559
 30
0.0
 10
521.1766200388627
 20
513.9319751091381
 30
0.0
 10
521.1256241552176
 20
513.9126257307012
 30
0.0
 10
521.0723914674674
 20
513.8988726288886
 30
0.0
 10
521.0169002610091
 20
513.8900303161897
 30
0.0
 10
520.9790072578594
 20
513.8891473555427
 30
0.0
 10
520.9598046366788
 20
513.8886999072697
 30
0.0
  0
LINE
  5
11F
330
1F
100
AcDbEntity
  8
0
  6
Continuous
 62
     7
370
    15
100
AcDbLine
 10
522.5927798971
 20
513.9056603774
 30
0.0
 11
522.4740566065
 21
513.9056603774
 31
0.0
  0
LINE
  5
120
330
1F
100
AcDbEntity
  8
0
  6
Continuous
 62
     7
370
    15
100
AcDbLine
 10
522.4740566065
 20
513.9056603774
 30
0.0
 11
522.4740566065
 21
514.3604129815
 31
0.0
  0
LINE
  5
121
330
1F
100
AcDbEntity
  8
0
  6
Continuous
 62
     7
370
    15
100
AcDbLine
 10
522.9828707091
 20
513.9056603774
 30
0.0
 11
522.8641474185
 21
513.9056603774
 31
0.0
  0
SPLINE
  5
122
330
1F
100
AcDbEntity
  8
0
  6
Continuous
 62
     7
370
    15
100
AcDbSpline
210
0.0
220
0.0
230
1.0
 70
     8
 71
     3
 72
    15
 73
    11
 74
     0
 42
0.000000001
 43
0.00000001
 40
0.0
 40
0.0
 40
0.0
 40
0.0
 40
0.1355195283706055
 40
0.2608331631936792
 40
0.3784760291245037
 40
0.4931776464746772
 40
0.6092809649289387
 40
0.7299810378566467
 40
0.8592613089300667
 40
1.0
 40
1.0
 40
1.0
 40
1.0
 10
522.4600112172076
 20
514.5803690779428
 30
0.0
 10
522.455995019287
 20
514.5953789603486
 30
0.0
 10
522.4482650808773
 20
514.6242683400131
 30
0.0
 10
522.429164438446
 20
514.6634547768672
 30
0.0
 10
522.4050441974937
 20
514.6967915919098
 30
0.0
 10
522.3756006651444
 20
514.7240726741904
 30
0.0
 10
522.3411182466731
 20
514.745303913064
 30
0.0
 10
522.3016926302103
 20
514.7600351399996
 30
0.0
 10
522.2577042749562
 20
514.7692487893694
 30
0.0
 10
522.2267652672194
 20
514.7701661874823
 30
0.0
 10
522.2106393054822
 20
514.770644351714
 30
0.0
  0
LINE
  5
123
330
1F
100
AcDbEntity
  8
0
  6
Continuous
 62
     7
370
    15
100
AcDbLine
 10
522.9828707091
 20
514.2552050655
 30
0.0
 11
522.9828707091
 21
513.9056603774
 31
0.0
  0
LINE
  5
124
330
1F
100
AcDbEntity
  8
0
  6
Continuous
 62
     7
370
    15
100
AcDbLine
 10
522.8641474185
 20
514.8724071722
 30
0.0
 11
522.9828707091
 21
514.8724071722
 31
0.0
  0
LINE
  5
125
330
1F
100
AcDbEntity
  8
0
  6
Continuous
 62
     7
370
    15
100
AcDbLine
 10
522.5927798971
 20
514.3993690612
 30
0.0
 11
522.5927798971
 21
513.9056603774
 31
0.0
  0
LINE
  5
126
330
1F
100
AcDbEntity
  8
0
  6
Continuous
 62
     7
370
    15
100
AcDbLine
 10
522.8641474185
 20
513.9056603774
 30
0.0
 11
522.8641474185
 21
514.8724071722
 31
0.0
  0
LINE
  5
127
330
1F
100
AcDbEntity
  8
0
  6
Continuous
 62
     7
370
    15
100
AcDbLine
 10
522.9828707091
 20
514.8724071722
 30
0.0
 11
522.9828707091
 21
514.6980323392
 31
0.0
  0
LINE
  5
128
330
1F
100
AcDbEntity
  8
0
  6
Continuous
 62
     7
370
    15
100
AcDbLine
 10
523.7121709227
 20
514.3993690612
 30
0.0
 11
523.7121709227
 21
513.9056603774
 31
0.0
  0
SPLINE
  5
129
330
1F
100
AcDbEntity
  8
0
  6
Continuous
 62
     7
370
    15
100
AcDbSpline
210
0.0
220
0.0
230
1.0
 70
     8
 71
     3
 72
    15
 73
    11
 74
     0
 42
0.000000001
 43
0.00000001
 40
0.0
 40
0.0
 40
0.0
 40
0.0
 40
0.0769954547170576
 40
0.1676150771831735
 40
0.2710523936342344
 40
0.3894595025720742
 40
0.5208428024655765
 40
0.6663987586080736
 40
0.8260936125153157
 40
1.0
 40
1.0
 40
1.0
 40
1.0
 10
523.0011562158721
 20
514.5146472563615
 30
0.0
 10
522.9996671225116
 20
514.5081252004453
 30
0.0
 10
522.9964254441625
 20
514.4939270258933
 30
0.0
 10
522.9929241827277
 20
514.4706269030902
 30
0.0
 10
522.9897463194062
 20
514.4436734303997
 30
0.0
 10
522.987086516595
 20
514.4130980605601
 30
0.0
 10
522.985459171679
 20
514.3787937446675
 30
0.0
 10
522.98368480147
 20
514.3409069845452
 30
0.0
 10
522.9830388170789
 20
514.2992867076963
 30
0.0
 10
522.982928314221
 20
514.2703104131248
 30
0.0
 10
522.9828707090612
 20
514.2552050655229
 30
0.0
  0
SPLINE
  5
12A
330
1F
100
AcDbEntity
  8
0
  6
Continuous
 62
     7
370
    15
100
AcDbSpline
210
0.0
220
0.0
230
1.0
 70
     8
 71
     3
 72
    15
 73
    11
 74
     0
 42
0.000000001
 43
0.00000001
 40
0.0
 40
0.0
 40
0.0
 40
0.0
 40
0.1788500194111599
 40
0.3421096489422996
 40
0.4898256633683922
 40
0.6232544282245644
 40
0.7400796760857924
 40
0.8414826730699855
 40
0.9289076721840651
 40
1.0
 40
1.0
 40
1.0
 40
1.0
 10
522.4740566064971
 20
514.3604129815218
 30
0.0
 10
522.4739835784661
 20
514.373575036599
 30
0.0
 10
522.4738438882714
 20
514.3987518079333
 30
0.0
 10
522.4734033015782
 20
514.4347990280081
 30
0.0
 10
522.4723412615824
 20
514.4674888954402
 30
0.0
 10
522.4708488933076
 20
514.4967432575249
 30
0.0
 10
522.4686645573635
 20
514.5225340231308
 30
0.0
 10
522.4663881461092
 20
514.5449137199931
 30
0.0
 10
522.4636043602366
 20
514.5638539339484
 30
0.0
 10
522.4611237353305
 20
514.575255616873
 30
0.0
 10
522.4600112172076
 20
514.5803690779428
 30
0.0
  0
SPLINE
  5
12B
330
1F
100
AcDbEntity
  8
0
  6
Continuous
 62
     7
370
    15
100
AcDbSpline
210
0.0
220
0.0
230
1.0
 70
     8
 71
     3
 72
    15
 73
    11
 74
     0
 42
0.000000001
 43
0.00000001
 40
0.0
 40
0.0
 40
0.0
 40
0.0
 40
0.140975966268771
 40
0.2735687809631695
 40
0.3989883138042537
 40
0.5199297813924317
 40
0.6381100215247456
 40
0.7565889007405953
 40
0.8768597544106078
 40
1.0
 40
1.0
 40
1.0
 40
1.0
 10
521.8634796834202
 20
514.6980323391607
 30
0.0
 10
521.876156110985
 20
514.713847892138
 30
0.0
 10
521.9007551609342
 20
514.744538524469
 30
0.0
 10
521.9417218583329
 20
514.7848763606867
 30
0.0
 10
521.9850167254191
 20
514.8181175618197
 30
0.0
 10
522.0303746255468
 20
514.8446151267926
 30
0.0
 10
522.0778571323405
 20
514.8645898932239
 30
0.0
 10
522.127174811761
 20
514.8790157064616
 30
0.0
 10
522.1786229298359
 20
514.8876656267727
 30
0.0
 10
522.2136100830589
 20
514.88879586263
 30
0.0
 10
522.2313098783989
 20
514.8893676423124
 30
0.0
  0
SPLINE
  5
12C
330
1F
100
AcDbEntity
  8
0
  6
Continuous
 62
     7
370
    15
100
AcDbSpline
210
0.0
220
0.0
230
1.0
 70
     8
 71
     3
 72
    23
 73
    19
 74
     0
 42
0.000000001
 43
0.00000001
 40
0.0
 40
0.0
 40
0.0
 40
0.0
 40
0.0639861098164676
 40
0.1266268580894775
 40
0.1889843719814873
 40
0.2502301939603977
 40
0.3123511629623219
 40
0.3745736184579385
 40
0.438147530878204
 40
0.5029204126073703
 40
0.5679740951402716
 40
0.6307713337491904
 40
0.6929346089254587
 40
0.7543975343123295
 40
0.8152183520172954
 40
0.8761169254810907
 40
0.9380146047939529
 40
0.9999999999999999
 40
0.9999999999999999
 40
0.9999999999999999
 40
0.9999999999999999
 10
522.2106393054822
 20
514.770644351714
 30
0.0
 10
522.201088722691
 20
514.7704644332847
 30
0.0
 10
522.18218836611
 20
514.7701083793617
 30
0.0
 10
522.154161442205
 20
514.7665360137398
 30
0.0
 10
522.1269758172241
 20
514.7606930855821
 30
0.0
 10
522.1003586548957
 20
514.7528052374798
 30
0.0
 10
522.0748423161923
 20
514.7419715821486
 30
0.0
 10
522.0496070037522
 20
514.7296762547123
 30
0.0
 10
522.025602958977
 20
514.7143499960156
 30
0.0
 10
522.0023183416098
 20
514.6972690170785
 30
0.0
 10
521.9806554649076
 20
514.6783402691199
 30
0.0
 10
521.9604986227107
 20
514.6583663024848
 30
0.0
 10
521.9425303829134
 20
514.6370954641451
 30
0.0
 10
521.9262514491008
 20
514.6148704839778
 30
0.0
 10
521.9121989507408
 20
514.5913861285444
 30
0.0
 10
521.8999324561458
 20
514.5668689650837
 30
0.0
 10
521.8895246191264
 20
514.541286724308
 30
0.0
 10
521.8843528871512
 20
514.5235312696167
 30
0.0
 10
521.8817651902311
 20
514.5146472563615
 30
0.0
  0
LINE
  5
12D
330
1F
100
AcDbEntity
  8
0
  6
Continuous
 62
     7
370
    15
100
AcDbLine
 10
523.7121709227
 20
513.9056603774
 30
0.0
 11
523.5934476321
 21
513.9056603774
 31
0.0
  0
SPLINE
  5
12E
330
1F
100
AcDbEntity
  8
0
  6
Continuous
 62
     7
370
    15
100
AcDbSpline
210
0.0
220
0.0
230
1.0
 70
     8
 71
     3
 72
    23
 73
    19
 74
     0
 42
0.000000001
 43
0.00000001
 40
0.0
 40
0.0
 40
0.0
 40
0.0
 40
0.0772404236164789
 40
0.151178140466383
 40
0.2234879838003995
 40
0.29554264419887
 40
0.3669762546197899
 40
0.4371305254863862
 40
0.5070436156432692
 40
0.578559733523678
 40
0.6166135446965534
 40
0.658756236977529
 40
0.7044912261144044
 40
0.75480311490515
 40
0.8093316253185657
 40
0.868274455472821
 40
0.932072883409294
 40
1.0
 40
1.0
 40
1.0
 40
1.0
 10
522.2313098783989
 20
514.8893676423124
 30
0.0
 10
522.249199731175
 20
514.8887079999879
 30
0.0
 10
522.2842144883358
 20
514.8874169208441
 30
0.0
 10
522.3351951841557
 20
514.8772052548586
 30
0.0
 10
522.3828101276029
 20
514.8597634471181
 30
0.0
 10
522.4268895430347
 20
514.8358707895551
 30
0.0
 10
522.4666251266568
 20
514.8061594141911
 30
0.0
 10
522.5015217223041
 20
514.7715451931095
 30
0.0
 10
522.5303852116402
 20
514.7317306616484
 30
0.0
 10
522.5497365958693
 20
514.6947936353328
 30
0.0
 10
522.5624840877049
 20
514.6620273351166
 30
0.0
 10
522.5705094057532
 20
514.633963831359
 30
0.0
 10
522.5773246874359
 20
514.6026983396969
 30
0.0
 10
522.583233116002
 20
514.5683253402626
 30
0.0
 10
522.587231012452
 20
514.5306040004946
 30
0.0
 10
522.5903842000248
 20
514.4896889502246
 30
0.0
 10
522.5926440041159
 20
514.4455934425671
 30
0.0
 10
522.5927336627091
 20
514.4150958185163
 30
0.0
 10
522.5927798970954
 20
514.3993690612493
 30
0.0
  0
SPLINE
  5
12F
330
1F
100
AcDbEntity
  8
0
  6
Continuous
 62
     7
370
    15
100
AcDbSpline
210
0.0
220
0.0
230
1.0
 70
     8
 71
     3
 72
    15
 73
    11
 74
     0
 42
0.000000001
 43
0.00000001
 40
0.0
 40
0.0
 40
0.0
 40
0.0
 40
0.1409759662687709
 40
0.2735687809631692
 40
0.3989883138042533
 40
0.5199297813924313
 40
0.6381100215247449
 40
0.7565889007405945
 40
0.8768597544106079
 40
1.0
 40
1.0
 40
1.0
 40
1.0
 10
522.9828707090612
 20
514.6980323391607
 30
0.0
 10
522.9955471366261
 20
514.713847892138
 30
0.0
 10
523.0201461865752
 20
514.744538524469
 30
0.0
 10
523.0611128839739
 20
514.7848763606867
 30
0.0
 10
523.1044077510602
 20
514.8181175618197
 30
0.0
 10
523.1497656511877
 20
514.8446151267926
 30
0.0
 10
523.1972481579814
 20
514.8645898932239
 30
0.0
 10
523.246565837402
 20
514.8790157064616
 30
0.0
 10
523.2980139554769
 20
514.8876656267727
 30
0.0
 10
523.3330011086999
 20
514.88879586263
 30
0.0
 10
523.3507009040399
 20
514.8893676423124
 30
0.0
  0
LINE
  5
130
330
1F
100
AcDbEntity
  8
0
  6
Continuous
 62
     7
370
    15
100
AcDbLine
 10
523.5934476321
 20
513.9056603774
 30
0.0
 11
523.5934476321
 21
514.3604129815
 31
0.0
  0
SPLINE
  5
131
330
1F
100
AcDbEntity
  8
0
  6
Continuous
 62
     7
370
    15
100
AcDbSpline
210
0.0
220
0.0
230
1.0
 70
     8
 71
     3
 72
    23
 73
    19
 74
     0
 42
0.000000001
 43
0.00000001
 40
0.0
 40
0.0
 40
0.0
 40
0.0
 40
0.077240423616479
 40
0.1511781404663831
 40
0.2234879838003991
 40
0.2955426441988696
 40
0.3669762546197896
 40
0.4371305254863864
 40
0.5070436156432694
 40
0.578559733523678
 40
0.6166135446965534
 40
0.658756236977529
 40
0.7044912261144044
 40
0.75480311490515
 40
0.8093316253185656
 40
0.8682744554728209
 40
0.9320728834092938
 40
1.0
 40
1.0
 40
1.0
 40
1.0
 10
523.3507009040399
 20
514.8893676423124
 30
0.0
 10
523.368590756816
 20
514.8887079999879
 30
0.0
 10
523.4036055139768
 20
514.8874169208441
 30
0.0
 10
523.4545862097968
 20
514.8772052548586
 30
0.0
 10
523.5022011532438
 20
514.8597634471181
 30
0.0
 10
523.5462805686757
 20
514.8358707895551
 30
0.0
 10
523.5860161522979
 20
514.8061594141911
 30
0.0
 10
523.6209127479451
 20
514.7715451931095
 30
0.0
 10
523.6497762372813
 20
514.7317306616484
 30
0.0
 10
523.6691276215104
 20
514.6947936353328
 30
0.0
 10
523.6818751133459
 20
514.6620273351166
 30
0.0
 10
523.6899004313942
 20
514.633963831359
 30
0.0
 10
523.6967157130769
 20
514.6026983396969
 30
0.0
 10
523.7026241416431
 20
514.5683253402626
 30
0.0
 10
523.706622038093
 20
514.5306040004946
 30
0.0
 10
523.7097752256658
 20
514.4896889502246
 30
0.0
 10
523.712035029757
 20
514.4455934425671
 30
0.0
 10
523.7121246883502
 20
514.4150958185163
 30
0.0
 10
523.7121709227364
 20
514.3993690612493
 30
0.0
  0
SPLINE
  5
132
330
1F
100
AcDbEntity
  8
0
  6
Continuous
 62
     7
370
    15
100
AcDbSpline
210
0.0
220
0.0
230
1.0
 70
     8
 71
     3
 72
    23
 73
    19
 74
     0
 42
0.000000001
 43
0.00000001
 40
0.0
 40
0.0
 40
0.0
 40
0.0
 40
0.0639861098164667
 40
0.1266268580894775
 40
0.1889843719814873
 40
0.2502301939603986
 40
0.312351162962322
 40
0.3745736184579387
 40
0.4381475308782041
 40
0.5029204126073704
 40
0.5679740951402718
 40
0.6307713337491905
 40
0.6929346089254588
 40
0.7543975343123296
 40
0.8152183520172955
 40
0.8761169254810909
 40
0.938014604793953
 40
1.0
 40
1.0
 40
1.0
 40
1.0
 10
523.3300303311232
 20
514.770644351714
 30
0.0
 10
523.3204797483321
 20
514.7704644332847
 30
0.0
 10
523.301579391751
 20
514.7701083793617
 30
0.0
 10
523.273552467846
 20
514.7665360137398
 30
0.0
 10
523.2463668428651
 20
514.7606930855821
 30
0.0
 10
523.2197496805367
 20
514.7528052374798
 30
0.0
 10
523.1942333418333
 20
514.7419715821486
 30
0.0
 10
523.1689980293932
 20
514.7296762547123
 30
0.0
 10
523.1449939846179
 20
514.7143499960156
 30
0.0
 10
523.1217093672509
 20
514.6972690170785
 30
0.0
 10
523.1000464905486
 20
514.6783402691199
 30
0.0
 10
523.0798896483518
 20
514.6583663024848
 30
0.0
 10
523.0619214085544
 20
514.6370954641451
 30
0.0
 10
523.0456424747418
 20
514.6148704839778
 30
0.0
 10
523.031589976382
 20
514.5913861285444
 30
0.0
 10
523.0193234817868
 20
514.5668689650837
 30
0.0
 10
523.0089156447674
 20
514.541286724308
 30
0.0
 10
523.0037439127922
 20
514.5235312696167
 30
0.0
 10
523.0011562158721
 20
514.5146472563615
 30
0.0
  0
SPLINE
  5
133
330
1F
100
AcDbEntity
  8
0
  6
Continuous
 62
     7
370
    15
100
AcDbSpline
210
0.0
220
0.0
230
1.0
 70
     8
 71
     3
 72
    15
 73
    11
 74
     0
 42
0.000000001
 43
0.00000001
 40
0.0
 40
0.0
 40
0.0
 40
0.0
 40
0.1788500194111598
 40
0.3421096489422994
 40
0.489825663368392
 40
0.6232544282245641
 40
0.7400796760857922
 40
0.8414826730699853
 40
0.9289076721840649
 40
1.0
 40
1.0
 40
1.0
 40
1.0
 10
523.5934476321381
 20
514.3604129815218
 30
0.0
 10
523.5933746041071
 20
514.373575036599
 30
0.0
 10
523.5932349139125
 20
514.3987518079333
 30
0.0
 10
523.5927943272193
 20
514.4347990280081
 30
0.0
 10
523.5917322872234
 20
514.4674888954402
 30
0.0
 10
523.5902399189487
 20
514.4967432575249
 30
0.0
 10
523.5880555830046
 20
514.5225340231308
 30
0.0
 10
523.5857791717502
 20
514.5449137199931
 30
0.0
 10
523.5829953858776
 20
514.5638539339484
 30
0.0
 10
523.5805147609716
 20
514.575255616873
 30
0.0
 10
523.5794022428486
 20
514.5803690779428
 30
0.0
  0
SPLINE
  5
134
330
1F
100
AcDbEntity
  8
0
  6
Continuous
 62
     7
370
    15
100
AcDbSpline
210
0.0
220
0.0
230
1.0
 70
     8
 71
     3
 72
    15
 73
    11
 74
     0
 42
0.000000001
 43
0.00000001
 40
0.0
 40
0.0
 40
0.0
 40
0.0
 40
0.1355195283706056
 40
0.2608331631936788
 40
0.3784760291245042
 40
0.4931776464746759
 40
0.6092809649289396
 40
0.7299810378566453
 40
0.8592613089300678
 40
1.0
 40
1.0
 40
1.0
 40
1.0
 10
523.5794022428486
 20
514.5803690779428
 30
0.0
 10
523.575386044928
 20
514.5953789603486
 30
0.0
 10
523.5676561065183
 20
514.6242683400131
 30
0.0
 10
523.548555464087
 20
514.6634547768672
 30
0.0
 10
523.5244352231347
 20
514.6967915919098
 30
0.0
 10
523.4949916907854
 20
514.7240726741904
 30
0.0
 10
523.4605092723142
 20
514.745303913064
 30
0.0
 10
523.4210836558512
 20
514.7600351399996
 30
0.0
 10
523.3770953005973
 20
514.7692487893694
 30
0.0
 10
523.3461562928604
 20
514.7701661874823
 30
0.0
 10
523.3300303311232
 20
514.770644351714
 30
0.0
  0
SPLINE
  5
135
330
1F
100
AcDbEntity
  8
0
  6
Continuous
 62
     7
370
    15
100
AcDbSpline
210
0.0
220
0.0
230
1.0
 70
     8
 71
     3
 72
    19
 73
    15
 74
     0
 42
0.000000001
 43
0.00000001
 40
0.0
 40
0.0
 40
0.0
 40
0.0
 40
0.0815893489321834
 40
0.1628588951679349
 40
0.2454836892755792
 40
0.330807139158011
 40
0.4164933737762846
 40
0.4998932031606323
 40
0.583048155995021
 40
0.6671578520621577
 40
0.7513119292929143
 40
0.8337847893576151
 40
0.9162564885439797
 40
1.0
 40
1.0
 40
1.0
 40
1.0
 10
520.5744839569245
 20
514.3903588115164
 30
0.0
 10
520.5751888421934
 20
514.3738827888606
 30
0.0
 10
520.5765958498189
 20
514.340995323994
 30
0.0
 10
520.58670697538
 20
514.2922437369417
 30
0.0
 10
520.6036704989696
 20
514.2447495008054
 30
0.0
 10
520.6268185405363
 20
514.1989157324215
 30
0.0
 10
520.6558042588118
 20
514.1563616230578
 30
0.0
 10
520.68940205308
 20
514.1179062791134
 30
0.0
 10
520.7279368320286
 20
514.0848372978318
 30
0.0
 10
520.7706207409525
 20
514.0571552387606
 30
0.0
 10
520.8162076821454
 20
514.0347932144937
 30
0.0
 10
520.8641478883867
 20
514.0192335828942
 30
0.0
 10
520.9135401682851
 20
514.0091878146242
 30
0.0
 10
520.9471242349495
 20
514.0080143962958
 30
0.0
 10
520.9640447542001
 20
514.007423197868
 30
0.0
  0
SPLINE
  5
136
330
1F
100
AcDbEntity
  8
0
  6
Continuous
 62
     7
370
    15
100
AcDbSpline
210
0.0
220
0.0
230
1.0
 70
     8
 71
     3
 72
    19
 73
    15
 74
     0
 42
0.000000001
 43
0.00000001
 40
0.0
 40
0.0
 40
0.0
 40
0.0
 40
0.0859205174117674
 40
0.1695934351247439
 40
0.2524755148685386
 40
0.3362444769570507
 40
0.4195045210415723
 40
0.5020359066440895
 40
0.5847746476768717
 40
0.6698464747058012
 40
0.7541848663887866
 40
0.8366582383293274
 40
0.9180097257088056
 40
1.0
 40
1.0
 40
1.0
 40
1.0
 10
520.9651047835805
 20
514.770644351714
 30
0.0
 10
520.9477502570634
 20
514.7700268755481
 30
0.0
 10
520.9134951820747
 20
514.7688080758102
 30
0.0
 10
520.8632077170095
 20
514.7592930939993
 30
0.0
 10
520.815086277756
 20
514.7434617145822
 30
0.0
 10
520.7693715413508
 20
514.7218105197952
 30
0.0
 10
520.7267856380441
 20
514.6945853723239
 30
0.0
 10
520.688725827939
 20
514.6616555637582
 30
0.0
 10
520.6548808187955
 20
514.6239195494795
 30
0.0
 10
520.6264160879695
 20
514.58154762085
 30
0.0
 10
520.6032119418122
 20
514.5361231638091
 30
0.0
 10
520.5868958315267
 20
514.4886401172649
 30
0.0
 10
520.5761351338452
 20
514.4399549025337
 30
0.0
 10
520.5750357823235
 20
514.4069338873737
 30
0.0
 10
520.5744839569245
 20
514.3903588115164
 30
0.0
  0
SPLINE
  5
137
330
1F
100
AcDbEntity
  8
0
  6
Continuous
 62
     7
370
    15
100
AcDbSpline
210
0.0
220
0.0
230
1.0
 70
     8
 71
     3
 72
    23
 73
    19
 74
     0
 42
0.000000001
 43
0.00000001
 40
0.0
 40
0.0
 40
0.0
 40
0.0
 40
0.0656337996756899
 40
0.1291880880571288
 40
0.1912186831121886
 40
0.2519128178811571
 40
0.3125074743865505
 40
0.3734944337751982
 40
0.4351515996540498
 40
0.4987414744066493
 40
0.5620952169966309
 40
0.6241865668116559
 40
0.6854757184651954
 40
0.7460968148060529
 40
0.807611636447785
 40
0.8699665806571899
 40
0.9339510189149071
 40
1.0
 40
1.0
 40
1.0
 40
1.0
 10
521.3546655808561
 20
514.3869137160303
 30
0.0
 10
521.3543028535967
 20
514.4002705745854
 30
0.0
 10
521.3535888915623
 20
514.4265610990971
 30
0.0
 10
521.3481344798646
 20
514.4651628691317
 30
0.0
 10
521.3394580642268
 20
514.502103890574
 30
0.0
 10
521.3272319821075
 20
514.5374230022122
 30
0.0
 10
521.3111712882957
 20
514.5709249276756
 30
0.0
 10
521.2918008529755
 20
514.6028502179933
 30
0.0
 10
521.268780043106
 20
514.6330328306315
 30
0.0
 10
521.242479440711
 20
514.6610571461501
 30
0.0
 10
521.213690807606
 20
514.6866183387303
 30
0.0
 10
521.1832279901647
 20
514.7094345844755
 30
0.0
 10
521.1507300709278
 20
514.7281779598861
 30
0.0
 10
521.1167435718548
 20
514.7436905833391
 30
0.0
 10
521.0812095257933
 20
514.7560349644016
 30
0.0
 10
521.0438387855642
 20
514.7642701938913
 30
0.0
 10
521.0050285732435
 20
514.7699248390446
 30
0.0
 10
520.978552832067
 20
514.7704019889187
 30
0.0
 10
520.9651047835805
 20
514.770644351714
 30
0.0
  0
SPLINE
  5
138
330
1F
100
AcDbEntity
  8
0
  6
Continuous
 62
     7
370
    15
100
AcDbSpline
210
0.0
220
0.0
230
1.0
 70
     8
 71
     3
 72
    19
 73
    15
 74
     0
 42
0.000000001
 43
0.00000001
 40
0.0
 40
0.0
 40
0.0
 40
0.0
 40
0.0848023883688278
 40
0.1686635395998415
 40
0.2525519243727824
 40
0.3382396894642449
 40
0.4231026613931557
 40
0.5055560510576225
 40
0.5861756559890523
 40
0.6671357203303605
 40
0.7484991803055339
 40
0.8304523987582789
 40
0.9134557062010135
 40
1.0
 40
1.0
 40
1.0
 40
1.0
 10
520.9640447542001
 20
514.007423197868
 30
0.0
 10
520.9812224501846
 20
514.008050624709
 30
0.0
 10
521.0153871837805
 20
514.0092985144663
 30
0.0
 10
521.0658238382471
 20
514.0188542308123
 30
0.0
 10
521.1147698509712
 20
514.0346418420934
 30
0.0
 10
521.1615584759834
 20
514.0565263334481
 30
0.0
 10
521.2051452279351
 20
514.0836489054687
 30
0.0
 10
521.244264961439
 20
514.1154015857097
 30
0.0
 10
521.2773439137706
 20
514.1523310630415
 30
0.0
 10
521.3053869537003
 20
514.1929168057103
 30
0.0
 10
521.3273758760835
 20
514.2374091377059
 30
0.0
 10
521.3433930175062
 20
514.2847824776604
 30
0.0
 10
521.3528627973681
 20
514.3350384747272
 30
0.0
 10
521.3540563439889
 20
514.3693828756907
 30
0.0
 10
521.3546655808561
 20
514.3869137160303
 30
0.0
  0
SPLINE
  5
139
330
1F
100
AcDbEntity
  8
0
  6
Continuous
 62
     7
370
    15
100
AcDbSpline
210
0.0
220
0.0
230
1.0
 70
     8
 71
     3
 72
    19
 73
    15
 74
     0
 42
0.000000001
 43
0.00000001
 40
0.0
 40
0.0
 40
0.0
 40
0.0
 40
0.0848023883688278
 40
0.1686635395998416
 40
0.2525519243727825
 40
0.338239689464245
 40
0.4231026613931558
 40
0.5055560510576226
 40
0.5861756559890524
 40
0.6671357203303606
 40
0.748499180305534
 40
0.830452398758279
 40
0.9134557062010135
 40
1.0
 40
1.0
 40
1.0
 40
1.0
 10
517.9959624892429
 20
514.007423197868
 30
0.0
 10
518.0131401852274
 20
514.008050624709
 30
0.0
 10
518.0473049188232
 20
514.0092985144663
 30
0.0
 10
518.0977415732899
 20
514.0188542308123
 30
0.0
 10
518.1466875860141
 20
514.0346418420934
 30
0.0
 10
518.1934762110261
 20
514.0565263334481
 30
0.0
 10
518.2370629629778
 20
514.0836489054687
 30
0.0
 10
518.2761826964817
 20
514.1154015857097
 30
0.0
 10
518.3092616488133
 20
514.1523310630415
 30
0.0
 10
518.3373046887432
 20
514.1929168057103
 30
0.0
 10
518.3592936111262
 20
514.2374091377059
 30
0.0
 10
518.3753107525489
 20
514.2847824776604
 30
0.0
 10
518.3847805324108
 20
514.3350384747272
 30
0.0
 10
518.3859740790317
 20
514.3693828756907
 30
0.0
 10
518.3865833158989
 20
514.3869137160303
 30
0.0
  0
SPLINE
  5
13A
330
1F
100
AcDbEntity
  8
0
  6
Continuous
 62
     7
370
    15
100
AcDbSpline
210
0.0
220
0.0
230
1.0
 70
     8
 71
     3
 72
    23
 73
    19
 74
     0
 42
0.000000001
 43
0.00000001
 40
0.0
 40
0.0
 40
0.0
 40
0.0
 40
0.0656337996756899
 40
0.1291880880571288
 40
0.1912186831121886
 40
0.2519128178811572
 40
0.3125074743865505
 40
0.3734944337751982
 40
0.4351515996540498
 40
0.4987414744066493
 40
0.5620952169966309
 40
0.6241865668116559
 40
0.6854757184651954
 40
0.7460968148060529
 40
0.807611636447785
 40
0.8699665806571899
 40
0.9339510189149071
 40
1.0
 40
1.0
 40
1.0
 40
1.0
 10
518.3865833158989
 20
514.3869137160303
 30
0.0
 10
518.3862205886394
 20
514.4002705745854
 30
0.0
 10
518.385506626605
 20
514.4265610990971
 30
0.0
 10
518.3800522149073
 20
514.4651628691317
 30
0.0
 10
518.3713757992696
 20
514.502103890574
 30
0.0
 10
518.3591497171502
 20
514.5374230022122
 30
0.0
 10
518.3430890233384
 20
514.5709249276756
 30
0.0
 10
518.3237185880182
 20
514.6028502179933
 30
0.0
 10
518.3006977781487
 20
514.6330328306315
 30
0.0
 10
518.2743971757537
 20
514.6610571461501
 30
0.0
 10
518.2456085426487
 20
514.6866183387303
 30
0.0
 10
518.2151457252074
 20
514.7094345844755
 30
0.0
 10
518.1826478059705
 20
514.7281779598861
 30
0.0
 10
518.1486613068976
 20
514.7436905833391
 30
0.0
 10
518.113127260836
 20
514.7560349644016
 30
0.0
 10
518.0757565206069
 20
514.7642701938913
 30
0.0
 10
518.0369463082862
 20
514.7699248390446
 30
0.0
 10
518.0104705671097
 20
514.7704019889187
 30
0.0
 10
517.9970225186232
 20
514.770644351714
 30
0.0
  0
SPLINE
  5
13B
330
1F
100
AcDbEntity
  8
0
  6
Continuous
 62
     7
370
    15
100
AcDbSpline
210
0.0
220
0.0
230
1.0
 70
     8
 71
     3
 72
    19
 73
    15
 74
     0
 42
0.000000001
 43
0.00000001
 40
0.0
 40
0.0
 40
0.0
 40
0.0
 40
0.0815893489321834
 40
0.1628588951679349
 40
0.2454836892755792
 40
0.330807139158011
 40
0.4164933737762846
 40
0.4998932031606323
 40
0.583048155995021
 40
0.6671578520621577
 40
0.7513119292929143
 40
0.8337847893576151
 40
0.9162564885439797
 40
1.0
 40
1.0
 40
1.0
 40
1.0
 10
517.6064016919672
 20
514.3903588115164
 30
0.0
 10
517.6071065772361
 20
514.3738827888606
 30
0.0
 10
517.6085135848616
 20
514.340995323994
 30
0.0
 10
517.6186247104228
 20
514.2922437369417
 30
0.0
 10
517.6355882340123
 20
514.2447495008054
 30
0.0
 10
517.658736275579
 20
514.1989157324215
 30
0.0
 10
517.6877219938546
 20
514.1563616230578
 30
0.0
 10
517.7213197881227
 20
514.1179062791134
 30
0.0
 10
517.7598545670713
 20
514.0848372978318
 30
0.0
 10
517.8025384759952
 20
514.0571552387606
 30
0.0
 10
517.8481254171883
 20
514.0347932144937
 30
0.0
 10
517.8960656234294
 20
514.0192335828942
 30
0.0
 10
517.9454579033278
 20
514.0091878146242
 30
0.0
 10
517.9790419699922
 20
514.0080143962958
 30
0.0
 10
517.9959624892429
 20
514.007423197868
 30
0.0
  0
SPLINE
  5
13C
330
1F
100
AcDbEntity
  8
0
  6
Continuous
 62
     7
370
    15
100
AcDbSpline
210
0.0
220
0.0
230
1.0
 70
     8
 71
     3
 72
    19
 73
    15
 74
     0
 42
0.000000001
 43
0.00000001
 40
0.0
 40
0.0
 40
0.0
 40
0.0
 40
0.0859205174117674
 40
0.1695934351247439
 40
0.2524755148685386
 40
0.3362444769570507
 40
0.4195045210415723
 40
0.5020359066440895
 40
0.5847746476768717
 40
0.6698464747058012
 40
0.7541848663887866
 40
0.8366582383293274
 40
0.9180097257088056
 40
1.0
 40
1.0
 40
1.0
 40
1.0
 10
517.9970225186232
 20
514.770644351714
 30
0.0
 10
517.9796679921061
 20
514.7700268755481
 30
0.0
 10
517.9454129171174
 20
514.7688080758102
 30
0.0
 10
517.8951254520522
 20
514.7592930939993
 30
0.0
 10
517.8470040127987
 20
514.7434617145822
 30
0.0
 10
517.8012892763936
 20
514.7218105197952
 30
0.0
 10
517.7587033730869
 20
514.6945853723239
 30
0.0
 10
517.7206435629818
 20
514.6616555637582
 30
0.0
 10
517.6867985538382
 20
514.6239195494795
 30
0.0
 10
517.6583338230122
 20
514.58154762085
 30
0.0
 10
517.6351296768551
 20
514.5361231638091
 30
0.0
 10
517.6188135665694
 20
514.4886401172649
 30
0.0
 10
517.608052868888
 20
514.4399549025337
 30
0.0
 10
517.6069535173663
 20
514.4069338873737
 30
0.0
 10
517.6064016919672
 20
514.3903588115164
 30
0.0
  0
SPLINE
  5
13D
330
1F
100
AcDbEntity
  8
0
  6
Continuous
 62
     7
370
    15
100
AcDbSpline
210
0.0
220
0.0
230
1.0
 70
     8
 71
     3
 72
    15
 73
    11
 74
     0
 42
0.000000001
 43
0.00000001
 40
0.0
 40
0.0
 40
0.0
 40
0.0
 40
0.1099838451118727
 40
0.2225804973638886
 40
0.3384998709624456
 40
0.4587085654776341
 40
0.5855353464579961
 40
0.7175177429458921
 40
0.854666819751022
 40
1.0
 40
1.0
 40
1.0
 40
1.0
 10
516.17350697709
 20
514.6800118396949
 30
0.0
 10
516.1671973139667
 20
514.6743065477773
 30
0.0
 10
516.154428093589
 20
514.6627604274237
 30
0.0
 10
516.1373660512403
 20
514.6428678404237
 30
0.0
 10
516.1210297416239
 20
514.6214171011542
 30
0.0
 10
516.1061625573989
 20
514.5975875451304
 30
0.0
 10
516.0925260887072
 20
514.571650524494
 30
0.0
 10
516.0797656211419
 20
514.543824811176
 30
0.0
 10
516.068280280861
 20
514.5138992530117
 30
0.0
 10
516.0618183583185
 20
514.4930453846129
 30
0.0
 10
516.0584937893229
 20
514.482316360261
 30
0.0
  0
SPLINE
  5
13E
330
1F
100
AcDbEntity
  8
0
  6
Continuous
 62
     7
370
    15
100
AcDbSpline
210
0.0
220
0.0
230
1.0
 70
     8
 71
     3
 72
    19
 73
    15
 74
     0
 42
0.000000001
 43
0.00000001
 40
0.0
 40
0.0
 40
0.0
 40
0.0
 40
0.0962401251801507
 40
0.1852312611287011
 40
0.2675005230774393
 40
0.3444003817777766
 40
0.4195948685557301
 40
0.4968906265927774
 40
0.5766379188385165
 40
0.6602678524196381
 40
0.7453866150876284
 40
0.8300403273864532
 40
0.9144742116388019
 40
0.9999999999999999
 40
0.9999999999999999
 40
0.9999999999999999
 40
0.9999999999999999
 10
516.7922991278647
 20
514.482316360261
 30
0.0
 10
516.7879536775126
 20
514.4980639345558
 30
0.0
 10
516.7795900843919
 20
514.5283729459048
 30
0.0
 10
516.762113839497
 20
514.570343758662
 30
0.0
 10
516.7424320369124
 20
514.6076454355317
 30
0.0
 10
516.7191404896367
 20
514.6399924992165
 30
0.0
 10
516.6927506737005
 20
514.6687200175164
 30
0.0
 10
516.6622687147831
 20
514.6938246613149
 30
0.0
 10
516.6280861002782
 20
514.7162830431172
 30
0.0
 10
516.5903795203196
 20
514.7352394938085
 30
0.0
 10
516.5504494408416
 20
514.7513752439803
 30
0.0
 10
516.5086429337571
 20
514.7621948561833
 30
0.0
 10
516.4659853770321
 20
514.7696067962788
 30
0.0
 10
516.4371328342756
 20
514.7702970217869
 30
0.0
 10
516.4226138814704
 20
514.770644351714
 30
0.0
  0
LINE
  5
13F
330
1F
100
AcDbEntity
  8
0
  6
Continuous
 62
     7
370
    15
100
AcDbLine
 10
516.0584937893
 20
514.4823163603
 30
0.0
 11
516.7922991279
 21
514.4823163603
 31
0.0
  0
SPLINE
  5
140
330
1F
100
AcDbEntity
  8
0
  6
Continuous
 62
     7
370
    15
100
AcDbSpline
210
0.0
220
0.0
230
1.0
 70
     8
 71
     3
 72
    15
 73
    11
 74
     0
 42
0.000000001
 43
0.00000001
 40
0.0
 40
0.0
 40
0.0
 40
0.0
 40
0.1310919762569281
 40
0.2591412763281413
 40
0.3841617634834039
 40
0.5059919524977761
 40
0.6290980893898571
 40
0.7506691234237093
 40
0.8740389376151269
 40
1.0
 40
1.0
 40
1.0
 40
1.0
 10
516.4226138814704
 20
514.770644351714
 30
0.0
 10
516.4107645401264
 20
514.7704131544336
 30
0.0
 10
516.3873408834905
 20
514.7699561260171
 30
0.0
 10
516.3528312535485
 20
514.7656206902276
 30
0.0
 10
516.3196904149693
 20
514.7584543202909
 30
0.0
 10
516.2876738330448
 20
514.7486401849086
 30
0.0
 10
516.2572010643446
 20
514.7355589571769
 30
0.0
 10
516.2276453037382
 20
514.7202194637858
 30
0.0
 10
516.1997580706337
 20
514.70149392467
 30
0.0
 10
516.1823177595456
 20
514.6872219765638
 30
0.0
 10
516.17350697709
 20
514.6800118396949
 30
0.0
  0
SPLINE
  5
141
330
1F
100
AcDbEntity
  8
0
  6
Continuous
 62
     7
370
    15
100
AcDbSpline
210
0.0
220
0.0
230
1.0
 70
     8
 71
     3
 72
    20
 73
    16
 74
     0
 42
0.000000001
 43
0.00000001
 40
0.0
 40
0.0
 40
0.0
 40
0.0
 40
0.1250000000000006
 40
0.1250000000000006
 40
0.2500000000000012
 40
0.2500000000000012
 40
0.3750000000000018
 40
0.3750000000000018
 40
0.5000000000000023
 40
0.5000000000000023
 40
0.6250000000000029
 40
0.6250000000000029
 40
0.7500000000000036
 40
0.7500000000000036
 40
1.0
 40
1.0
 40
1.0
 40
1.0
 10
565.6048515475974
 20
519.9056603773583
 30
0.0
 10
565.9731343654923
 20
519.9056603773583
 30
0.0
 10
566.3412428483254
 20
519.8422284246956
 30
0.0
 10
567.0441618172022
 20
519.5998615607903
 30
0.0
 10
567.3787258815408
 20
519.4212313116143
 30
0.0
 10
567.9904066863489
 20
518.9783247372199
 30
0.0
 10
568.2674900178271
 20
518.7144425128433
 30
0.0
 10
568.7540186419553
 20
518.1379741322841
 30
0.0
 10
568.9635908467986
 20
517.8256603773582
 30
0.0
 10
569.3171423519776
 20
517.1856603773582
 30
0.0
 10
569.4612901345778
 20
516.8580653767268
 30
0.0
 10
569.6933906050905
 20
516.2116823442815
 30
0.0
 10
569.7814733287795
 20
515.892860377358
 30
0.0
 10
569.9794621716798
 20
514.971260377358
 30
0.0
 10
570.0242453623358
 20
514.405660377358
 30
0.0
 10
570.0242453623358
 20
513.905660377358
 30
0.0
  0
LWPOLYLINE
  5
142
330
1F
100
AcDbEntity
  8
0
  6
Continuous
 62
     7
370
    15
100
AcDbPolyline
 90
        6
 70
   128
 43
0.0
 10
565.6048515476
 20
507.9056603774
 10
567.0381684605
 20
508.2299847017
 10
568.2564878364
 20
509.1056603774
 10
569.1403665994
 20
510.3056603774
 10
569.8474696097
 20
512.2256603774
 10
570.0242453623
 20
513.9056603774
  0
LWPOLYLINE
  5
143
330
1F
100
AcDbEntity
  8
0
  6
Continuous
 62
     8
370
    15
100
AcDbPolyline
 90
        8
 70
   128
 43
0.0
 10
535.3541007256
 20
513.9056603774
 10
535.2208103668
 20
512.4135210544
 10
534.8293144137
 20
511.0151383327
 10
534.2042119969
 20
509.7983777418
 10
533.3847806001
 20
508.8396928243
 10
532.4225081119
 20
508.1993212796
 10
531.3778576514
 20
507.9175000068
 10
531.1114600385
 20
507.9056603774
  0
LWPOLYLINE
  5
144
330
1F
100
AcDbEntity
  8
0
  6
Continuous
 62
     8
370
    15
100
AcDbPolyline
 90
        8
 70
   128
 43
0.0
 10
531.1114600385
 20
519.9056603774
 10
531.3778576514
 20
519.8938207479
 10
532.4225081119
 20
519.6119994751
 10
533.3847806001
 20
518.9716279304
 10
534.2042119969
 20
518.0129430129
 10
534.8293144137
 20
516.796182422
 10
535.2208103668
 20
515.3977997003
 10
535.3541007256
 20
513.9056603774
  0
LWPOLYLINE
  5
145
330
1F
100
AcDbEntity
  8
0
  6
Continuous
 62
     8
370
    15
100
AcDbPolyline
 90
       14
 70
   128
 43
0.0
 10
489.9802866053
 20
507.9056603774
 10
490.7752781946
 20
508.011936873
 10
491.7867151515
 20
508.4766980626
 10
492.6846475592
 20
509.2825809207
 10
493.4126550223
 20
510.3789488636
 10
493.9249941543
 20
511.6969130612
 10
494.1894728034
 20
513.153660976
 10
494.1894728034
 20
514.6576597787
 10
493.9249941543
 20
516.1144076935
 10
493.4126550223
 20
517.4323718911
 10
492.6846475592
 20
518.528739834
 10
491.7867151515
 20
519.3346226922
 10
490.7752781946
 20
519.7993838817
 10
489.9802866053
 20
519.9056603774
  0
SPLINE
  5
146
330
1F
100
AcDbEntity
  8
0
  6
Continuous
 62
     7
370
    15
100
AcDbSpline
210
0.0
220
0.0
230
1.0
 70
     8
 71
     3
 72
    24
 73
    20
 74
     0
 42
0.000000001
 43
0.00000001
 40
0.0
 40
0.0
 40
0.0
 40
0.0
 40
0.0031346250254
 40
0.0080211758058003
 40
0.0136741976805992
 40
0.0277304902314155
 40
0.0444696111918772
 40
0.0745836148427902
 40
0.1322805770154384
 40
0.1992536004254492
 40
0.3270918611144291
 40
0.4435089133144178
 40
0.494613441600128
 40
0.5460069640003568
 40
0.6214203801162045
 40
0.7236337897591447
 40
0.8529627180232502
 40
0.9277537929259829
 40
1.0
 40
1.0
 40
1.0
 40
1.0
 10
944.1009751259066
 20
1145.98613727081
 30
0.0
 10
944.100011150547
 20
1145.985736518274
 30
0.0
 10
944.0975444389724
 20
1145.984711034675
 30
0.0
 10
944.0959068625817
 20
1145.942919499567
 30
0.0
 10
944.0943758186519
 20
1145.836339830048
 30
0.0
 10
944.0943637948227
 20
1145.617331029278
 30
0.0
 10
944.0943265362
 20
1145.193602033467
 30
0.0
 10
944.0943483320106
 20
1144.423914398101
 30
0.0
 10
944.0943362500681
 20
1143.202051774701
 30
0.0
 10
944.0943415858151
 20
1141.151179397358
 30
0.0
 10
944.0943390106579
 20
1138.469698266579
 30
0.0
 10
944.094339685518
 20
1135.989771668209
 30
0.0
 10
944.0943396117667
 20
1134.271061656018
 30
0.0
 10
944.0943396270776
 20
1132.950230316237
 30
0.0
 10
944.0943396207341
 20
1131.389647371043
 30
0.0
 10
944.0943396233966
 20
1129.644048596684
 30
0.0
 10
944.0943396225201
 20
1128.459800635846
 30
0.0
 10
944.0943396226633
 20
1127.865216475856
 30
0.0
 10
944.0943396226484
 20
1127.824369460636
 30
0.0
 10
944.094339622641
 20
1127.804299435671
 30
0.0
  0
SPLINE
  5
147
330
1F
100
AcDbEntity
  8
0
  6
Continuous
 62
     7
370
    15
100
AcDbSpline
210
0.0
220
0.0
230
1.0
 70
     8
 71
     3
 72
    19
 73
    15
 74
     0
 42
0.000000001
 43
0.00000001
 40
0.0
 40
0.0
 40
0.0
 40
0.0
 40
0.1018965197276363
 40
0.1906240316290863
 40
0.2648356101143192
 40
0.3252822894299361
 40
0.4116267230472874
 40
0.4655554381078336
 40
0.5247475236069888
 40
0.618788449418681
 40
0.6867050682747939
 40
0.7723908977064282
 40
0.8774857082422757
 40
1.0
 40
1.0
 40
1.0
 40
1.0
 10
944.094339622641
 20
1127.787708444842
 30
0.0
 10
944.1535540991122
 20
1127.146546412439
 30
0.0
 10
944.2643302302885
 20
1125.947085509643
 30
0.0
 10
945.038755346622
 20
1124.441397554544
 30
0.0
 10
945.958870299141
 20
1123.375840148984
 30
0.0
 10
947.07201476516
 20
1122.539997811901
 30
0.0
 10
948.2380183543148
 20
1122.027300015603
 30
0.0
 10
949.4699960729484
 20
1121.786017477512
 30
0.0
 10
950.7742671427334
 20
1121.76407305016
 30
0.0
 10
952.1458378639089
 20
1122.077222016082
 30
0.0
 10
953.5331563630683
 20
1122.796625633034
 30
0.0
 10
954.7589218238863
 20
1123.877342152325
 30
0.0
 10
955.8477398723473
 20
1125.579382744048
 30
0.0
 10
956.0080500622518
 20
1127.014590753897
 30
0.0
 10
956.0943396226417
 20
1127.787114748236
 30
0.0
  0
SPLINE
  5
148
330
1F
100
AcDbEntity
  8
0
  6
Continuous
 62
     7
370
    15
100
AcDbSpline
210
0.0
220
0.0
230
1.0
 70
    24
 71
     3
 72
    22
 73
    18
 74
     0
 42
0.000000001
 43
0.00000001
 40
0.0
 40
0.0
 40
0.0
 40
0.0
 40
0.1020443186807019
 40
0.1993109650029413
 40
0.2835959992034388
 40
0.3545527111546486
 40
0.4287779089196597
 40
0.4799486233683503
 40
0.523606033896676
 40
0.5686188925403428
 40
0.6152986832998888
 40
0.6768800692798685
 40
0.7382105896189906
 40
0.8124650974417617
 40
0.9001829863926145
 40
0.9478232522992858
 40
1.0
 40
1.0
 40
1.0
 40
1.0
 10
956.0943396226417
 20
1127.809954665008
 30
0.0
 10
956.0943396226417
 20
1127.856537261526
 30
0.0
 10
956.0943396226417
 20
1127.94752147686
 30
0.0
 10
956.0943396226417
 20
1128.827226326938
 30
0.0
 10
956.0943396226417
 20
1129.968065118506
 30
0.0
 10
956.0943396226417
 20
1131.298271802194
 30
0.0
 10
956.0943396226417
 20
1132.636802315836
 30
0.0
 10
956.0943396226417
 20
1133.901640765956
 30
0.0
 10
956.0943396226417
 20
1135.009181340484
 30
0.0
 10
956.0943396226417
 20
1136.126281272007
 30
0.0
 10
956.0943396226417
 20
1137.429885166793
 30
0.0
 10
956.0943396226417
 20
1138.903841960507
 30
0.0
 10
956.0943396226417
 20
1140.624801687512
 30
0.0
 10
956.0943396226417
 20
1142.544788628574
 30
0.0
 10
956.0943396226417
 20
1144.248978548901
 30
0.0
 10
956.0943396226417
 20
1145.672101195941
 30
0.0
 10
956.0943396226417
 20
1146.353959276674
 30
0.0
 10
956.0943396226417
 20
1146.710382853781
 30
0.0
  0
ARC
  5
149
330
1F
100
AcDbEntity
  8
0
  6
Continuous
 62
     7
370
    15
100
AcDbCircle
 10
950.0943396226
 20
1062.7293894298
 30
0.0
 40
6.000000000000341
100
AcDbArc
 50
180.0
 51
0.0
  0
LINE
  5
14A
330
1F
100
AcDbEntity
  8
0
  6
Continuous
 62
     7
370
    15
100
AcDbLine
 10
956.0943396226
 20
1062.7293894298
 30
0.0
 11
956.0943396226
 21
1082.3611174135
 31
0.0
  0
LINE
  5
14B
330
1F
100
AcDbEntity
  8
0
  6
Continuous
 62
     7
370
    15
100
AcDbLine
 10
944.0943396226
 20
1082.3611174135
 30
0.0
 11
944.0943396226
 21
1062.7293894298
 31
0.0
  0
LINE
  5
14C
330
1F
100
AcDbEntity
  8
0
  6
Continuous
 62
     7
370
    15
100
AcDbLine
 10
956.0943396226
 20
1146.7103828538
 30
0.0
 11
956.0943396226
 21
1181.2037743629
 31
0.0
  0
LINE
  5
14D
330
1F
100
AcDbEntity
  8
0
  6
Continuous
 62
     7
370
    15
100
AcDbLine
 10
944.0943396226
 20
1181.2037743629
 30
0.0
 11
944.0943396226
 21
1146.7103828538
 31
0.0
  0
LINE
  5
14E
330
1F
100
AcDbEntity
  8
0
  6
Continuous
 62
     7
370
    15
100
AcDbLine
 10
944.0943396226
 20
1127.6126984448
 30
0.0
 11
944.0943396226
 21
1082.3611174135
 31
0.0
  0
LINE
  5
14F
330
1F
100
AcDbEntity
  8
0
  6
Continuous
 62
     7
370
    15
100
AcDbLine
 10
956.0943396226
 20
1082.3611174135
 30
0.0
 11
956.0943396226
 21
1127.6121047482
 31
0.0
  0
LINE
  5
150
330
1F
100
AcDbEntity
  8
0
  6
Continuous
 62
     7
370
    15
100
AcDbLine
 10
944.0943396226
 20
1146.7103528538
 30
0.0
 11
944.0943396226
 21
1145.2842239653
 31
0.0
  0
LINE
  5
151
330
1F
100
AcDbEntity
  8
0
  6
Continuous
 62
     7
370
    15
100
AcDbLine
 10
944.0943396226
 20
1209.4880456103
 30
0.0
 11
944.0943396226
 21
1181.2037743629
 31
0.0
  0
LINE
  5
152
330
1F
100
AcDbEntity
  8
0
  6
Continuous
 62
     7
370
    15
100
AcDbLine
 10
956.0943396226
 20
1181.2037743629
 30
0.0
 11
956.0943396226
 21
1209.4880456103
 31
0.0
  0
LINE
  5
153
330
1F
100
AcDbEntity
  8
0
  6
Continuous
 62
     7
370
    15
100
AcDbLine
 10
944.0943396226
 20
1796.0566037736
 30
0.0
 11
944.0943396226
 21
1209.4880456103
 31
0.0
  0
LINE
  5
154
330
1F
100
AcDbEntity
  8
0
  6
Continuous
 62
     7
370
    15
100
AcDbLine
 10
956.0943396226
 20
1209.4880456103
 30
0.0
 11
956.0943396226
 21
1796.0566037736
 31
0.0
  0
LINE
  5
155
330
1F
100
AcDbEntity
  8
0
  6
Continuous
 62
     7
370
    15
100
AcDbLine
 10
956.0943396226
 20
796.0566037736
 30
0.0
 11
956.0943396226
 21
1049.4880612787
 31
0.0
  0
LINE
  5
156
330
1F
100
AcDbEntity
  8
0
  6
Continuous
 62
     7
370
    15
100
AcDbLine
 10
944.0943396226
 20
1049.4880612787
 30
0.0
 11
944.0943396226
 21
796.0566037736
 31
0.0
  0
LINE
  5
157
330
1F
100
AcDbEntity
  8
0
  6
Continuous
 62
     7
370
    15
100
AcDbLine
 10
956.0943396226
 20
1049.4880612787
 30
0.0
 11
956.0943396226
 21
1062.7293894298
 31
0.0
  0
LINE
  5
158
330
1F
100
AcDbEntity
  8
0
  6
Continuous
 62
     7
370
    15
100
AcDbLine
 10
944.0943396226
 20
1062.7293894298
 30
0.0
 11
944.0943396226
 21
1049.4880612787
 31
0.0
  0
SPLINE
  5
159
330
1F
100
AcDbEntity
  8
0
  6
Continuous
 62
     7
370
    15
100
AcDbSpline
210
0.0
220
0.0
230
1.0
 70
     8
 71
     3
 72
    20
 73
    16
 74
     0
 42
0.000000001
 43
0.00000001
 40
0.0
 40
0.0
 40
0.0
 40
0.0
 40
0.1250000000000006
 40
0.1250000000000006
 40
0.2500000000000012
 40
0.2500000000000012
 40
0.3750000000000018
 40
0.3750000000000018
 40
0.5000000000000023
 40
0.5000000000000023
 40
0.6250000000000029
 40
0.6250000000000029
 40
0.7500000000000036
 40
0.7500000000000036
 40
1.0
 40
1.0
 40
1.0
 40
1.0
 10
956.0943396226417
 20
1146.710382853781
 30
0.0
 10
956.0943396226417
 20
1147.049206817072
 30
0.0
 10
956.030907669979
 20
1147.387870390322
 30
0.0
 10
955.7885408060736
 20
1148.034563038839
 30
0.0
 10
955.6099105568977
 20
1148.342365403615
 30
0.0
 10
955.1670039825032
 20
1148.905118007006
 30
0.0
 10
954.9031217581266
 20
1149.160037509007
 30
0.0
 10
954.3266533775674
 20
1149.607648824746
 30
0.0
 10
954.0143396226415
 20
1149.800457399001
 30
0.0
 10
953.3743396226414
 20
1150.125728403761
 30
0.0
 10
953.0467446220102
 20
1150.258345839675
 30
0.0
 10
952.4003615895649
 20
1150.471880649011
 30
0.0
 10
952.0815396226415
 20
1150.552917656679
 30
0.0
 10
951.1599396226414
 20
1150.735069419345
 30
0.0
 10
950.5943396226414
 20
1150.776270413281
 30
0.0
 10
950.0943396226413
 20
1150.776270413281
 30
0.0
  0
SPLINE
  5
15A
330
1F
100
AcDbEntity
  8
0
  6
Continuous
 62
     7
370
    15
100
AcDbSpline
210
0.0
220
0.0
230
1.0
 70
     8
 71
     3
 72
    13
 73
     9
 74
     0
 42
0.000000001
 43
0.00000001
 40
0.0
 40
0.0
 40
0.0
 40
0.0
 40
0.1015746661895032
 40
0.2905053884136702
 40
0.4697110091293802
 40
0.6321687511796021
 40
0.8376098860270151
 40
1.0
 40
1.0
 40
1.0
 40
1.0
 10
944.2687058379
 20
1146.001429428362
 30
0.0
 10
944.1928918077662
 20
1146.236924497518
 30
0.0
 10
943.9760623059086
 20
1146.910444668455
 30
0.0
 10
944.3274342820843
 20
1148.032086416741
 30
0.0
 10
945.1837715866117
 20
1149.155410446423
 30
0.0
 10
946.5529956767014
 20
1150.07532427968
 30
0.0
 10
948.2417317155407
 20
1150.671594786319
 30
0.0
 10
949.5269441340923
 20
1150.744211563553
 30
0.0
 10
950.0943396226413
 20
1150.776270413281
 30
0.0
  0
LINE
  5
15B
330
1F
100
AcDbEntity
  8
0
  6
Continuous
 62
     7
370
    15
100
AcDbLine
 10
950.0943396226
 20
1796.0566037736
 30
0.0
 11
944.0943396226
 21
1796.0566037736
 31
0.0
  0
LINE
  5
15C
330
1F
100
AcDbEntity
  8
0
  6
Continuous
 62
     7
370
    15
100
AcDbLine
 10
956.0943396226
 20
1796.0566037736
 30
0.0
 11
950.0943396226
 21
1796.0566037736
 31
0.0
  0
LINE
  5
15D
330
1F
100
AcDbEntity
  8
0
  6
Continuous
 62
     7
370
    15
100
AcDbLine
 10
944.0943396226
 20
796.0566037736
 30
0.0
 11
956.0943396226
 21
796.0566037736
 31
0.0
  0
LWPOLYLINE
  5
15E
330
1F
100
AcDbEntity
  8
0
  6
Continuous
 62
     8
370
    15
100
AcDbPolyline
 90
        8
 70
   128
 43
0.0
 10
950.0943396226
 20
1086.6037581006
 10
948.6022002997
 20
1086.4704677417
 10
947.203817578
 20
1086.0789717886
 10
945.9870569871
 20
1085.4538693718
 10
945.0283720696
 20
1084.6344379751
 10
944.3880005249
 20
1083.6721654868
 10
944.1061792521
 20
1082.6275150264
 10
944.0943396226
 20
1082.3611174135
  0
LWPOLYLINE
  5
15F
330
1F
100
AcDbEntity
  8
0
  6
Continuous
 62
     8
370
    15
100
AcDbPolyline
 90
        8
 70
   128
 43
0.0
 10
956.0943396226
 20
1082.3611174135
 10
956.0824999932
 20
1082.6275150264
 10
955.8006787204
 20
1083.6721654868
 10
955.1603071757
 20
1084.6344379751
 10
954.2016222582
 20
1085.4538693718
 10
952.9848616673
 20
1086.0789717886
 10
951.5864789456
 20
1086.4704677417
 10
950.0943396226
 20
1086.6037581006
  0
LWPOLYLINE
  5
160
330
1F
100
AcDbEntity
  8
0
  6
Continuous
 62
     8
370
    15
100
AcDbPolyline
 90
        8
 70
   128
 43
0.0
 10
950.0943396226
 20
1185.44641505
 10
948.6022002997
 20
1185.3131246911
 10
947.203817578
 20
1184.921628738
 10
945.9870569871
 20
1184.2965263212
 10
945.0283720696
 20
1183.4770949245
 10
944.3880005249
 20
1182.5148224362
 10
944.1061792521
 20
1181.4701719758
 10
944.0943399517
 20
1181.2023692543
  0
LWPOLYLINE
  5
161
330
1F
100
AcDbEntity
  8
0
  6
Continuous
 62
     8
370
    15
100
AcDbPolyline
 90
        8
 70
   128
 43
0.0
 10
956.0943388388
 20
1181.2059429836
 10
956.0824999932
 20
1181.4701719758
 10
955.8006787204
 20
1182.5148224362
 10
955.1603071757
 20
1183.4770949245
 10
954.2016222582
 20
1184.2965263212
 10
952.9848616673
 20
1184.921628738
 10
951.5864789456
 20
1185.3131246911
 10
950.0943396226
 20
1185.44641505
  0
LINE
  5
162
330
1F
100
AcDbEntity
  8
0
  6
Continuous
 62
     8
370
    15
100
AcDbLine
 10
950.0943396226
 20
1209.4880456103
 30
0.0
 11
944.0943396226
 21
1209.4880456103
 31
0.0
  0
LINE
  5
163
330
1F
100
AcDbEntity
  8
0
  6
Continuous
 62
     8
370
    15
100
AcDbLine
 10
956.0943396226
 20
1209.4880456103
 30
0.0
 11
950.0943396226
 21
1209.4880456103
 31
0.0
  0
LINE
  5
164
330
1F
100
AcDbEntity
  8
0
  6
Continuous
 62
     8
370
    15
100
AcDbLine
 10
944.0943396226
 20
1049.4880612787
 30
0.0
 11
956.0943396226
 21
1049.4880612787
 31
0.0
  0
LINE
  5
165
330
1F
100
AcDbEntity
  8
0
  6
Continuous
 62
     7
370
    15
100
AcDbLine
 10
2446.6553394074
 20
1410.8097909867
 30
0.0
 11
2446.6553394074
 21
908.0224033092
 31
0.0
  0
LINE
  5
166
330
1F
100
AcDbEntity
  8
0
  6
Continuous
 62
     7
370
    15
100
AcDbLine
 10
2458.6553394074
 20
908.0224033092
 30
0.0
 11
2458.6553394074
 21
1410.8097909867
 31
0.0
  0
LINE
  5
167
330
1F
100
AcDbEntity
  8
0
  6
Continuous
 62
     7
370
    15
100
AcDbLine
 10
2456.6809703131
 20
1409.9753717176
 30
0.0
 11
2456.6809703131
 21
1410.1501194165
 31
0.0
  0
LINE
  5
168
330
1F
100
AcDbEntity
  8
0
  6
Continuous
 62
     7
370
    15
100
AcDbLine
 10
2455.6909606048
 20
1410.244435143
 30
0.0
 11
2455.6909606048
 21
1410.4191828419
 31
0.0
  0
LINE
  5
169
330
1F
100
AcDbEntity
  8
0
  6
Continuous
 62
     7
370
    15
100
AcDbLine
 10
2453.8816754806
 20
1410.6572187825
 30
0.0
 11
2453.8816754806
 21
1410.4904029325
 31
0.0
  0
LINE
  5
16A
330
1F
100
AcDbEntity
  8
0
  6
Continuous
 62
     7
370
    15
100
AcDbLine
 10
2454.6592777408
 20
1410.4728242908
 30
0.0
 11
2454.6592777408
 21
1410.6503534757
 31
0.0
  0
LINE
  5
16B
330
1F
100
AcDbEntity
  8
0
  6
Continuous
 62
     7
370
    15
100
AcDbLine
 10
2453.6029300875
 20
1410.826878424
 30
0.0
 11
2453.6029300875
 21
1410.9930600059
 31
0.0
  0
LINE
  5
16C
330
1F
100
AcDbEntity
  8
0
  6
Continuous
 62
     7
370
    15
100
AcDbLine
 10
2453.0151426756
 20
1410.9717292131
 30
0.0
 11
2453.0151426756
 21
1411.1524196384
 31
0.0
  0
LINE
  5
16D
330
1F
100
AcDbEntity
  8
0
  6
Continuous
 62
     7
370
    15
100
AcDbLine
 10
2451.2566497389
 20
1411.3706445316
 30
0.0
 11
2451.2566497389
 21
1411.2038286816
 31
0.0
  0
LINE
  5
16E
330
1F
100
AcDbEntity
  8
0
  6
Continuous
 62
     7
370
    15
100
AcDbLine
 10
2452.0342519991
 20
1411.18625004
 30
0.0
 11
2452.0342519991
 21
1411.3637792248
 31
0.0
  0
LINE
  5
16F
330
1F
100
AcDbEntity
  8
0
  6
Continuous
 62
     7
370
    15
100
AcDbLine
 10
2449.8629041216
 20
1411.7338680196
 30
0.0
 11
2449.8629041216
 21
1411.5801744832
 31
0.0
  0
LINE
  5
170
330
1F
100
AcDbEntity
  8
0
  6
Continuous
 62
     7
370
    15
100
AcDbLine
 10
2450.6361335952
 20
1411.6252435042
 30
0.0
 11
2450.6361335952
 21
1411.7556648997
 31
0.0
  0
SPLINE
  5
171
330
1F
100
AcDbEntity
  8
0
  6
Continuous
 62
     7
370
    15
100
AcDbSpline
210
0.0
220
0.0
230
1.0
 70
     8
 71
     3
 72
     9
 73
     5
 74
     0
 42
0.000000001
 43
0.00000001
 40
0.0
 40
0.0
 40
0.0
 40
0.0
 40
0.4524862670408091
 40
1.0
 40
1.0
 40
1.0
 40
1.0
 10
2498.314471101088
 20
846.7213625577856
 30
0.0
 10
2493.694703783056
 20
852.4543120178465
 30
0.0
 10
2483.484963389728
 20
865.124198106442
 30
0.0
 10
2473.277617264004
 20
877.7912272807216
 30
0.0
 10
2467.688955083103
 20
884.7265997094344
 30
0.0
  0
SPLINE
  5
172
330
1F
100
AcDbEntity
  8
0
  6
Continuous
 62
     7
370
    15
100
AcDbSpline
210
0.0
220
0.0
230
1.0
 70
     8
 71
     3
 72
     9
 73
     5
 74
     0
 42
0.000000001
 43
0.00000001
 40
0.0
 40
0.0
 40
0.0
 40
0.0
 40
0.4524851167865249
 40
1.0
 40
1.0
 40
1.0
 40
1.0
 10
2458.344929366497
 20
877.1973787868878
 30
0.0
 10
2462.928807244217
 20
871.508966917259
 30
0.0
 10
2473.059257302497
 20
858.9374774724196
 30
0.0
 10
2483.187313112176
 20
846.3688449182632
 30
0.0
 10
2488.732574405992
 20
839.4873315332213
 30
0.0
  0
SPLINE
  5
173
330
1F
100
AcDbEntity
  8
0
  6
Continuous
 62
     7
370
    15
100
AcDbSpline
210
0.0
220
0.0
230
1.0
 70
     8
 71
     3
 72
    16
 73
    12
 74
     0
 42
0.000000001
 43
0.00000001
 40
0.0
 40
0.0
 40
0.0
 40
0.0
 40
0.0598942300330718
 40
0.1775578594791289
 40
0.2951527109336846
 40
0.4126443454659386
 40
0.5300389596382451
 40
0.6473664685093652
 40
0.7646714187362347
 40
0.8820409828132344
 40
1.0
 40
1.0
 40
1.0
 40
1.0
 10
2467.688853894785
 20
884.7267258057256
 30
0.0
 10
2467.349044437412
 20
885.1578571939461
 30
0.0
 10
2466.341671275614
 20
886.4359563765287
 30
0.0
 10
2464.813796945157
 20
888.6484860114381
 30
0.0
 10
2463.194000988784
 20
891.3748374575385
 30
0.0
 10
2461.80698657401
 20
894.1628829728405
 30
0.0
 10
2460.66131571371
 20
896.9823623048351
 30
0.0
 10
2459.764334162242
 20
899.8067840392789
 30
0.0
 10
2459.127148434052
 20
902.6059323297737
 30
0.0
 10
2458.728600850177
 20
905.3659984341225
 30
0.0
 10
2458.679800633396
 20
907.1354576317984
 30
0.0
 10
2458.655339407398
 20
908.0224033091534
 30
0.0
  0
SPLINE
  5
174
330
1F
100
AcDbEntity
  8
0
  6
Continuous
 62
     7
370
    15
100
AcDbSpline
210
0.0
220
0.0
230
1.0
 70
     8
 71
     3
 72
    17
 73
    13
 74
     0
 42
0.000000001
 43
0.00000001
 40
0.0
 40
0.0
 40
0.0
 40
0.0
 40
0.060142793948166
 40
0.1677643028215756
 40
0.2756113303672543
 40
0.3837673450279131
 40
0.4921417603377415
 40
0.6006599323104228
 40
0.7092655141933167
 40
0.8179182235294126
 40
0.9265932312193355
 40
1.0
 40
1.0
 40
1.0
 40
1.0
 10
2446.655339407398
 20
908.0224033091533
 30
0.0
 10
2446.664456629335
 20
907.3909503069924
 30
0.0
 10
2446.68988851039
 20
905.6295543737839
 30
0.0
 10
2446.962274983157
 20
902.7003324689184
 30
0.0
 10
2447.552225613046
 20
899.244676927151
 30
0.0
 10
2448.42811175556
 20
895.7827475311901
 30
0.0
 10
2449.578495303534
 20
892.3385429429834
 30
0.0
 10
2450.996422474183
 20
888.9364944707298
 30
0.0
 10
2452.669865263476
 20
885.5997537049979
 30
0.0
 10
2454.590639478678
 20
882.3543834594419
 30
0.0
 10
2456.498490386017
 20
879.5515022402537
 30
0.0
 10
2457.814484079309
 20
877.8736738278874
 30
0.0
 10
2458.345030554815
 20
877.1972526905963
 30
0.0
  0
LINE
  5
175
330
1F
100
AcDbEntity
  8
0
  6
Continuous
 62
     7
370
    15
100
AcDbLine
 10
2483.238458562
 20
837.5974909481
 30
0.0
 11
2431.3116987446
 21
902.0368564829
 31
0.0
  0
LINE
  5
176
330
1F
100
AcDbEntity
  8
0
  6
Continuous
 62
     7
370
    15
100
AcDbLine
 10
2421.9678754047
 20
894.5073833677
 30
0.0
 11
2473.894635222
 21
830.0680178329
 31
0.0
  0
LINE
  5
177
330
1F
100
AcDbEntity
  8
0
  6
Continuous
 62
     7
370
    15
100
AcDbLine
 10
2407.5841802261
 20
884.4760608604
 30
0.0
 11
2488.2783304006
 21
784.337329734
 31
0.0
  0
LINE
  5
178
330
1F
100
AcDbEntity
  8
0
  6
Continuous
 62
     7
370
    15
100
AcDbLine
 10
2497.6221537405
 20
791.8668028491
 30
0.0
 11
2416.9280035661
 21
892.0055339755
 31
0.0
  0
SPLINE
  5
179
330
1F
100
AcDbEntity
  8
0
  6
Continuous
 62
     7
370
    15
100
AcDbSpline
210
0.0
220
0.0
230
1.0
 70
     8
 71
     3
 72
    34
 73
    30
 74
     0
 42
0.000000001
 43
0.00000001
 40
0.0
 40
0.0
 40
0.0
 40
0.0
 40
0.0128532622285113
 40
0.0330140544151394
 40
0.0614099274222873
 40
0.1014100214772573
 40
0.1438960917398061
 40
0.1800114043593135
 40
0.2188415918406155
 40
0.2513447386800004
 40
0.2800660748688328
 40
0.3179523517747206
 40
0.3697303292513436
 40
0.4144728043020822
 40
0.4558259331480166
 40
0.4889440432711869
 40
0.5311734309423637
 40
0.5759897178360738
 40
0.6104880294804771
 40
0.6502942676731338
 40
0.6928572679951588
 40
0.719030179765329
 40
0.7394831646367307
 40
0.7559401074285422
 40
0.7815786934868357
 40
0.8191243392043195
 40
0.8683361261533215
 40
0.9286714886549226
 40
1.0
 40
1.0
 40
1.0
 40
1.0
 10
2473.894534033667
 20
830.0681439292376
 30
0.0
 10
2474.0389816988
 20
829.8980926678065
 30
0.0
 10
2474.410000588171
 20
829.4613100441866
 30
0.0
 10
2475.125023969525
 20
828.6661948626715
 30
0.0
 10
2476.205455459361
 20
827.5593822423577
 30
0.0
 10
2477.724785310303
 20
826.3602102074071
 30
0.0
 10
2479.423415861506
 20
825.2010708230061
 30
0.0
 10
2481.204582239588
 20
824.2605348008517
 30
0.0
 10
2482.894704026764
 20
823.5766920613347
 30
0.0
 10
2484.506092897481
 20
823.0957799494133
 30
0.0
 10
2486.119623981585
 20
822.7643425241479
 30
0.0
 10
2488.067047429826
 20
822.5660967560518
 30
0.0
 10
2490.285810408928
 20
822.6543028941375
 30
0.0
 10
2492.462768822233
 20
823.1032198304069
 30
0.0
 10
2494.238060690912
 20
823.7545493457247
 30
0.0
 10
2495.875557707004
 20
824.6143295755631
 30
0.0
 10
2497.424796645658
 20
825.7427788793435
 30
0.0
 10
2498.765205017571
 20
827.097108792219
 30
0.0
 10
2499.879275214324
 20
828.6084727386667
 30
0.0
 10
2500.759581967222
 20
830.2380336709953
 30
0.0
 10
2501.357778303335
 20
831.8807037851749
 30
0.0
 10
2501.684460175046
 20
833.2945995234584
 30
0.0
 10
2501.834624774873
 20
834.3152190543203
 30
0.0
 10
2501.920011287535
 20
835.3196781497538
 30
0.0
 10
2501.943189603422
 20
836.5890222026484
 30
0.0
 10
2501.803371580805
 20
838.4105797360384
 30
0.0
 10
2501.29276558911
 20
840.8055683292077
 30
0.0
 10
2500.239263421651
 20
843.7306953856386
 30
0.0
 10
2498.992529052705
 20
845.6682023190715
 30
0.0
 10
2498.317114423152
 20
846.7178409271794
 30
0.0
  0
SPLINE
  5
17A
330
1F
100
AcDbEntity
  8
0
  6
Continuous
 62
     7
370
    15
100
AcDbSpline
210
0.0
220
0.0
230
1.0
 70
     8
 71
     3
 72
    25
 73
    21
 74
     0
 42
0.000000001
 43
0.00000001
 40
0.0
 40
0.0
 40
0.0
 40
0.0
 40
0.0092755189552949
 40
0.0211400842699914
 40
0.0499003631319566
 40
0.1186691352641239
 40
0.1482573674301392
 40
0.1868104987611756
 40
0.2194476489484136
 40
0.2666846619850968
 40
0.3215668848040206
 40
0.4346161740227319
 40
0.5355839574432635
 40
0.6237266851355135
 40
0.6755805624452538
 40
0.7512969455531193
 40
0.8008422369357034
 40
0.8580217562950656
 40
0.9242759739463262
 40
1.0
 40
1.0
 40
1.0
 40
1.0
 10
2490.396777320354
 20
840.1725692676414
 30
0.0
 10
2490.359049740103
 20
840.1355651300657
 30
0.0
 10
2490.273063799087
 20
840.0512280066704
 30
0.0
 10
2490.152184332449
 20
839.7961961179369
 30
0.0
 10
2489.829223550305
 20
839.3376495266947
 30
0.0
 10
2489.30963457081
 20
839.255565594155
 30
0.0
 10
2489.162563998241
 20
838.970599831143
 30
0.0
 10
2489.302439289009
 20
838.5822711080214
 30
0.0
 10
2489.526287628284
 20
838.0325838519504
 30
0.0
 10
2489.752654220238
 20
837.3676535610164
 30
0.0
 10
2490.008526698616
 20
836.1500501704988
 30
0.0
 10
2489.886234928032
 20
835.3217606518344
 30
0.0
 10
2489.624955382617
 20
834.9019034583744
 30
0.0
 10
2489.378979525047
 20
834.7299286211465
 30
0.0
 10
2488.704990237722
 20
834.5646646648873
 30
0.0
 10
2487.798495899438
 20
834.594956927211
 30
0.0
 10
2486.724502691211
 20
834.9040180234191
 30
0.0
 10
2485.654903178231
 20
835.4212833684485
 30
0.0
 10
2484.415638730699
 20
836.2852521737079
 30
0.0
 10
2483.647986622485
 20
837.140968808097
 30
0.0
 10
2483.238559750271
 20
837.5973648517873
 30
0.0
  0
SPLINE
  5
17B
330
1F
100
AcDbEntity
  8
0
  6
Continuous
 62
     7
370
    15
100
AcDbSpline
210
0.0
220
0.0
230
1.0
 70
     8
 71
     3
 72
    24
 73
    20
 74
     0
 42
0.000000001
 43
0.00000001
 40
0.0
 40
0.0
 40
0.0
 40
0.0
 40
0.0271860083694616
 40
0.0849671363064866
 40
0.1425230724063917
 40
0.2000136092979997
 40
0.2581330032989193
 40
0.3183661510873473
 40
0.3835931724492196
 40
0.4597284337974689
 40
0.5493650182315466
 40
0.613905921093591
 40
0.6725150835914327
 40
0.7336344571272808
 40
0.7919148196409608
 40
0.8496155353444065
 40
0.9074195787831415
 40
0.9654411743256357
 40
1.0
 40
1.0
 40
1.0
 40
1.0
 10
2416.928003566055
 20
892.0055339755138
 30
0.0
 10
2416.806625516096
 20
892.1625363982616
 30
0.0
 10
2416.427270622383
 20
892.6532316880139
 30
0.0
 10
2415.915727756611
 20
893.521561798985
 30
0.0
 10
2415.496819838792
 20
894.5491880800133
 30
0.0
 10
2415.289561412151
 20
895.4751349600383
 30
0.0
 10
2415.261538136226
 20
896.2252505422919
 30
0.0
 10
2415.353183766826
 20
896.7535410574446
 30
0.0
 10
2415.488820371354
 20
897.0606585997779
 30
0.0
 10
2415.607358559594
 20
897.2029251226828
 30
0.0
 10
2415.750891461953
 20
897.3173005042889
 30
0.0
 10
2416.121270538321
 20
897.4529456012485
 30
0.0
 10
2416.695531083752
 20
897.5170476143568
 30
0.0
 10
2417.493801799458
 20
897.44153673663
 30
0.0
 10
2418.464421881162
 20
897.1611496489987
 30
0.0
 10
2419.499327934148
 20
896.6690818961104
 30
0.0
 10
2420.52769133496
 20
895.9718555186179
 30
0.0
 10
2421.362060248503
 20
895.2217310826321
 30
0.0
 10
2421.803203512349
 20
894.7015564398026
 30
0.0
 10
2421.967875404659
 20
894.5073833677267
 30
0.0
  0
SPLINE
  5
17C
330
1F
100
AcDbEntity
  8
0
  6
Continuous
 62
     7
370
    15
100
AcDbSpline
210
0.0
220
0.0
230
1.0
 70
     8
 71
     3
 72
    31
 73
    27
 74
     0
 42
0.000000001
 43
0.00000001
 40
0.0
 40
0.0
 40
0.0
 40
0.0
 40
0.0261562188133898
 40
0.0708579393983904
 40
0.1157079271812085
 40
0.1607221293437506
 40
0.2058970523034634
 40
0.2511573398607059
 40
0.2963501354057853
 40
0.3412443266356307
 40
0.3855796450927858
 40
0.4291492027617415
 40
0.4718693600280271
 40
0.5137992840688251
 40
0.5551151636772151
 40
0.596067131936111
 40
0.6368602771469027
 40
0.6777791474361481
 40
0.7190821009977229
 40
0.7609591593571701
 40
0.8035021502467307
 40
0.8466931019209881
 40
0.890424462212787
 40
0.9345483745007529
 40
0.9789311261917336
 40
1.0
 40
1.0
 40
1.0
 40
1.0
 10
2431.311698744627
 20
902.0368564828575
 30
0.0
 10
2431.013002101336
 20
902.3928372991744
 30
0.0
 10
2430.203824414002
 20
903.3571994376593
 30
0.0
 10
2428.714904532465
 20
904.7876717724666
 30
0.0
 10
2426.824278247281
 20
906.248868016822
 30
0.0
 10
2424.783434918392
 20
907.473617431754
 30
0.0
 10
2422.629541950786
 20
908.437229686139
 30
0.0
 10
2420.399011198761
 20
909.1136213070812
 30
0.0
 10
2418.135509232329
 20
909.4817077837334
 30
0.0
 10
2415.887919293389
 20
909.527375099005
 30
0.0
 10
2413.708623575989
 20
909.2472089161188
 30
0.0
 10
2411.649017351137
 20
908.6503465658732
 30
0.0
 10
2409.754743496414
 20
907.7575865281284
 30
0.0
 10
2408.062515964083
 20
906.5979214427621
 30
0.0
 10
2406.599524410502
 20
905.2042185356943
 30
0.0
 10
2405.385604899531
 20
903.6106535253205
 30
0.0
 10
2404.433993672725
 20
901.850049483449
 30
0.0
 10
2403.753483602161
 20
899.9527736762362
 30
0.0
 10
2403.350382057248
 20
897.9459436759653
 30
0.0
 10
2403.2302491591
 20
895.8565530624498
 30
0.0
 10
2403.397233598419
 20
893.7140313319668
 30
0.0
 10
2403.852534532904
 20
891.5523164188859
 30
0.0
 10
2404.590835535171
 20
889.4087072538258
 30
0.0
 10
2405.604149798381
 20
887.3263947309637
 30
0.0
 10
2406.640577260774
 20
885.6867025648046
 30
0.0
 10
2407.35440055583
 20
884.7708679581422
 30
0.0
 10
2407.584180226086
 20
884.4760608603835
 30
0.0
  0
SPLINE
  5
17D
330
1F
100
AcDbEntity
  8
0
  6
Continuous
 62
     7
370
    15
100
AcDbSpline
210
0.0
220
0.0
230
1.0
 70
     8
 71
     3
 72
     9
 73
     5
 74
     0
 42
0.000000001
 43
0.00000001
 40
0.0
 40
0.0
 40
0.0
 40
0.0
 40
0.4525120664029957
 40
1.0
 40
1.0
 40
1.0
 40
1.0
 10
2423.872929891144
 20
836.3812646293484
 30
0.0
 10
2431.418615469646
 20
827.0173488441718
 30
0.0
 10
2448.093719049717
 20
806.3241641085468
 30
0.0
 10
2464.76642739451
 20
785.6338374892197
 30
0.0
 10
2473.894534033666
 20
774.3061333229572
 30
0.0
  0
SPLINE
  5
17E
330
1F
100
AcDbEntity
  8
0
  6
Continuous
 62
     7
370
    15
100
AcDbSpline
210
0.0
220
0.0
230
1.0
 70
     8
 71
     3
 72
     9
 73
     5
 74
     0
 42
0.000000001
 43
0.00000001
 40
0.0
 40
0.0
 40
0.0
 40
0.0
 40
0.4525074248498771
 40
1.0
 40
1.0
 40
1.0
 40
1.0
 10
2483.238559750273
 20
781.8353542455038
 30
0.0
 10
2475.971311280579
 20
790.8537389270924
 30
0.0
 10
2459.911357187884
 20
810.783543801743
 30
0.0
 10
2443.853798274693
 20
830.7104906295142
 30
0.0
 10
2435.062403994685
 20
841.6203460631303
 30
0.0
  0
SPLINE
  5
17F
330
1F
100
AcDbEntity
  8
0
  6
Continuous
 62
     7
370
    15
100
AcDbSpline
210
0.0
220
0.0
230
1.0
 70
     8
 71
     3
 72
    31
 73
    27
 74
     0
 42
0.000000001
 43
0.00000001
 40
0.0
 40
0.0
 40
0.0
 40
0.0
 40
0.0261562188133868
 40
0.0708579393983812
 40
0.1157079271811902
 40
0.160722129343721
 40
0.2058970523034293
 40
0.2511573398606581
 40
0.2963501354057389
 40
0.3412443266355719
 40
0.3855796450927237
 40
0.4291492027616779
 40
0.4718693600279635
 40
0.5137992840687566
 40
0.5551151636771425
 40
0.5960671319360334
 40
0.6368602771468177
 40
0.6777791474360527
 40
0.7190821009976236
 40
0.7609591593570665
 40
0.8035021502466173
 40
0.8466931019208688
 40
0.8904244622126627
 40
0.9345483745006244
 40
0.9789311261916019
 40
1.0
 40
1.0
 40
1.0
 40
1.0
 10
2473.894635221985
 20
774.3060072266655
 30
0.0
 10
2474.193331865275
 20
773.9500264103489
 30
0.0
 10
2475.00250955261
 20
772.9856642718636
 30
0.0
 10
2476.491429434146
 20
771.5551919370563
 30
0.0
 10
2478.38205571933
 20
770.0939956927006
 30
0.0
 10
2480.422899048219
 20
768.8692462777686
 30
0.0
 10
2482.576792015824
 20
767.9056340233831
 30
0.0
 10
2484.807322767849
 20
767.2292424024407
 30
0.0
 10
2487.070824734281
 20
766.8611559257874
 30
0.0
 10
2489.318414673221
 20
766.8154886105158
 30
0.0
 10
2491.497710390621
 20
767.0956547934013
 30
0.0
 10
2493.557316615474
 20
767.6925171436466
 30
0.0
 10
2495.451590470197
 20
768.5852771813909
 30
0.0
 10
2497.143818002528
 20
769.7449422667569
 30
0.0
 10
2498.60680955611
 20
771.1386451738244
 30
0.0
 10
2499.82072906708
 20
772.7322101841977
 30
0.0
 10
2500.772340293887
 20
774.4928142260691
 30
0.0
 10
2501.452850364451
 20
776.3900900332815
 30
0.0
 10
2501.855951909365
 20
778.3969200335521
 30
0.0
 10
2501.976084807513
 20
780.4863106470672
 30
0.0
 10
2501.809100368194
 20
782.6288323775506
 30
0.0
 10
2501.35379943371
 20
784.790547290631
 30
0.0
 10
2500.615498431443
 20
786.9341564556914
 30
0.0
 10
2499.602184168234
 20
789.0164689785537
 30
0.0
 10
2498.56575670584
 20
790.6561611447149
 30
0.0
 10
2497.851933410783
 20
791.5719957513792
 30
0.0
 10
2497.622153740525
 20
791.8668028491395
 30
0.0
  0
SPLINE
  5
180
330
1F
100
AcDbEntity
  8
0
  6
Continuous
 62
     7
370
    15
100
AcDbSpline
210
0.0
220
0.0
230
1.0
 70
     8
 71
     3
 72
    24
 73
    20
 74
     0
 42
0.000000001
 43
0.00000001
 40
0.0
 40
0.0
 40
0.0
 40
0.0
 40
0.0271860083694569
 40
0.0849671363064382
 40
0.1425230724063386
 40
0.2000136092979374
 40
0.258133003298849
 40
0.31836615108726
 40
0.3835931724491122
 40
0.459728433797325
 40
0.5493650182315226
 40
0.6139059210935596
 40
0.6725150835913931
 40
0.7336344571272321
 40
0.7919148196409007
 40
0.8496155353443445
 40
0.9074195787830753
 40
0.9654411743255674
 40
1.0
 40
1.0
 40
1.0
 40
1.0
 10
2488.278330400557
 20
784.3373297340079
 30
0.0
 10
2488.399708450517
 20
784.18032731126
 30
0.0
 10
2488.77906334423
 20
783.6896320215083
 30
0.0
 10
2489.290606210001
 20
782.8213019105372
 30
0.0
 10
2489.70951412782
 20
781.793675629509
 30
0.0
 10
2489.916772554463
 20
780.867728749484
 30
0.0
 10
2489.944795830388
 20
780.1176131672299
 30
0.0
 10
2489.853150199788
 20
779.5893226520769
 30
0.0
 10
2489.71751359526
 20
779.2822051097432
 30
0.0
 10
2489.59897540702
 20
779.1399385868383
 30
0.0
 10
2489.45544250466
 20
779.0255632052321
 30
0.0
 10
2489.085063428292
 20
778.8899181082725
 30
0.0
 10
2488.510802882861
 20
778.8258160951642
 30
0.0
 10
2487.712532167156
 20
778.9013269728907
 30
0.0
 10
2486.741912085452
 20
779.1817140605222
 30
0.0
 10
2485.707006032466
 20
779.6737818134104
 30
0.0
 10
2484.678642631654
 20
780.3710081909028
 30
0.0
 10
2483.84427371811
 20
781.1211326268887
 30
0.0
 10
2483.403130454265
 20
781.6413072697187
 30
0.0
 10
2483.238458561954
 20
781.8354803417952
 30
0.0
  0
SPLINE
  5
181
330
1F
100
AcDbEntity
  8
0
  6
Continuous
 62
     7
370
    15
100
AcDbSpline
210
0.0
220
0.0
230
1.0
 70
     8
 71
     3
 72
    27
 73
    23
 74
     0
 42
0.000000001
 43
0.00000001
 40
0.0
 40
0.0
 40
0.0
 40
0.0
 40
0.054606274624311
 40
0.1037370543643267
 40
0.1845189921075301
 40
0.2459039558458272
 40
0.2897777580359383
 40
0.3682421975852331
 40
0.4562761271017636
 40
0.547522212542348
 40
0.5898917216594286
 40
0.6382343397810437
 40
0.7038817382640221
 40
0.7847144643990954
 40
0.8328265194888197
 40
0.8830867355590781
 40
0.9014408327782736
 40
0.9221047569871039
 40
0.942378990986023
 40
0.9575849232101167
 40
0.9706858736322969
 40
1.0
 40
1.0
 40
1.0
 40
1.0
 10
2417.333418675328
 20
838.4126702149874
 30
0.0
 10
2417.020868992067
 20
838.7800576165611
 30
0.0
 10
2416.427109690465
 20
839.4779936525204
 30
0.0
 10
2415.670668823846
 20
840.7878253945347
 30
0.0
 10
2415.2518403479
 20
842.0905055552021
 30
0.0
 10
2415.206667210516
 20
843.1557334256551
 30
0.0
 10
2415.363264647073
 20
843.8139215529008
 30
0.0
 10
2415.555035047237
 20
844.1592049016954
 30
0.0
 10
2415.92894915254
 20
844.3766265386416
 30
0.0
 10
2416.622443771044
 20
844.4908289958062
 30
0.0
 10
2417.692977988758
 20
844.354699613038
 30
0.0
 10
2418.865780376094
 20
843.9705416859724
 30
0.0
 10
2420.398095803397
 20
843.1307819578473
 30
0.0
 10
2421.760568339363
 20
841.873147685866
 30
0.0
 10
2422.731902433647
 20
840.5357474212127
 30
0.0
 10
2423.222108331322
 20
839.6078919840114
 30
0.0
 10
2423.473476706234
 20
838.8899934813542
 30
0.0
 10
2423.613000809871
 20
838.4121498159092
 30
0.0
 10
2423.72126411612
 20
837.9620335291164
 30
0.0
 10
2423.767582514684
 20
837.5808573084564
 30
0.0
 10
2423.673986429391
 20
837.1980379627471
 30
0.0
 10
2423.732739111014
 20
836.8494968162743
 30
0.0
 10
2423.773344566995
 20
836.6086112636522
 30
0.0
  0
SPLINE
  5
182
330
1F
100
AcDbEntity
  8
0
  6
Continuous
 62
     7
370
    15
100
AcDbSpline
210
0.0
220
0.0
230
1.0
 70
     8
 71
     3
 72
    35
 73
    31
 74
     0
 42
0.000000001
 43
0.00000001
 40
0.0
 40
0.0
 40
0.0
 40
0.0
 40
0.0279531324865058
 40
0.0542805189609569
 40
0.1018300449443198
 40
0.1433641741373238
 40
0.17794271178697
 40
0.2146854141889786
 40
0.2484607595783605
 40
0.2841716279475189
 40
0.3409311951125536
 40
0.3936121014798566
 40
0.4341374438652977
 40
0.4785643535305762
 40
0.5326921529588269
 40
0.5897915161689592
 40
0.6463911811176225
 40
0.6962585499110667
 40
0.7175111766079152
 40
0.735788165584483
 40
0.7522705134466218
 40
0.7783585575651826
 40
0.8164072095541607
 40
0.8659058556941335
 40
0.895350839200884
 40
0.9283523944484982
 40
0.9455360271039883
 40
0.9618348652555165
 40
0.9780899990661254
 40
1.0
 40
1.0
 40
1.0
 40
1.0
 10
2435.161989318834
 20
841.3929994288267
 30
0.0
 10
2435.02384510026
 20
841.9363099521929
 30
0.0
 10
2434.755591090473
 20
842.9913322177475
 30
0.0
 10
2433.879084357544
 20
844.9104848045674
 30
0.0
 10
2432.782011829504
 20
847.0490319678106
 30
0.0
 10
2431.212227479505
 20
849.1433856041797
 30
0.0
 10
2429.597378266924
 20
850.8932424027208
 30
0.0
 10
2427.928704494339
 20
852.3496044005194
 30
0.0
 10
2426.101875155467
 20
853.629773126435
 30
0.0
 10
2423.794953829777
 20
854.8894803972274
 30
0.0
 10
2420.987163812784
 20
855.9420507057051
 30
0.0
 10
2418.024453730303
 20
856.4362735951004
 30
0.0
 10
2415.324045916226
 20
856.4243431762472
 30
0.0
 10
2412.621425738772
 20
855.95028546429
 30
0.0
 10
2409.820061202577
 20
854.8078190368924
 30
0.0
 10
2407.223417147128
 20
852.9100442585192
 30
0.0
 10
2405.259862904706
 20
850.4842854754754
 30
0.0
 10
2404.190097282359
 20
848.2359740033868
 30
0.0
 10
2403.690824099148
 20
846.5637523411689
 30
0.0
 10
2403.462818214612
 20
845.4914654624539
 30
0.0
 10
2403.300321507241
 20
844.3207260030291
 30
0.0
 10
2403.223652636119
 20
842.7795383083301
 30
0.0
 10
2403.376711952666
 20
840.5604081813234
 30
0.0
 10
2403.895211896559
 20
838.2566167905128
 30
0.0
 10
2404.679601144488
 20
836.0932691801197
 30
0.0
 10
2405.422562391201
 20
834.6035884736258
 30
0.0
 10
2406.133760269795
 20
833.403378795116
 30
0.0
 10
2406.693491079923
 20
832.5189898508745
 30
0.0
 10
2407.356395225629
 20
831.5797910359279
 30
0.0
 10
2407.888234019692
 20
830.9765019758174
 30
0.0
 10
2408.193554269511
 20
830.6301632570124
 30
0.0
  0
LINE
  5
183
330
1F
100
AcDbEntity
  8
0
  6
Continuous
 62
     7
370
    15
100
AcDbLine
 10
2408.1922786656
 20
830.6317100653
 30
0.0
 11
2437.559200431
 21
794.1883461249
 31
0.0
  0
LINE
  5
184
330
1F
100
AcDbEntity
  8
0
  6
Continuous
 62
     7
370
    15
100
AcDbLine
 10
2446.9030237709
 20
801.71781924
 30
0.0
 11
2417.3346942792
 21
838.4111234067
 31
0.0
  0
SPLINE
  5
185
330
1F
100
AcDbEntity
  8
0
  6
Continuous
 62
     7
370
    15
100
AcDbSpline
210
0.0
220
0.0
230
1.0
 70
     8
 71
     3
 72
    17
 73
    13
 74
     0
 42
0.000000001
 43
0.00000001
 40
0.0
 40
0.0
 40
0.0
 40
0.0
 40
0.0601427939481653
 40
0.1677643028215794
 40
0.2756113303672614
 40
0.3837673450279169
 40
0.4921417603377488
 40
0.6006599323104289
 40
0.709265514193316
 40
0.8179182235294152
 40
0.9265932312193319
 40
1.0
 40
1.0
 40
1.0
 40
1.0
 10
2458.592714918353
 20
770.892668621448
 30
0.0
 10
2458.583597696416
 20
771.5241216236088
 30
0.0
 10
2458.558165815361
 20
773.2855175568175
 30
0.0
 10
2458.285779342594
 20
776.2147394616828
 30
0.0
 10
2457.695828712705
 20
779.6703950034506
 30
0.0
 10
2456.819942570191
 20
783.1323243994112
 30
0.0
 10
2455.669559022217
 20
786.576528987618
 30
0.0
 10
2454.251631851568
 20
789.9785774598714
 30
0.0
 10
2452.578189062275
 20
793.3153182256034
 30
0.0
 10
2450.657414847073
 20
796.5606884711593
 30
0.0
 10
2448.749563939733
 20
799.3635696903472
 30
0.0
 10
2447.433570246441
 20
801.0413981027135
 30
0.0
 10
2446.903023770935
 20
801.7178192400046
 30
0.0
  0
SPLINE
  5
186
330
1F
100
AcDbEntity
  8
0
  6
Continuous
 62
     7
370
    15
100
AcDbSpline
210
0.0
220
0.0
230
1.0
 70
     8
 71
     3
 72
    16
 73
    12
 74
     0
 42
0.000000001
 43
0.00000001
 40
0.0
 40
0.0
 40
0.0
 40
0.0
 40
0.0598942300330709
 40
0.1775578594791174
 40
0.2951527109336731
 40
0.4126443454659299
 40
0.530038959638234
 40
0.6473664685093563
 40
0.7646714187362397
 40
0.8820409828132408
 40
1.0
 40
1.0
 40
1.0
 40
1.0
 10
2437.559200430967
 20
794.1883461248754
 30
0.0
 10
2437.899009888339
 20
793.7572147366551
 30
0.0
 10
2438.906383050137
 20
792.4791155540726
 30
0.0
 10
2440.434257380594
 20
790.2665859191632
 30
0.0
 10
2442.054053336967
 20
787.5402344730627
 30
0.0
 10
2443.441067751741
 20
784.7521889577611
 30
0.0
 10
2444.586738612041
 20
781.9327096257665
 30
0.0
 10
2445.48372016351
 20
779.1082878913224
 30
0.0
 10
2446.120905891699
 20
776.3091396008276
 30
0.0
 10
2446.519453475574
 20
773.5490734964789
 30
0.0
 10
2446.568253692355
 20
771.7796142988029
 30
0.0
 10
2446.592714918353
 20
770.892668621448
 30
0.0
  0
LINE
  5
187
330
1F
100
AcDbEntity
  8
0
  6
Continuous
 62
     7
370
    15
100
AcDbLine
 10
2458.5927149184
 20
553.6595102788
 30
0.0
 11
2458.5927149184
 21
770.8926686214
 31
0.0
  0
LINE
  5
188
330
1F
100
AcDbEntity
  8
0
  6
Continuous
 62
     7
370
    15
100
AcDbLine
 10
2446.5927149184
 20
770.8926686214
 30
0.0
 11
2446.5927149184
 21
553.6595102788
 31
0.0
  0
LINE
  5
189
330
1F
100
AcDbEntity
  8
0
  6
Continuous
 62
     7
370
    15
100
AcDbLine
 10
2455.8278705181
 20
1409.9475650099
 30
0.0
 11
2455.7228694885
 21
1409.9761020399
 31
0.0
  0
LINE
  5
18A
330
1F
100
AcDbEntity
  8
0
  6
Continuous
 62
     7
370
    15
100
AcDbLine
 10
2455.9910014123
 20
1410.1067857637
 30
0.0
 11
2455.8278705181
 21
1409.9475650099
 31
0.0
  0
SPLINE
  5
18B
330
1F
100
AcDbEntity
  8
0
  6
Continuous
 62
     7
370
    15
100
AcDbSpline
210
0.0
220
0.0
230
1.0
 70
     8
 71
     3
 72
    15
 73
    11
 74
     0
 42
0.000000001
 43
0.00000001
 40
0.0
 40
0.0
 40
0.0
 40
0.0
 40
0.0769954547170576
 40
0.1676150771831735
 40
0.2710523936342344
 40
0.3894595025720742
 40
0.5208428024655765
 40
0.6663987586080736
 40
0.8260936125153157
 40
1.0
 40
1.0
 40
1.0
 40
1.0
 10
2456.128253920088
 20
1410.220568806131
 30
0.0
 10
2456.123893125513
 20
1410.217955878176
 30
0.0
 10
2456.114399903842
 20
1410.212267670704
 30
0.0
 10
2456.100429264906
 20
1410.202495838745
 30
0.0
 10
2456.085039643576
 20
1410.19098213913
 30
0.0
 10
2456.068417881651
 20
1410.177694108664
 30
0.0
 10
2456.05096896227
 20
1410.16245934202
 30
0.0
 10
2456.031718100852
 20
1410.145628079628
 30
0.0
 10
2456.011722789258
 20
1410.126824941274
 30
0.0
 10
2455.998101955463
 20
1410.113652539231
 30
0.0
 10
2455.991001412342
 20
1410.106785763663
 30
0.0
  0
SPLINE
  5
18C
330
1F
100
AcDbEntity
  8
0
  6
Continuous
 62
     7
370
    15
100
AcDbSpline
210
0.0
220
0.0
230
1.0
 70
     8
 71
     3
 72
    23
 73
    19
 74
     0
 42
0.000000001
 43
0.00000001
 40
0.0
 40
0.0
 40
0.0
 40
0.0
 40
0.0639861098164667
 40
0.1266268580894775
 40
0.1889843719814873
 40
0.2502301939603986
 40
0.312351162962322
 40
0.3745736184579387
 40
0.4381475308782041
 40
0.5029204126073704
 40
0.5679740951402718
 40
0.6307713337491905
 40
0.6929346089254588
 40
0.7543975343123296
 40
0.8152183520172955
 40
0.8761169254810909
 40
0.938014604793953
 40
1.0
 40
1.0
 40
1.0
 40
1.0
 10
2456.538588811347
 20
1410.258127667829
 30
0.0
 10
2456.530058135753
 20
1410.260341347742
 30
0.0
 10
2456.513176149163
 20
1410.264722163092
 30
0.0
 10
2456.486721423203
 20
1410.269831635015
 30
0.0
 10
2456.459951096192
 20
1410.273704625684
 30
0.0
 10
2456.432729173143
 20
1410.276509497867
 30
0.0
 10
2456.405106043806
 20
1410.277707927868
 30
0.0
 10
2456.377049303558
 20
1410.278173003931
 30
0.0
 10
2456.348666997102
 20
1410.276961508753
 30
0.0
 10
2456.320102045438
 20
1410.274777796888
 30
0.0
 10
2456.292109045324
 20
1410.271362598445
 30
0.0
 10
2456.264960210682
 20
1410.26710929415
 30
0.0
 10
2456.239141771619
 20
1410.261739187739
 30
0.0
 10
2456.214372091791
 20
1410.255528409587
 30
0.0
 10
2456.190983767194
 20
1410.248208815509
 30
0.0
 10
2456.168693009947
 20
1410.239989473679
 30
0.0
 10
2456.147549016471
 20
1410.230838221649
 30
0.0
 10
2456.134688654159
 20
1410.2239935601
 30
0.0
 10
2456.128253920088
 20
1410.220568806131
 30
0.0
  0
SPLINE
  5
18D
330
1F
100
AcDbEntity
  8
0
  6
Continuous
 62
     7
370
    15
100
AcDbSpline
210
0.0
220
0.0
230
1.0
 70
     8
 71
     3
 72
    15
 73
    11
 74
     0
 42
0.000000001
 43
0.00000001
 40
0.0
 40
0.0
 40
0.0
 40
0.0
 40
0.1355195283706056
 40
0.2608331631936788
 40
0.3784760291245042
 40
0.4931776464746759
 40
0.6092809649289396
 40
0.7299810378566453
 40
0.8592613089300678
 40
1.0
 40
1.0
 40
1.0
 40
1.0
 10
2456.670337256218
 20
1410.111515064183
 30
0.0
 10
2456.673790300904
 20
1410.119317557816
 30
0.0
 10
2456.680436343574
 20
1410.134334944016
 30
0.0
 10
2456.68183151866
 20
1410.156775861955
 30
0.0
 10
2456.676057278325
 20
1410.177758764762
 30
0.0
 10
2456.662748840055
 20
1410.197262764452
 30
0.0
 10
2456.642160485563
 20
1410.215222182351
 30
0.0
 10
2456.614166751589
 20
1410.231408962476
 30
0.0
 10
2456.579562620735
 20
1410.246179163115
 30
0.0
 10
2456.552627747095
 20
1410.254033728494
 30
0.0
 10
2456.538588811347
 20
1410.258127667829
 30
0.0
  0
SPLINE
  5
18E
330
1F
100
AcDbEntity
  8
0
  6
Continuous
 62
     7
370
    15
100
AcDbSpline
210
0.0
220
0.0
230
1.0
 70
     8
 71
     3
 72
    15
 73
    11
 74
     0
 42
0.000000001
 43
0.00000001
 40
0.0
 40
0.0
 40
0.0
 40
0.0
 40
0.1788500194111598
 40
0.3421096489422994
 40
0.489825663368392
 40
0.6232544282245641
 40
0.7400796760857922
 40
0.8414826730699853
 40
0.9289076721840649
 40
1.0
 40
1.0
 40
1.0
 40
1.0
 10
2456.580106757065
 20
1410.007947048599
 30
0.0
 10
2456.586184840165
 20
1410.013960036683
 30
0.0
 10
2456.597811178715
 20
1410.025461859547
 30
0.0
 10
2456.614244587252
 20
1410.041987594976
 30
0.0
 10
2456.628561510229
 20
1410.057133402216
 30
0.0
 10
2456.640894508574
 20
1410.070817742069
 30
0.0
 10
2456.650999073666
 20
1410.083090707959
 30
0.0
 10
2456.659430275632
 20
1410.093832033077
 30
0.0
 10
2456.665807555477
 20
1410.103128598307
 30
0.0
 10
2456.668934758704
 20
1410.108918425196
 30
0.0
 10
2456.670337256218
 20
1410.111515064184
 30
0.0
  0
LINE
  5
18F
330
1F
100
AcDbEntity
  8
0
  6
Continuous
 62
     7
370
    15
100
AcDbLine
 10
2456.3678758136
 20
1409.8008031415
 30
0.0
 11
2456.5801067571
 21
1410.0079470486
 31
0.0
  0
LINE
  5
190
330
1F
100
AcDbEntity
  8
0
  6
Continuous
 62
     7
370
    15
100
AcDbLine
 10
2456.4728768433
 20
1409.7722661116
 30
0.0
 11
2456.3678758136
 21
1409.8008031415
 31
0.0
  0
LINE
  5
191
330
1F
100
AcDbEntity
  8
0
  6
Continuous
 62
     7
370
    15
100
AcDbLine
 10
2456.7032884095
 20
1409.9971548638
 30
0.0
 11
2456.4728768433
 21
1409.7722661116
 31
0.0
  0
SPLINE
  5
192
330
1F
100
AcDbEntity
  8
0
  6
Continuous
 62
     7
370
    15
100
AcDbSpline
210
0.0
220
0.0
230
1.0
 70
     8
 71
     3
 72
    23
 73
    19
 74
     0
 42
0.000000001
 43
0.00000001
 40
0.0
 40
0.0
 40
0.0
 40
0.0
 40
0.077240423616479
 40
0.1511781404663831
 40
0.2234879838003991
 40
0.2955426441988696
 40
0.3669762546197896
 40
0.4371305254863864
 40
0.5070436156432694
 40
0.578559733523678
 40
0.6166135446965534
 40
0.658756236977529
 40
0.7044912261144044
 40
0.75480311490515
 40
0.8093316253185656
 40
0.8682744554728209
 40
0.9320728834092938
 40
1.0
 40
1.0
 40
1.0
 40
1.0
 10
2456.612277852902
 20
1410.307238695262
 30
0.0
 10
2456.627792110859
 20
1410.302638111773
 30
0.0
 10
2456.658157255936
 20
1410.293633660162
 30
0.0
 10
2456.698479769746
 20
1410.276728133769
 30
0.0
 10
2456.732451277346
 20
1410.257338224767
 30
0.0
 10
2456.760285318033
 20
1410.235859715923
 30
0.0
 10
2456.781562026382
 20
1410.212774837732
 30
0.0
 10
2456.796270910588
 20
1410.188619796832
 30
0.0
 10
2456.803217045366
 20
1410.163546120711
 30
0.0
 10
2456.803093420395
 20
1410.142069559756
 30
0.0
 10
2456.799075651958
 20
1410.124080152608
 30
0.0
 10
2456.793076280871
 20
1410.109367961131
 30
0.0
 10
2456.784512378704
 20
1410.093488086798
 30
0.0
 10
2456.773696179659
 20
1410.076410691246
 30
0.0
 10
2456.759627616394
 20
1410.058267323276
 30
0.0
 10
2456.743321487325
 20
1410.038872230612
 30
0.0
 10
2456.724740928918
 20
1410.018243149882
 30
0.0
 10
2456.710587124086
 20
1410.004329656573
 30
0.0
 10
2456.703288409515
 20
1409.99715486382
 30
0.0
  0
SPLINE
  5
193
330
1F
100
AcDbEntity
  8
0
  6
Continuous
 62
     7
370
    15
100
AcDbSpline
210
0.0
220
0.0
230
1.0
 70
     8
 71
     3
 72
    15
 73
    11
 74
     0
 42
0.000000001
 43
0.00000001
 40
0.0
 40
0.0
 40
0.0
 40
0.0
 40
0.1409759662687709
 40
0.2735687809631692
 40
0.3989883138042533
 40
0.5199297813924313
 40
0.6381100215247449
 40
0.7565889007405945
 40
0.8768597544106079
 40
1.0
 40
1.0
 40
1.0
 40
1.0
 10
2456.197666859042
 20
1410.308497575264
 30
0.0
 10
2456.216259166946
 20
1410.312654721239
 30
0.0
 10
2456.252338189089
 20
1410.320721808042
 30
0.0
 10
2456.307395360816
 20
1410.329249058881
 30
0.0
 10
2456.361199641134
 20
1410.333984115932
 30
0.0
 10
2456.413681281359
 20
1410.33515150319
 30
0.0
 10
2456.464997802218
 20
1410.332837013981
 30
0.0
 10
2456.515347712137
 20
1410.327553813704
 30
0.0
 10
2456.564886238012
 20
1410.319127557383
 30
0.0
 10
2456.596356986212
 20
1410.311232671609
 30
0.0
 10
2456.612277852902
 20
1410.307238695262
 30
0.0
  0
LINE
  5
194
330
1F
100
AcDbEntity
  8
0
  6
Continuous
 62
     7
370
    15
100
AcDbLine
 10
2456.2790467896
 20
1410.3879268823
 30
0.0
 11
2456.197666859
 21
1410.3084975753
 31
0.0
  0
LINE
  5
195
330
1F
100
AcDbEntity
  8
0
  6
Continuous
 62
     7
370
    15
100
AcDbLine
 10
2456.1740457599
 20
1410.4164639123
 30
0.0
 11
2456.2790467896
 21
1410.3879268823
 31
0.0
  0
LINE
  5
196
330
1F
100
AcDbEntity
  8
0
  6
Continuous
 62
     7
370
    15
100
AcDbLine
 10
2455.7228694885
 20
1409.9761020399
 30
0.0
 11
2456.1740457599
 21
1410.4164639123
 31
0.0
  0
LINE
  5
197
330
1F
100
AcDbEntity
  8
0
  6
Continuous
 62
     7
370
    15
100
AcDbLine
 10
2454.7555502168
 20
1410.6978104327
 30
0.0
 11
2454.8390326684
 21
1410.7792918647
 31
0.0
  0
SPLINE
  5
198
330
1F
100
AcDbEntity
  8
0
  6
Continuous
 62
     7
370
    15
100
AcDbSpline
210
0.0
220
0.0
230
1.0
 70
     8
 71
     3
 72
    15
 73
    11
 74
     0
 42
0.000000001
 43
0.00000001
 40
0.0
 40
0.0
 40
0.0
 40
0.0
 40
0.1298621417207367
 40
0.2546535308972871
 40
0.3760145541937124
 40
0.4952552518176077
 40
0.6147977192994577
 40
0.7381055541683327
 40
0.8651963000723575
 40
1.0
 40
1.0
 40
1.0
 40
1.0
 10
2454.501007149173
 20
1410.881036833475
 30
0.0
 10
2454.518203368458
 20
1410.876046801407
 30
0.0
 10
2454.551924342878
 20
1410.866261584035
 30
0.0
 10
2454.597837949111
 20
1410.848618792974
 30
0.0
 10
2454.638195923405
 20
1410.828925409287
 30
0.0
 10
2454.673698358155
 20
1410.807408653599
 30
0.0
 10
2454.70357464401
 20
1410.783518086086
 30
0.0
 10
2454.727245885138
 20
1410.757190924804
 30
0.0
 10
2454.745227215918
 20
1410.728412633131
 30
0.0
 10
2454.752042313585
 20
1410.70820949779
 30
0.0
 10
2454.755550216847
 20
1410.69781043268
 30
0.0
  0
SPLINE
  5
199
330
1F
100
AcDbEntity
  8
0
  6
Continuous
 62
     7
370
    15
100
AcDbSpline
210
0.0
220
0.0
230
1.0
 70
     8
 71
     3
 72
    23
 73
    19
 74
     0
 42
0.000000001
 43
0.00000001
 40
0.0
 40
0.0
 40
0.0
 40
0.0
 40
0.063774532305632
 40
0.1260788099895058
 40
0.1869040927472074
 40
0.2475739349176196
 40
0.3080033561644469
 40
0.3691318984609777
 40
0.4320332277442044
 40
0.4967907944370909
 40
0.5616108232295652
 40
0.6249138657484625
 40
0.6867263492419248
 40
0.7480788332577711
 40
0.8095822911398957
 40
0.8716307425688274
 40
0.9348858208285538
 40
1.0
 40
1.0
 40
1.0
 40
1.0
 10
2453.819673513656
 20
1410.776384144816
 30
0.0
 10
2453.827935754179
 20
1410.783925694294
 30
0.0
 10
2453.844269757979
 20
1410.798834930776
 30
0.0
 10
2453.873243195633
 20
1410.819416523042
 30
0.0
 10
2453.90558150972
 20
1410.838035778774
 30
0.0
 10
2453.941193610213
 20
1410.85462921524
 30
0.0
 10
2453.980030516788
 20
1410.869241933973
 30
0.0
 10
2454.022036970694
 20
1410.881906753221
 30
0.0
 10
2454.067267778283
 20
1410.892675119386
 30
0.0
 10
2454.115335921999
 20
1410.901109957121
 30
0.0
 10
2454.164657908995
 20
1410.907564048724
 30
0.0
 10
2454.214227656573
 20
1410.911350921744
 30
0.0
 10
2454.263353610097
 20
1410.912904914541
 30
0.0
 10
2454.312017803284
 20
1410.911488869556
 30
0.0
 10
2454.360313703245
 20
1410.907917997019
 30
0.0
 10
2454.408050650629
 20
1410.901554771216
 30
0.0
 10
2454.455235613412
 20
1410.892626323925
 30
0.0
 10
2454.485603370778
 20
1410.88493711647
 30
0.0
 10
2454.501007149173
 20
1410.881036833475
 30
0.0
  0
SPLINE
  5
19A
330
1F
100
AcDbEntity
  8
0
  6
Continuous
 62
     7
370
    15
100
AcDbSpline
210
0.0
220
0.0
230
1.0
 70
     8
 71
     3
 72
    23
 73
    19
 74
     0
 42
0.000000001
 43
0.00000001
 40
0.0
 40
0.0
 40
0.0
 40
0.0
 40
0.064619991340768
 40
0.1274334841444695
 40
0.1890041265579399
 40
0.249930070686047
 40
0.310668453740672
 40
0.3723289611368242
 40
0.4349391099970084
 40
0.499575544194034
 40
0.5641912077719239
 40
0.6267352169294786
 40
0.6881093335614016
 40
0.7492936065367515
 40
0.8103305278109454
 40
0.8719011702244159
 40
0.9350459146845316
 40
1.0
 40
1.0
 40
1.0
 40
1.0
 10
2454.030718849201
 20
1410.426115449531
 30
0.0
 10
2454.01583603118
 20
1410.43043022133
 30
0.0
 10
2453.986486455068
 20
1410.438939142366
 30
0.0
 10
2453.945994542471
 20
1410.454073807826
 30
0.0
 10
2453.909158325431
 20
1410.470717250767
 30
0.0
 10
2453.87600887696
 20
1410.488949500684
 30
0.0
 10
2453.847145394789
 20
1410.50902805085
 30
0.0
 10
2453.821757086175
 20
1410.530574658165
 30
0.0
 10
2453.800343072873
 20
1410.553836483198
 30
0.0
 10
2453.783204253056
 20
1410.578434070711
 30
0.0
 10
2453.770063250244
 20
1410.60366355215
 30
0.0
 10
2453.761812015818
 20
1410.62900596417
 30
0.0
 10
2453.759085030129
 20
1410.654188980634
 30
0.0
 10
2453.760840290452
 20
1410.679186336818
 30
0.0
 10
2453.767867006688
 20
1410.703979644706
 30
0.0
 10
2453.780157690893
 20
1410.728478598062
 30
0.0
 10
2453.79708774604
 20
1410.752820032629
 30
0.0
 10
2453.812074364605
 20
1410.768455824476
 30
0.0
 10
2453.819673513656
 20
1410.776384144816
 30
0.0
  0
SPLINE
  5
19B
330
1F
100
AcDbEntity
  8
0
  6
Continuous
 62
     7
370
    15
100
AcDbSpline
210
0.0
220
0.0
230
1.0
 70
     8
 71
     3
 72
    15
 73
    11
 74
     0
 42
0.000000001
 43
0.00000001
 40
0.0
 40
0.0
 40
0.0
 40
0.0
 40
0.1342983790141676
 40
0.2620849753823007
 40
0.3862699121345
 40
0.5071645966228001
 40
0.6273002357255062
 40
0.748144941602994
 40
0.8723701771613523
 40
0.9999999999999999
 40
0.9999999999999999
 40
0.9999999999999999
 40
0.9999999999999999
 10
2454.465897029433
 20
1410.415100042035
 30
0.0
 10
2454.446993943429
 20
1410.411424251409
 30
0.0
 10
2454.410104333395
 20
1410.404250899782
 30
0.0
 10
2454.353506369166
 20
1410.397163376991
 30
0.0
 10
2454.297715719848
 20
1410.393753295124
 30
0.0
 10
2454.242670657118
 20
1410.393712665626
 30
0.0
 10
2454.188538707796
 20
1410.39715652067
 30
0.0
 10
2454.135040244885
 20
1410.40368718154
 30
0.0
 10
2454.081836149735
 20
1410.412997621952
 30
0.0
 10
2454.047910817403
 20
1410.421703611029
 30
0.0
 10
2454.030718849201
 20
1410.426115449531
 30
0.0
  0
LINE
  5
19C
330
1F
100
AcDbEntity
  8
0
  6
Continuous
 62
     7
370
    15
100
AcDbLine
 10
2454.387856397
 20
1410.3389299923
 30
0.0
 11
2454.4658970294
 21
1410.415100042
 31
0.0
  0
LINE
  5
19D
330
1F
100
AcDbEntity
  8
0
  6
Continuous
 62
     7
370
    15
100
AcDbLine
 10
2454.4928574266
 20
1410.3103929623
 30
0.0
 11
2454.387856397
 21
1410.3389299923
 31
0.0
  0
LINE
  5
19E
330
1F
100
AcDbEntity
  8
0
  6
Continuous
 62
     7
370
    15
100
AcDbLine
 10
2454.9440336981
 20
1410.7507548347
 30
0.0
 11
2454.4928574266
 21
1410.3103929623
 31
0.0
  0
LINE
  5
19F
330
1F
100
AcDbEntity
  8
0
  6
Continuous
 62
     7
370
    15
100
AcDbLine
 10
2454.8390326684
 20
1410.7792918647
 30
0.0
 11
2454.9440336981
 21
1410.7507548347
 31
0.0
  0
LINE
  5
1A0
330
1F
100
AcDbEntity
  8
0
  6
Continuous
 62
     7
370
    15
100
AcDbLine
 10
2452.1266904662
 20
1411.4074940716
 30
0.0
 11
2452.3960605098
 21
1411.6704074921
 31
0.0
  0
SPLINE
  5
1A1
330
1F
100
AcDbEntity
  8
0
  6
Continuous
 62
     7
370
    15
100
AcDbSpline
210
0.0
220
0.0
230
1.0
 70
     8
 71
     3
 72
    15
 73
    11
 74
     0
 42
0.000000001
 43
0.00000001
 40
0.0
 40
0.0
 40
0.0
 40
0.0
 40
0.1288840014739258
 40
0.252984971857837
 40
0.374210437182597
 40
0.4941015128996903
 40
0.6147527632399877
 40
0.738511070373329
 40
0.8662425140769306
 40
0.9999999999999999
 40
0.9999999999999999
 40
0.9999999999999999
 40
0.9999999999999999
 10
2451.875981407416
 20
1411.594462582586
 30
0.0
 10
2451.893160476117
 20
1411.589448741246
 30
0.0
 10
2451.926881078847
 20
1411.579607127889
 30
0.0
 10
2451.972455907984
 20
1411.561562554405
 30
0.0
 10
2452.0122400248
 20
1411.541249363471
 30
0.0
 10
2452.046775863101
 20
1411.518856489836
 30
0.0
 10
2452.075481208901
 20
1411.49415013049
 30
0.0
 10
2452.098976030685
 20
1411.467348920583
 30
0.0
 10
2452.116104164678
 20
1411.438189283055
 30
0.0
 10
2452.123107898415
 20
1411.417881804791
 30
0.0
 10
2452.126690466204
 20
1411.407494071582
 30
0.0
  0
SPLINE
  5
1A2
330
1F
100
AcDbEntity
  8
0
  6
Continuous
 62
     7
370
    15
100
AcDbSpline
210
0.0
220
0.0
230
1.0
 70
     8
 71
     3
 72
    23
 73
    19
 74
     0
 42
0.000000001
 43
0.00000001
 40
0.0
 40
0.0
 40
0.0
 40
0.0
 40
0.063774532305632
 40
0.1260788099895058
 40
0.1869040927472074
 40
0.2475739349176196
 40
0.3080033561644469
 40
0.3691318984609777
 40
0.4320332277442044
 40
0.4967907944370909
 40
0.5616108232295652
 40
0.6249138657484625
 40
0.6867263492419248
 40
0.7480788332577711
 40
0.8095822911398957
 40
0.8716307425688274
 40
0.9348858208285538
 40
1.0
 40
1.0
 40
1.0
 40
1.0
 10
2451.194647771899
 20
1411.489809893927
 30
0.0
 10
2451.202910012422
 20
1411.497351443405
 30
0.0
 10
2451.219244016221
 20
1411.512260679888
 30
0.0
 10
2451.248217453876
 20
1411.532842272153
 30
0.0
 10
2451.280555767963
 20
1411.551461527885
 30
0.0
 10
2451.316167868456
 20
1411.56805496435
 30
0.0
 10
2451.35500477503
 20
1411.582667683085
 30
0.0
 10
2451.397011228936
 20
1411.595332502332
 30
0.0
 10
2451.442242036525
 20
1411.606100868496
 30
0.0
 10
2451.490310180241
 20
1411.614535706232
 30
0.0
 10
2451.539632167237
 20
1411.620989797835
 30
0.0
 10
2451.589201914815
 20
1411.624776670855
 30
0.0
 10
2451.63832786834
 20
1411.626330663653
 30
0.0
 10
2451.686992061526
 20
1411.624914618667
 30
0.0
 10
2451.735287961487
 20
1411.621343746129
 30
0.0
 10
2451.783024908872
 20
1411.614980520327
 30
0.0
 10
2451.830209871654
 20
1411.606052073036
 30
0.0
 10
2451.860577629021
 20
1411.598362865582
 30
0.0
 10
2451.875981407416
 20
1411.594462582586
 30
0.0
  0
SPLINE
  5
1A3
330
1F
100
AcDbEntity
  8
0
  6
Continuous
 62
     7
370
    15
100
AcDbSpline
210
0.0
220
0.0
230
1.0
 70
     8
 71
     3
 72
    23
 73
    19
 74
     0
 42
0.000000001
 43
0.00000001
 40
0.0
 40
0.0
 40
0.0
 40
0.0
 40
0.064619991340768
 40
0.1274334841444695
 40
0.1890041265579399
 40
0.249930070686047
 40
0.310668453740672
 40
0.3723289611368242
 40
0.4349391099970084
 40
0.499575544194034
 40
0.5641912077719239
 40
0.6267352169294786
 40
0.6881093335614016
 40
0.7492936065367515
 40
0.8103305278109454
 40
0.8719011702244159
 40
0.9350459146845316
 40
1.0
 40
1.0
 40
1.0
 40
1.0
 10
2451.405693107443
 20
1411.139541198642
 30
0.0
 10
2451.390810289423
 20
1411.143855970441
 30
0.0
 10
2451.36146071331
 20
1411.152364891477
 30
0.0
 10
2451.320968800714
 20
1411.167499556938
 30
0.0
 10
2451.284132583673
 20
1411.184142999878
 30
0.0
 10
2451.250983135203
 20
1411.202375249795
 30
0.0
 10
2451.222119653031
 20
1411.222453799962
 30
0.0
 10
2451.196731344417
 20
1411.244000407276
 30
0.0
 10
2451.175317331115
 20
1411.267262232309
 30
0.0
 10
2451.158178511299
 20
1411.291859819822
 30
0.0
 10
2451.145037508487
 20
1411.317089301262
 30
0.0
 10
2451.136786274061
 20
1411.342431713281
 30
0.0
 10
2451.134059288371
 20
1411.367614729746
 30
0.0
 10
2451.135814548694
 20
1411.392612085929
 30
0.0
 10
2451.14284126493
 20
1411.417405393817
 30
0.0
 10
2451.155131949136
 20
1411.441904347174
 30
0.0
 10
2451.172062004282
 20
1411.46624578174
 30
0.0
 10
2451.187048622847
 20
1411.481881573587
 30
0.0
 10
2451.194647771899
 20
1411.489809893927
 30
0.0
  0
SPLINE
  5
1A4
330
1F
100
AcDbEntity
  8
0
  6
Continuous
 62
     7
370
    15
100
AcDbSpline
210
0.0
220
0.0
230
1.0
 70
     8
 71
     3
 72
    15
 73
    11
 74
     0
 42
0.000000001
 43
0.00000001
 40
0.0
 40
0.0
 40
0.0
 40
0.0
 40
0.1342983790141679
 40
0.262084975382301
 40
0.3862699121345002
 40
0.5071645966228003
 40
0.6273002357255065
 40
0.748144941602994
 40
0.8723701771613523
 40
1.0
 40
1.0
 40
1.0
 40
1.0
 10
2451.840871287675
 20
1411.128525791145
 30
0.0
 10
2451.821968201671
 20
1411.12485000052
 30
0.0
 10
2451.785078591637
 20
1411.117676648893
 30
0.0
 10
2451.728480627408
 20
1411.110589126103
 30
0.0
 10
2451.672689978091
 20
1411.107179044235
 30
0.0
 10
2451.617644915361
 20
1411.107138414738
 30
0.0
 10
2451.563512966039
 20
1411.11058226978
 30
0.0
 10
2451.510014503127
 20
1411.117112930651
 30
0.0
 10
2451.456810407978
 20
1411.126423371064
 30
0.0
 10
2451.422885075645
 20
1411.13512936014
 30
0.0
 10
2451.405693107443
 20
1411.139541198642
 30
0.0
  0
LINE
  5
1A5
330
1F
100
AcDbEntity
  8
0
  6
Continuous
 62
     7
370
    15
100
AcDbLine
 10
2451.7628306552
 20
1411.0523557414
 30
0.0
 11
2451.8408712877
 21
1411.1285257911
 31
0.0
  0
LINE
  5
1A6
330
1F
100
AcDbEntity
  8
0
  6
Continuous
 62
     7
370
    15
100
AcDbLine
 10
2451.8678316849
 20
1411.0238187114
 30
0.0
 11
2451.7628306552
 21
1411.0523557414
 31
0.0
  0
LINE
  5
1A7
330
1F
100
AcDbEntity
  8
0
  6
Continuous
 62
     7
370
    15
100
AcDbLine
 10
2452.5010615395
 20
1411.6418704621
 30
0.0
 11
2451.8678316849
 21
1411.0238187114
 31
0.0
  0
LINE
  5
1A8
330
1F
100
AcDbEntity
  8
0
  6
Continuous
 62
     7
370
    15
100
AcDbLine
 10
2452.3960605098
 20
1411.6704074921
 30
0.0
 11
2452.5010615395
 21
1411.6418704621
 31
0.0
  0
SPLINE
  5
1A9
330
1F
100
AcDbEntity
  8
0
  6
Continuous
 62
     7
370
    15
100
AcDbSpline
210
0.0
220
0.0
230
1.0
 70
     8
 71
     3
 72
    23
 73
    19
 74
     0
 42
0.000000001
 43
0.00000001
 40
0.0
 40
0.0
 40
0.0
 40
0.0
 40
0.0683846151037681
 40
0.1344755875434509
 40
0.1983910577839565
 40
0.2607534774484865
 40
0.321829222807649
 40
0.3830372384795246
 40
0.4446531231064264
 40
0.5073980112040047
 40
0.5698252379730248
 40
0.6307776406313128
 40
0.6909286865237168
 40
0.7509451326917356
 40
0.8110494767293276
 40
0.8723308525469933
 40
0.9350040935894052
 40
1.0
 40
1.0
 40
1.0
 40
1.0
 10
2449.906525431925
 20
1411.823535369415
 30
0.0
 10
2449.9010953521
 20
1411.817593230719
 30
0.0
 10
2449.890417319128
 20
1411.805908254627
 30
0.0
 10
2449.878030234685
 20
1411.787930246468
 30
0.0
 10
2449.86917312083
 20
1411.770004825512
 30
0.0
 10
2449.864264597856
 20
1411.752170727225
 30
0.0
 10
2449.862294214037
 20
1411.734452217088
 30
0.0
 10
2449.864012685157
 20
1411.716780675034
 30
0.0
 10
2449.869628216637
 20
1411.699177879201
 30
0.0
 10
2449.878167212888
 20
1411.681764628856
 30
0.0
 10
2449.890364135847
 20
1411.665009485172
 30
0.0
 10
2449.904886903182
 20
1411.6490329292
 30
0.0
 10
2449.922511479953
 20
1411.63416052903
 30
0.0
 10
2449.942996295693
 20
1411.620409409421
 30
0.0
 10
2449.966200223597
 20
1411.607696393773
 30
0.0
 10
2449.992337683851
 20
1411.596219621949
 30
0.0
 10
2450.020877986807
 20
1411.585533908873
 30
0.0
 10
2450.041672411809
 20
1411.579556735841
 30
0.0
 10
2450.052258779215
 20
1411.576513778426
 30
0.0
  0
LINE
  5
1AA
330
1F
100
AcDbEntity
  8
0
  6
Continuous
 62
     7
370
    15
100
AcDbLine
 10
2450.6715329338
 20
1411.6156227225
 30
0.0
 11
2449.9065254319
 21
1411.8235353694
 31
0.0
  0
SPLINE
  5
1AB
330
1F
100
AcDbEntity
  8
0
  6
Continuous
 62
     7
370
    15
100
AcDbSpline
210
0.0
220
0.0
230
1.0
 70
     8
 71
     3
 72
    15
 73
    11
 74
     0
 42
0.000000001
 43
0.00000001
 40
0.0
 40
0.0
 40
0.0
 40
0.0
 40
0.1185218400132604
 40
0.2362547631617461
 40
0.3561744339909311
 40
0.477249654898558
 40
0.6015398708217021
 40
0.7296183821680425
 40
0.8621582661414386
 40
1.0
 40
1.0
 40
1.0
 40
1.0
 10
2450.735061122131
 20
1411.793734069804
 30
0.0
 10
2450.737130009984
 20
1411.786523582558
 30
0.0
 10
2450.741254014551
 20
1411.772150603227
 30
0.0
 10
2450.742405144856
 20
1411.750228980186
 30
0.0
 10
2450.740318651429
 20
1411.728188083706
 30
0.0
 10
2450.733921189685
 20
1411.705954179446
 30
0.0
 10
2450.724219608322
 20
1411.683537665943
 30
0.0
 10
2450.710639401201
 20
1411.6609155796
 30
0.0
 10
2450.692951335269
 20
1411.638158056619
 30
0.0
 10
2450.67876512565
 20
1411.623232060681
 30
0.0
 10
2450.671532933809
 20
1411.615622722532
 30
0.0
  0
SPLINE
  5
1AC
330
1F
100
AcDbEntity
  8
0
  6
Continuous
 62
     7
370
    15
100
AcDbSpline
210
0.0
220
0.0
230
1.0
 70
     8
 71
     3
 72
    15
 73
    11
 74
     0
 42
0.000000001
 43
0.00000001
 40
0.0
 40
0.0
 40
0.0
 40
0.0
 40
0.1320402344259815
 40
0.2590328407793702
 40
0.381879823925017
 40
0.5022584437149851
 40
0.6227521895274793
 40
0.7447426318590014
 40
0.8701089273418184
 40
1.0
 40
1.0
 40
1.0
 40
1.0
 10
2450.479561463721
 20
1411.973979601622
 30
0.0
 10
2450.496855266972
 20
1411.968981472384
 30
0.0
 10
2450.530781766753
 20
1411.959176282165
 30
0.0
 10
2450.576591774386
 20
1411.941305521889
 30
0.0
 10
2450.617158818606
 20
1411.921684284589
 30
0.0
 10
2450.652168437032
 20
1411.900029341487
 30
0.0
 10
2450.681642007227
 20
1411.876355897855
 30
0.0
 10
2450.705134099687
 20
1411.850570065066
 30
0.0
 10
2450.72378972664
 20
1411.822956289403
 30
0.0
 10
2450.731259850996
 20
1411.80358924523
 30
0.0
 10
2450.735061122131
 20
1411.793734069804
 30
0.0
  0
SPLINE
  5
1AD
330
1F
100
AcDbEntity
  8
0
  6
Continuous
 62
     7
370
    15
100
AcDbSpline
210
0.0
220
0.0
230
1.0
 70
     8
 71
     3
 72
    15
 73
    11
 74
     0
 42
0.000000001
 43
0.00000001
 40
0.0
 40
0.0
 40
0.0
 40
0.0
 40
0.1288352544875544
 40
0.2535893349864763
 40
0.3746432573141701
 40
0.4953400422377924
 40
0.6163247746357905
 40
0.7397593354405149
 40
0.8668423203805464
 40
1.0
 40
1.0
 40
1.0
 40
1.0
 10
2450.061238596174
 20
1411.982728989041
 30
0.0
 10
2450.078518184536
 20
1411.986368206495
 30
0.0
 10
2450.112529987743
 20
1411.993531360228
 30
0.0
 10
2450.165092611132
 20
1412.000803486709
 30
0.0
 10
2450.217774409639
 20
1412.004544623071
 30
0.0
 10
2450.270424279083
 20
1412.005204787111
 30
0.0
 10
2450.323109545836
 20
1412.002260113865
 30
0.0
 10
2450.375803258082
 20
1411.996415120275
 30
0.0
 10
2450.428364187799
 20
1411.986879791529
 30
0.0
 10
2450.462232182686
 20
1411.978346064725
 30
0.0
 10
2450.479561463721
 20
1411.973979601622
 30
0.0
  0
SPLINE
  5
1AE
330
1F
100
AcDbEntity
  8
0
  6
Continuous
 62
     7
370
    15
100
AcDbSpline
210
0.0
220
0.0
230
1.0
 70
     8
 71
     3
 72
    15
 73
    11
 74
     0
 42
0.000000001
 43
0.00000001
 40
0.0
 40
0.0
 40
0.0
 40
0.0
 40
0.1280448079611198
 40
0.2537679000244897
 40
0.3774284265813011
 40
0.5005508414825327
 40
0.6232958832424765
 40
0.7465783319335079
 40
0.8723475406047168
 40
1.0
 40
1.0
 40
1.0
 40
1.0
 10
2449.81216068497
 20
1411.86245373738
 30
0.0
 10
2449.819446342332
 20
1411.86912296387
 30
0.0
 10
2449.833885553094
 20
1411.882340490048
 30
0.0
 10
2449.858641272368
 20
1411.900983887324
 30
0.0
 10
2449.886241569116
 20
1411.918141662618
 30
0.0
 10
2449.916204948909
 20
1411.933965165576
 30
0.0
 10
2449.94871550107
 20
1411.948364235948
 30
0.0
 10
2449.983753151974
 20
1411.961358470187
 30
0.0
 10
2450.021325170764
 20
1411.972921932622
 30
0.0
 10
2450.047868370936
 20
1411.979443814895
 30
0.0
 10
2450.061238596174
 20
1411.982728989041
 30
0.0
  0
SPLINE
  5
1AF
330
1F
100
AcDbEntity
  8
0
  6
Continuous
 62
     7
370
    15
100
AcDbSpline
210
0.0
220
0.0
230
1.0
 70
     8
 71
     3
 72
    23
 73
    19
 74
     0
 42
0.000000001
 43
0.00000001
 40
0.0
 40
0.0
 40
0.0
 40
0.0
 40
0.0715786576891421
 40
0.139629224692848
 40
0.2047966973966659
 40
0.2681349633966817
 40
0.3298137469867307
 40
0.39130139777456
 40
0.4534335150970542
 40
0.5165516903197667
 40
0.5796312707049233
 40
0.6411189214927528
 40
0.7012940466987744
 40
0.7608103356761335
 40
0.8199317217781439
 40
0.8789195754993824
 40
0.9389828222504466
 40
1.0
 40
1.0
 40
1.0
 40
1.0
 10
2450.009976295642
 20
1411.518867121495
 30
0.0
 10
2449.993751034923
 20
1411.523529308161
 30
0.0
 10
2449.962100251743
 20
1411.532623883703
 30
0.0
 10
2449.91885683609
 20
1411.548623044145
 30
0.0
 10
2449.880489858744
 20
1411.565977849014
 30
0.0
 10
2449.847057052893
 20
1411.584741566616
 30
0.0
 10
2449.818830146229
 20
1411.605053548818
 30
0.0
 10
2449.795568917548
 20
1411.62677445986
 30
0.0
 10
2449.777022746616
 20
1411.649893307596
 30
0.0
 10
2449.764358098841
 20
1411.674249663778
 30
0.0
 10
2449.755804412495
 20
1411.698955916504
 30
0.0
 10
2449.751119571619
 20
1411.723551447851
 30
0.0
 10
2449.750975380675
 20
1411.747794996389
 30
0.0
 10
2449.755059958108
 20
1411.771617236685
 30
0.0
 10
2449.762659995795
 20
1411.795054885148
 30
0.0
 10
2449.774793973791
 20
1411.818063185087
 30
0.0
 10
2449.791304144649
 20
1411.840613811634
 30
0.0
 10
2449.805172085382
 20
1411.855135625472
 30
0.0
 10
2449.81216068497
 20
1411.86245373738
 30
0.0
  0
SPLINE
  5
1B0
330
1F
100
AcDbEntity
  8
0
  6
Continuous
 62
     7
370
    15
100
AcDbSpline
210
0.0
220
0.0
230
1.0
 70
     8
 71
     3
 72
    19
 73
    15
 74
     0
 42
0.000000001
 43
0.00000001
 40
0.0
 40
0.0
 40
0.0
 40
0.0
 40
0.0933698567361952
 40
0.1816607660710049
 40
0.2658742270426188
 40
0.3463547840343077
 40
0.4245998617178937
 40
0.501903183837377
 40
0.579992090987348
 40
0.6584434305294311
 40
0.7386722364878345
 40
0.821894148436244
 40
0.9088007920466156
 40
0.9999999999999999
 40
0.9999999999999999
 40
0.9999999999999999
 40
0.9999999999999999
 10
2450.529445493324
 20
1411.533092990675
 30
0.0
 10
2450.515054250719
 20
1411.528322222995
 30
0.0
 10
2450.487054591645
 20
1411.51904019835
 30
0.0
 10
2450.443585087272
 20
1411.507647330838
 30
0.0
 10
2450.400782083004
 20
1411.498403033142
 30
0.0
 10
2450.357915673097
 20
1411.492063426641
 30
0.0
 10
2450.315371360313
 20
1411.487942686746
 30
0.0
 10
2450.272706900197
 20
1411.485816592862
 30
0.0
 10
2450.22981135891
 20
1411.485782592753
 30
0.0
 10
2450.186532626551
 20
1411.487694201393
 30
0.0
 10
2450.142922296757
 20
1411.491972569681
 30
0.0
 10
2450.098847455582
 20
1411.498601486531
 30
0.0
 10
2450.054086470555
 20
1411.50745974296
 30
0.0
 10
2450.0249140507
 20
1411.515004053015
 30
0.0
 10
2450.009976295642
 20
1411.518867121495
 30
0.0
  0
LINE
  5
1B1
330
1F
100
AcDbEntity
  8
0
  6
Continuous
 62
     7
370
    15
100
AcDbLine
 10
2450.4620119691
 20
1411.5836741499
 30
0.0
 11
2450.5294454933
 21
1411.5330929907
 31
0.0
  0
SPLINE
  5
1B2
330
1F
100
AcDbEntity
  8
0
  6
Continuous
 62
     7
370
    15
100
AcDbSpline
210
0.0
220
0.0
230
1.0
 70
     8
 71
     3
 72
    19
 73
    15
 74
     0
 42
0.000000001
 43
0.00000001
 40
0.0
 40
0.0
 40
0.0
 40
0.0
 40
0.0825922633314363
 40
0.1638788940984966
 40
0.2456587396295034
 40
0.327725695354122
 40
0.4086099609103185
 40
0.4857490859539307
 40
0.5591690561972782
 40
0.6302684758575455
 40
0.7053060284320704
 40
0.7920649660966079
 40
0.8897964374100896
 40
1.0
 40
1.0
 40
1.0
 40
1.0
 10
2450.052258779215
 20
1411.576513778426
 30
0.0
 10
2450.062846383798
 20
1411.573770135681
 30
0.0
 10
2450.08385422231
 20
1411.568326222162
 30
0.0
 10
2450.116892547263
 20
1411.561929462171
 30
0.0
 10
2450.150705839833
 20
1411.556915342424
 30
0.0
 10
2450.185111791647
 20
1411.553263271295
 30
0.0
 10
2450.219287332175
 20
1411.550925574585
 30
0.0
 10
2450.252499581641
 20
1411.550286139907
 30
0.0
 10
2450.284297840076
 20
1411.55092177152
 30
0.0
 10
2450.315572766599
 20
1411.553033503928
 30
0.0
 10
2450.348068601547
 20
1411.557190314933
 30
0.0
 10
2450.382968055713
 20
1411.563913587492
 30
0.0
 10
2450.42182298507
 20
1411.572522767293
 30
0.0
 10
2450.448090460484
 20
1411.579811298576
 30
0.0
 10
2450.462011969123
 20
1411.583674149863
 30
0.0
  0
LWPOLYLINE
  5
1B3
330
1F
100
AcDbEntity
  8
0
  6
Continuous
 62
     7
370
    15
100
AcDbPolyline
 90
       26
 70
   128
 43
0.0
 10
2457.9618481375
 20
1409.3675956186
 10
2457.098759866
 20
1408.7332219371
 10
2455.9564751454
 20
1408.229326726
 10
2454.6067679257
 20
1407.8875715748
 10
2453.1344452753
 20
1407.7294302163
 10
2451.6320186412
 20
1407.7648392538
 10
2450.1938910143
 20
1407.9915738073
 10
2448.9104252426
 20
1408.3953873108
 10
2447.8622662006
 20
1408.9509066768
 10
2447.115273576
 20
1409.6232265806
 10
2446.7163836624
 20
1410.3701026898
 10
2446.6906601803
 20
1411.1446060318
 10
2447.0397194305
 20
1411.8980717131
 10
2447.7416287368
 20
1412.583156714
 10
2448.7522845558
 20
1413.1568146243
 10
2450.0081836655
 20
1413.5830004076
 10
2451.4304133061
 20
1413.8349352439
 10
2452.9296095586
 20
1413.8967891408
 10
2454.4115724088
 20
1413.7646755905
 10
2455.7831846806
 20
1413.4468957733
 10
2456.9582629304
 20
1412.9634169637
 10
2457.8629726702
 20
1412.3446179135
 10
2458.4404676598
 20
1411.6293800427
 10
2458.6544617651
 20
1410.8626443774
 10
2458.4915089494
 20
1410.0925877391
 10
2457.9618481375
 20
1409.3675956186
  0
LINE
  5
1B4
330
1F
100
AcDbEntity
  8
0
  6
Continuous
 62
     7
370
    15
100
AcDbLine
 10
2448.9728032954
 20
1411.8106253947
 30
0.0
 11
2448.8678022657
 21
1411.8391624247
 31
0.0
  0
LINE
  5
1B5
330
1F
100
AcDbEntity
  8
0
  6
Continuous
 62
     7
370
    15
100
AcDbLine
 10
2449.2735874763
 20
1412.1041999763
 30
0.0
 11
2448.9728032954
 21
1411.8106253947
 31
0.0
  0
LINE
  5
1B6
330
1F
100
AcDbEntity
  8
0
  6
Continuous
 62
     7
370
    15
100
AcDbLine
 10
2449.7385920363
 20
1411.9778217008
 30
0.0
 11
2449.2735874763
 21
1412.1041999763
 31
0.0
  0
LINE
  5
1B7
330
1F
100
AcDbEntity
  8
0
  6
Continuous
 62
     7
370
    15
100
AcDbLine
 10
2449.8019150218
 20
1412.0396268758
 30
0.0
 11
2449.7385920363
 21
1411.9778217008
 31
0.0
  0
LINE
  5
1B8
330
1F
100
AcDbEntity
  8
0
  6
Continuous
 62
     7
370
    15
100
AcDbLine
 10
2449.3369104618
 20
1412.1660051514
 30
0.0
 11
2449.8019150218
 21
1412.0396268758
 31
0.0
  0
LINE
  5
1B9
330
1F
100
AcDbEntity
  8
0
  6
Continuous
 62
     7
370
    15
100
AcDbLine
 10
2449.5268794182
 20
1412.3514206766
 30
0.0
 11
2449.3369104618
 21
1412.1660051514
 31
0.0
  0
LINE
  5
1BA
330
1F
100
AcDbEntity
  8
0
  6
Continuous
 62
     7
370
    15
100
AcDbLine
 10
2449.9918839782
 20
1412.225042401
 30
0.0
 11
2449.5268794182
 21
1412.3514206766
 31
0.0
  0
LINE
  5
1BB
330
1F
100
AcDbEntity
  8
0
  6
Continuous
 62
     7
370
    15
100
AcDbLine
 10
2450.0552069636
 20
1412.2868475761
 30
0.0
 11
2449.9918839782
 21
1412.225042401
 31
0.0
  0
LINE
  5
1BC
330
1F
100
AcDbEntity
  8
0
  6
Continuous
 62
     7
370
    15
100
AcDbLine
 10
2449.485201374
 20
1412.4417628816
 30
0.0
 11
2450.0552069636
 21
1412.2868475761
 31
0.0
  0
LINE
  5
1BD
330
1F
100
AcDbEntity
  8
0
  6
Continuous
 62
     7
370
    15
100
AcDbLine
 10
2448.8678022657
 20
1411.8391624247
 30
0.0
 11
2449.485201374
 21
1412.4417628816
 31
0.0
  0
LINE
  5
1BE
330
1F
100
AcDbEntity
  8
0
  6
Continuous
 62
     7
370
    15
100
AcDbLine
 10
2450.7578207998
 20
1411.3254958853
 30
0.0
 11
2450.6528197701
 21
1411.3540329153
 31
0.0
  0
LINE
  5
1BF
330
1F
100
AcDbEntity
  8
0
  6
Continuous
 62
     7
370
    15
100
AcDbLine
 10
2451.3910506544
 20
1411.943547636
 30
0.0
 11
2450.7578207998
 21
1411.3254958853
 31
0.0
  0
LINE
  5
1C0
330
1F
100
AcDbEntity
  8
0
  6
Continuous
 62
     7
370
    15
100
AcDbLine
 10
2451.2860496248
 20
1411.972084666
 30
0.0
 11
2451.3910506544
 21
1411.943547636
 31
0.0
  0
LINE
  5
1C1
330
1F
100
AcDbEntity
  8
0
  6
Continuous
 62
     7
370
    15
100
AcDbLine
 10
2450.6528197701
 20
1411.3540329153
 30
0.0
 11
2451.2860496248
 21
1411.972084666
 31
0.0
  0
LINE
  5
1C2
330
1F
100
AcDbEntity
  8
0
  6
Continuous
 62
     7
370
    15
100
AcDbLine
 10
2452.2128350681
 20
1410.9300541844
 30
0.0
 11
2452.1078340384
 21
1410.9585912144
 31
0.0
  0
LINE
  5
1C3
330
1F
100
AcDbEntity
  8
0
  6
Continuous
 62
     7
370
    15
100
AcDbLine
 10
2452.4026803468
 20
1411.1153489964
 30
0.0
 11
2452.2128350681
 21
1410.9300541844
 31
0.0
  0
SPLINE
  5
1C4
330
1F
100
AcDbEntity
  8
0
  6
Continuous
 62
     7
370
    15
100
AcDbSpline
210
0.0
220
0.0
230
1.0
 70
     8
 71
     3
 72
    23
 73
    19
 74
     0
 42
0.000000001
 43
0.00000001
 40
0.0
 40
0.0
 40
0.0
 40
0.0
 40
0.0686770684130349
 40
0.1368709585090958
 40
0.2061143571452995
 40
0.2775381819697278
 40
0.3497719775548987
 40
0.4212508361555696
 40
0.4929107569233712
 40
0.5670265889927394
 40
0.6066141532413349
 40
0.6497039535189881
 40
0.6973031504846855
 40
0.7490856597091364
 40
0.804880647459309
 40
0.8654850057023367
 40
0.9302371271531362
 40
1.0
 40
1.0
 40
1.0
 40
1.0
 10
2452.893084312482
 20
1411.248897676907
 30
0.0
 10
2452.880105938702
 20
1411.25208804631
 30
0.0
 10
2452.854240500644
 20
1411.258446339234
 30
0.0
 10
2452.812190550442
 20
1411.26383156578
 30
0.0
 10
2452.768673361735
 20
1411.266192839408
 30
0.0
 10
2452.724067051316
 20
1411.265183963298
 30
0.0
 10
2452.679717036026
 20
1411.260971182258
 30
0.0
 10
2452.636970809513
 20
1411.253457572233
 30
0.0
 10
2452.596487137793
 20
1411.242702186689
 30
0.0
 10
2452.564941698236
 20
1411.230988931794
 30
0.0
 10
2452.540691178136
 20
1411.219624346506
 30
0.0
 10
2452.52190718395
 20
1411.209464372532
 30
0.0
 10
2452.502695058226
 20
1411.197737043272
 30
0.0
 10
2452.483537693751
 20
1411.18425882823
 30
0.0
 10
2452.46323156628
 20
1411.169478515658
 30
0.0
 10
2452.44364002763
 20
1411.152788563681
 30
0.0
 10
2452.422741938007
 20
1411.134757159974
 30
0.0
 10
2452.409531574739
 20
1411.121977072484
 30
0.0
 10
2452.402680346757
 20
1411.115348996386
 30
0.0
  0
SPLINE
  5
1C5
330
1F
100
AcDbEntity
  8
0
  6
Continuous
 62
     7
370
    15
100
AcDbSpline
210
0.0
220
0.0
230
1.0
 70
     8
 71
     3
 72
    23
 73
    19
 74
     0
 42
0.000000001
 43
0.00000001
 40
0.0
 40
0.0
 40
0.0
 40
0.0
 40
0.0825297038220665
 40
0.1587788549175701
 40
0.2277380621151794
 40
0.289945652796676
 40
0.3454988386981375
 40
0.3938963373401232
 40
0.4363737851900879
 40
0.4721222744615227
 40
0.5363836155048269
 40
0.5990779017254959
 40
0.661948234024458
 40
0.7263105423531546
 40
0.7917711030502105
 40
0.8586473037978581
 40
0.9273053338076842
 40
1.0
 40
1.0
 40
1.0
 40
1.0
 10
2452.922261919737
 20
1411.02352223668
 30
0.0
 10
2452.928708058917
 20
1411.029846999091
 30
0.0
 10
2452.941109782785
 20
1411.042015206254
 30
0.0
 10
2452.958072713899
 20
1411.059687916314
 30
0.0
 10
2452.972615391325
 20
1411.07600379217
 30
0.0
 10
2452.985259273856
 20
1411.090797555748
 30
0.0
 10
2452.995380868993
 20
1411.104205527767
 30
0.0
 10
2453.003527650205
 20
1411.116165545383
 30
0.0
 10
2453.00947415545
 20
1411.126703350111
 30
0.0
 10
2453.013876269511
 20
1411.138837752102
 30
0.0
 10
2453.016046892655
 20
1411.152933981115
 30
0.0
 10
2453.013155923104
 20
1411.169378764656
 30
0.0
 10
2453.004882419641
 20
1411.185333357694
 30
0.0
 10
2452.991671409312
 20
1411.200624771049
 30
0.0
 10
2452.9740148125
 20
1411.215095557111
 30
0.0
 10
2452.951524858212
 20
1411.228176575014
 30
0.0
 10
2452.924286099792
 20
1411.239634915797
 30
0.0
 10
2452.903681049053
 20
1411.245751862264
 30
0.0
 10
2452.893084312482
 20
1411.248897676907
 30
0.0
  0
LINE
  5
1C6
330
1F
100
AcDbEntity
  8
0
  6
Continuous
 62
     7
370
    15
100
AcDbLine
 10
2452.6928397751
 20
1410.7995991903
 30
0.0
 11
2452.9222619197
 21
1411.0235222367
 31
0.0
  0
LINE
  5
1C7
330
1F
100
AcDbEntity
  8
0
  6
Continuous
 62
     7
370
    15
100
AcDbLine
 10
2452.7978408048
 20
1410.7710621603
 30
0.0
 11
2452.6928397751
 21
1410.7995991903
 31
0.0
  0
LINE
  5
1C8
330
1F
100
AcDbEntity
  8
0
  6
Continuous
 62
     7
370
    15
100
AcDbLine
 10
2452.9733394696
 20
1410.9423542373
 30
0.0
 11
2452.7978408048
 21
1410.7710621603
 31
0.0
  0
SPLINE
  5
1C9
330
1F
100
AcDbEntity
  8
0
  6
Continuous
 62
     7
370
    15
100
AcDbSpline
210
0.0
220
0.0
230
1.0
 70
     8
 71
     3
 72
    23
 73
    19
 74
     0
 42
0.000000001
 43
0.00000001
 40
0.0
 40
0.0
 40
0.0
 40
0.0
 40
0.0681582441559978
 40
0.1347066022023566
 40
0.2018649976035982
 40
0.2707882662774627
 40
0.3400242943604918
 40
0.4080827390537217
 40
0.4768131952581443
 40
0.5473460643070951
 40
0.5856397954238958
 40
0.6288649531777643
 40
0.6771532033637913
 40
0.7308028113651059
 40
0.7898066155325021
 40
0.8543250087420141
 40
0.9243651340575436
 40
1.0
 40
1.0
 40
1.0
 40
1.0
 10
2453.478793181112
 20
1411.089714556637
 30
0.0
 10
2453.465282142233
 20
1411.093074852521
 30
0.0
 10
2453.43857919291
 20
1411.099716074673
 30
0.0
 10
2453.395280902728
 20
1411.105194134701
 30
0.0
 10
2453.35091945715
 20
1411.107768091933
 30
0.0
 10
2453.305736993825
 20
1411.106305507522
 30
0.0
 10
2453.261108362116
 20
1411.101968302739
 30
0.0
 10
2453.218373837742
 20
1411.094003647937
 30
0.0
 10
2453.178281480263
 20
1411.082749913364
 30
0.0
 10
2453.146722519686
 20
1411.070824141105
 30
0.0
 10
2453.122406162395
 20
1411.059016054427
 30
0.0
 10
2453.103201459454
 20
1411.048145782519
 30
0.0
 10
2453.083637395916
 20
1411.035175523526
 30
0.0
 10
2453.062715761761
 20
1411.020499452772
 30
0.0
 10
2453.041617909554
 20
1411.003656343222
 30
0.0
 10
2453.019102599239
 20
1410.985087974196
 30
0.0
 10
2452.996289747519
 20
1410.96441572382
 30
0.0
 10
2452.981182957529
 20
1410.949893971859
 30
0.0
 10
2452.973339469598
 20
1410.942354237321
 30
0.0
  0
SPLINE
  5
1CA
330
1F
100
AcDbEntity
  8
0
  6
Continuous
 62
     7
370
    15
100
AcDbSpline
210
0.0
220
0.0
230
1.0
 70
     8
 71
     3
 72
    23
 73
    19
 74
     0
 42
0.000000001
 43
0.00000001
 40
0.0
 40
0.0
 40
0.0
 40
0.0
 40
0.078342985193701
 40
0.1505633028794202
 40
0.216151056659977
 40
0.2756797924514263
 40
0.3287070503654625
 40
0.3759044348322083
 40
0.4173018977400331
 40
0.4526927480535834
 40
0.5172652917530132
 40
0.5812165680623068
 40
0.645321893972802
 40
0.712024493379763
 40
0.7801300447160445
 40
0.8502182262116653
 40
0.922648521734738
 40
1.0
 40
1.0
 40
1.0
 40
1.0
 10
2453.522480014307
 20
1410.879377940197
 30
0.0
 10
2453.528225879792
 20
1410.885018568296
 30
0.0
 10
2453.539268559402
 20
1410.895858997659
 30
0.0
 10
2453.554288617419
 20
1410.911642626289
 30
0.0
 10
2453.567104113055
 20
1410.926268003024
 30
0.0
 10
2453.578204166092
 20
1410.939577504357
 30
0.0
 10
2453.587134620772
 20
1410.951732632956
 30
0.0
 10
2453.593840930789
 20
1410.96271892281
 30
0.0
 10
2453.598995661972
 20
1410.972454344568
 30
0.0
 10
2453.602625990889
 20
1410.983812980056
 30
0.0
 10
2453.603528629742
 20
1410.997186114033
 30
0.0
 10
2453.600049230075
 20
1411.012818482098
 30
0.0
 10
2453.591083044512
 20
1411.028039651746
 30
0.0
 10
2453.577793352879
 20
1411.042749243738
 30
0.0
 10
2453.559769607269
 20
1411.056670954347
 30
0.0
 10
2453.537099407511
 20
1411.069276265938
 30
0.0
 10
2453.510055141988
 20
1411.080615403124
 30
0.0
 10
2453.489439613835
 20
1411.086615789861
 30
0.0
 10
2453.478793181112
 20
1411.089714556637
 30
0.0
  0
LINE
  5
1CB
330
1F
100
AcDbEntity
  8
0
  6
Continuous
 62
     7
370
    15
100
AcDbLine
 10
2453.2778455119
 20
1410.6406071662
 30
0.0
 11
2453.5224800143
 21
1410.8793779402
 31
0.0
  0
LINE
  5
1CC
330
1F
100
AcDbEntity
  8
0
  6
Continuous
 62
     7
370
    15
100
AcDbLine
 10
2453.3828465415
 20
1410.6120701362
 30
0.0
 11
2453.2778455119
 21
1410.6406071662
 31
0.0
  0
LINE
  5
1CD
330
1F
100
AcDbEntity
  8
0
  6
Continuous
 62
     7
370
    15
100
AcDbLine
 10
2453.6272336886
 20
1410.8505994838
 30
0.0
 11
2453.3828465415
 21
1410.6120701362
 31
0.0
  0
SPLINE
  5
1CE
330
1F
100
AcDbEntity
  8
0
  6
Continuous
 62
     7
370
    15
100
AcDbSpline
210
0.0
220
0.0
230
1.0
 70
     8
 71
     3
 72
    23
 73
    19
 74
     0
 42
0.000000001
 43
0.00000001
 40
0.0
 40
0.0
 40
0.0
 40
0.0
 40
0.0756043304957459
 40
0.1479650154827366
 40
0.2187969985237005
 40
0.2894704453213774
 40
0.3597242180875002
 40
0.4297077387530454
 40
0.5004965198485857
 40
0.5744290198679489
 40
0.6139472962286697
 40
0.657155269826111
 40
0.7039727697209368
 40
0.7549389848168006
 40
0.8097066112894876
 40
0.8688329536985496
 40
0.9323854739325979
 40
1.0
 40
1.0
 40
1.0
 40
1.0
 10
2453.552482222665
 20
1411.138825584069
 30
0.0
 10
2453.566531746317
 20
1411.134651252879
 30
0.0
 10
2453.594028028224
 20
1411.126481681438
 30
0.0
 10
2453.630486396911
 20
1411.111102499742
 30
0.0
 10
2453.661047562129
 20
1411.093402715123
 30
0.0
 10
2453.686034988978
 20
1411.073793674076
 30
0.0
 10
2453.704937077831
 20
1411.052548784937
 30
0.0
 10
2453.717229308712
 20
1411.030043016887
 30
0.0
 10
2453.722852360038
 20
1411.006428053158
 30
0.0
 10
2453.721438074822
 20
1410.98603550005
 30
0.0
 10
2453.71707237587
 20
1410.968878794187
 30
0.0
 10
2453.710918844991
 20
1410.95492176789
 30
0.0
 10
2453.70276225567
 20
1410.939936363343
 30
0.0
 10
2453.692373211688
 20
1410.92396435661
 30
0.0
 10
2453.679396225545
 20
1410.907035967014
 30
0.0
 10
2453.664230808251
 20
1410.889076090671
 30
0.0
 10
2453.646930463409
 20
1410.870053024623
 30
0.0
 10
2453.633933444887
 20
1410.857216505303
 30
0.0
 10
2453.627233688565
 20
1410.850599483767
 30
0.0
  0
SPLINE
  5
1CF
330
1F
100
AcDbEntity
  8
0
  6
Continuous
 62
     7
370
    15
100
AcDbSpline
210
0.0
220
0.0
230
1.0
 70
     8
 71
     3
 72
    19
 73
    15
 74
     0
 42
0.000000001
 43
0.00000001
 40
0.0
 40
0.0
 40
0.0
 40
0.0
 40
0.0717660641583407
 40
0.1412255357663695
 40
0.2091158524974625
 40
0.2748396534685271
 40
0.3394829303752205
 40
0.4024762667354
 40
0.4649418891713276
 40
0.5268326406463836
 40
0.6474148160608225
 40
0.7655615117859493
 40
0.8816150870393313
 40
0.9999999999999999
 40
0.9999999999999999
 40
0.9999999999999999
 40
0.9999999999999999
 10
2453.129925338473
 20
1411.117706123715
 30
0.0
 10
2453.138870240134
 20
1411.120717262898
 30
0.0
 10
2453.156472550423
 20
1411.12664276194
 30
0.0
 10
2453.183764306107
 20
1411.134382062057
 30
0.0
 10
2453.210993609636
 20
1411.141158507803
 30
0.0
 10
2453.238304707878
 20
1411.146944144401
 30
0.0
 10
2453.265586292544
 20
1411.151703997678
 30
0.0
 10
2453.292953096682
 20
1411.155447136701
 30
0.0
 10
2453.320338823291
 20
1411.158239595248
 30
0.0
 10
2453.356595082272
 20
1411.160343167043
 30
0.0
 10
2453.401476967887
 20
1411.160846025645
 30
0.0
 10
2453.454056428646
 20
1411.157567977259
 30
0.0
 10
2453.50502352949
 20
1411.150521260217
 30
0.0
 10
2453.536558127942
 20
1411.142749903143
 30
0.0
 10
2453.552482222665
 20
1411.138825584069
 30
0.0
  0
SPLINE
  5
1D0
330
1F
100
AcDbEntity
  8
0
  6
Continuous
 62
     7
370
    15
100
AcDbSpline
210
0.0
220
0.0
230
1.0
 70
     8
 71
     3
 72
    19
 73
    15
 74
     0
 42
0.000000001
 43
0.00000001
 40
0.0
 40
0.0
 40
0.0
 40
0.0
 40
0.0841520188443168
 40
0.1665323202984584
 40
0.2488363311465307
 40
0.3312461454872607
 40
0.4129571090216171
 40
0.4904942776695666
 40
0.5661557919819237
 40
0.6399873346864665
 40
0.7167654882718498
 40
0.8021439047100982
 40
0.8958332007101922
 40
1.0
 40
1.0
 40
1.0
 40
1.0
 10
2452.966773354035
 20
1411.29800870434
 30
0.0
 10
2452.976916153703
 20
1411.295022026394
 30
0.0
 10
2452.996988208852
 20
1411.289111551337
 30
0.0
 10
2453.024895126284
 20
1411.278564317332
 30
0.0
 10
2453.050161146116
 20
1411.266576362033
 30
0.0
 10
2453.072730041034
 20
1411.253309339229
 30
0.0
 10
2453.092456681013
 20
1411.239309346148
 30
0.0
 10
2453.108766438542
 20
1411.224740553573
 30
0.0
 10
2453.121584538043
 20
1411.209877658534
 30
0.0
 10
2453.130488088595
 20
1411.194321741567
 30
0.0
 10
2453.135730090116
 20
1411.177635175213
 30
0.0
 10
2453.137537886409
 20
1411.159344563893
 30
0.0
 10
2453.135770538484
 20
1411.139088538615
 30
0.0
 10
2453.131941330596
 20
1411.125080855106
 30
0.0
 10
2453.129925338473
 20
1411.117706123715
 30
0.0
  0
SPLINE
  5
1D1
330
1F
100
AcDbEntity
  8
0
  6
Continuous
 62
     7
370
    15
100
AcDbSpline
210
0.0
220
0.0
230
1.0
 70
     8
 71
     3
 72
    11
 73
     7
 74
     0
 42
0.000000001
 43
0.00000001
 40
0.0
 40
0.0
 40
0.0
 40
0.0
 40
0.253734075690661
 40
0.5030351201318565
 40
0.7500135973308792
 40
1.0
 40
1.0
 40
1.0
 40
1.0
 10
2452.767641250054
 20
1411.323578199471
 30
0.0
 10
2452.785165087126
 20
1411.323219041608
 30
0.0
 10
2452.819906599328
 20
1411.322507000791
 30
0.0
 10
2452.870935789162
 20
1411.317494299039
 30
0.0
 10
2452.920250692519
 20
1411.30953388691
 30
0.0
 10
2452.951203352261
 20
1411.301865902256
 30
0.0
 10
2452.966773354035
 20
1411.29800870434
 30
0.0
  0
SPLINE
  5
1D2
330
1F
100
AcDbEntity
  8
0
  6
Continuous
 62
     7
370
    15
100
AcDbSpline
210
0.0
220
0.0
230
1.0
 70
     8
 71
     3
 72
    11
 73
     7
 74
     0
 42
0.000000001
 43
0.00000001
 40
0.0
 40
0.0
 40
0.0
 40
0.0
 40
0.283594808138694
 40
0.5433948405759664
 40
0.7806456291745597
 40
0.9999999999999999
 40
0.9999999999999999
 40
0.9999999999999999
 40
0.9999999999999999
 10
2452.585599673908
 20
1411.293883867335
 30
0.0
 10
2452.601914450064
 20
1411.298009536386
 30
0.0
 10
2452.633175125273
 20
1411.305914713815
 30
0.0
 10
2452.680202675828
 20
1411.314746613879
 30
0.0
 10
2452.72457861827
 20
1411.321027812862
 30
0.0
 10
2452.753667075449
 20
1411.322750578253
 30
0.0
 10
2452.767641250054
 20
1411.323578199471
 30
0.0
  0
LINE
  5
1D3
330
1F
100
AcDbEntity
  8
0
  6
Continuous
 62
     7
370
    15
100
AcDbLine
 10
2452.6640113395
 20
1411.3704160568
 30
0.0
 11
2452.5855996739
 21
1411.2938838673
 31
0.0
  0
LINE
  5
1D4
330
1F
100
AcDbEntity
  8
0
  6
Continuous
 62
     7
370
    15
100
AcDbLine
 10
2452.5590103098
 20
1411.3989530867
 30
0.0
 11
2452.6640113395
 21
1411.3704160568
 31
0.0
  0
LINE
  5
1D5
330
1F
100
AcDbEntity
  8
0
  6
Continuous
 62
     7
370
    15
100
AcDbLine
 10
2452.1078340384
 20
1410.9585912144
 30
0.0
 11
2452.5590103098
 21
1411.3989530867
 31
0.0
  0
LINE
  5
1D6
330
1F
100
AcDbEntity
  8
0
  6
Continuous
 62
     7
370
    15
100
AcDbLine
 10
2454.8378608098
 20
1410.2166284353
 30
0.0
 11
2454.7328597802
 21
1410.2451654653
 31
0.0
  0
LINE
  5
1D7
330
1F
100
AcDbEntity
  8
0
  6
Continuous
 62
     7
370
    15
100
AcDbLine
 10
2455.000991704
 20
1410.375849189
 30
0.0
 11
2454.8378608098
 21
1410.2166284353
 31
0.0
  0
SPLINE
  5
1D8
330
1F
100
AcDbEntity
  8
0
  6
Continuous
 62
     7
370
    15
100
AcDbSpline
210
0.0
220
0.0
230
1.0
 70
     8
 71
     3
 72
    15
 73
    11
 74
     0
 42
0.000000001
 43
0.00000001
 40
0.0
 40
0.0
 40
0.0
 40
0.0
 40
0.0769954547170576
 40
0.1676150771831735
 40
0.2710523936342344
 40
0.3894595025720742
 40
0.5208428024655765
 40
0.6663987586080736
 40
0.8260936125153157
 40
1.0
 40
1.0
 40
1.0
 40
1.0
 10
2455.138244211768
 20
1410.48963223151
 30
0.0
 10
2455.133883417193
 20
1410.487019303555
 30
0.0
 10
2455.124390195522
 20
1410.481331096083
 30
0.0
 10
2455.110419556586
 20
1410.471559264124
 30
0.0
 10
2455.095029935256
 20
1410.460045564509
 30
0.0
 10
2455.078408173331
 20
1410.446757534043
 30
0.0
 10
2455.060959253949
 20
1410.431522767399
 30
0.0
 10
2455.041708392532
 20
1410.414691505007
 30
0.0
 10
2455.021713080938
 20
1410.395888366653
 30
0.0
 10
2455.008092247144
 20
1410.38271596461
 30
0.0
 10
2455.000991704022
 20
1410.375849189042
 30
0.0
  0
SPLINE
  5
1D9
330
1F
100
AcDbEntity
  8
0
  6
Continuous
 62
     7
370
    15
100
AcDbSpline
210
0.0
220
0.0
230
1.0
 70
     8
 71
     3
 72
    23
 73
    19
 74
     0
 42
0.000000001
 43
0.00000001
 40
0.0
 40
0.0
 40
0.0
 40
0.0
 40
0.0639861098164676
 40
0.1266268580894775
 40
0.1889843719814873
 40
0.2502301939603977
 40
0.3123511629623219
 40
0.3745736184579385
 40
0.438147530878204
 40
0.5029204126073703
 40
0.5679740951402716
 40
0.6307713337491904
 40
0.6929346089254587
 40
0.7543975343123295
 40
0.8152183520172954
 40
0.8761169254810907
 40
0.9380146047939529
 40
0.9999999999999999
 40
0.9999999999999999
 40
0.9999999999999999
 40
0.9999999999999999
 10
2455.548579103028
 20
1410.527191093208
 30
0.0
 10
2455.540048427433
 20
1410.52940477312
 30
0.0
 10
2455.523166440843
 20
1410.533785588471
 30
0.0
 10
2455.496711714883
 20
1410.538895060394
 30
0.0
 10
2455.469941387872
 20
1410.542768051063
 30
0.0
 10
2455.442719464823
 20
1410.545572923245
 30
0.0
 10
2455.415096335486
 20
1410.546771353248
 30
0.0
 10
2455.387039595238
 20
1410.547236429311
 30
0.0
 10
2455.358657288782
 20
1410.546024934132
 30
0.0
 10
2455.330092337118
 20
1410.543841222267
 30
0.0
 10
2455.302099337005
 20
1410.540426023824
 30
0.0
 10
2455.274950502363
 20
1410.536172719529
 30
0.0
 10
2455.249132063299
 20
1410.530802613118
 30
0.0
 10
2455.224362383471
 20
1410.524591834966
 30
0.0
 10
2455.200974058873
 20
1410.517272240888
 30
0.0
 10
2455.178683301628
 20
1410.509052899058
 30
0.0
 10
2455.157539308152
 20
1410.499901647028
 30
0.0
 10
2455.144678945839
 20
1410.493056985478
 30
0.0
 10
2455.138244211768
 20
1410.48963223151
 30
0.0
  0
SPLINE
  5
1DA
330
1F
100
AcDbEntity
  8
0
  6
Continuous
 62
     7
370
    15
100
AcDbSpline
210
0.0
220
0.0
230
1.0
 70
     8
 71
     3
 72
    15
 73
    11
 74
     0
 42
0.000000001
 43
0.00000001
 40
0.0
 40
0.0
 40
0.0
 40
0.0
 40
0.1355195283706055
 40
0.2608331631936792
 40
0.3784760291245037
 40
0.4931776464746772
 40
0.6092809649289387
 40
0.7299810378566467
 40
0.8592613089300667
 40
1.0
 40
1.0
 40
1.0
 40
1.0
 10
2455.680327547898
 20
1410.380578489562
 30
0.0
 10
2455.683780592584
 20
1410.388380983196
 30
0.0
 10
2455.690426635254
 20
1410.403398369396
 30
0.0
 10
2455.691821810341
 20
1410.425839287334
 30
0.0
 10
2455.686047570005
 20
1410.446822190141
 30
0.0
 10
2455.672739131734
 20
1410.466326189831
 30
0.0
 10
2455.652150777243
 20
1410.48428560773
 30
0.0
 10
2455.624157043269
 20
1410.500472387854
 30
0.0
 10
2455.589552912415
 20
1410.515242588495
 30
0.0
 10
2455.562618038775
 20
1410.523097153874
 30
0.0
 10
2455.548579103028
 20
1410.527191093208
 30
0.0
  0
SPLINE
  5
1DB
330
1F
100
AcDbEntity
  8
0
  6
Continuous
 62
     7
370
    15
100
AcDbSpline
210
0.0
220
0.0
230
1.0
 70
     8
 71
     3
 72
    15
 73
    11
 74
     0
 42
0.000000001
 43
0.00000001
 40
0.0
 40
0.0
 40
0.0
 40
0.0
 40
0.1788500194111599
 40
0.3421096489422996
 40
0.4898256633683922
 40
0.6232544282245644
 40
0.7400796760857924
 40
0.8414826730699855
 40
0.9289076721840651
 40
1.0
 40
1.0
 40
1.0
 40
1.0
 10
2455.590097048746
 20
1410.277010473979
 30
0.0
 10
2455.596175131845
 20
1410.283023462062
 30
0.0
 10
2455.607801470395
 20
1410.294525284926
 30
0.0
 10
2455.624234878932
 20
1410.311051020355
 30
0.0
 10
2455.638551801909
 20
1410.326196827595
 30
0.0
 10
2455.650884800254
 20
1410.339881167449
 30
0.0
 10
2455.660989365346
 20
1410.352154133338
 30
0.0
 10
2455.669420567312
 20
1410.362895458456
 30
0.0
 10
2455.675797847157
 20
1410.372192023685
 30
0.0
 10
2455.678925050384
 20
1410.377981850575
 30
0.0
 10
2455.680327547898
 20
1410.380578489562
 30
0.0
  0
LINE
  5
1DC
330
1F
100
AcDbEntity
  8
0
  6
Continuous
 62
     7
370
    15
100
AcDbLine
 10
2455.3778661053
 20
1410.0698665669
 30
0.0
 11
2455.5900970487
 21
1410.277010474
 31
0.0
  0
LINE
  5
1DD
330
1F
100
AcDbEntity
  8
0
  6
Continuous
 62
     7
370
    15
100
AcDbLine
 10
2455.4828671349
 20
1410.0413295369
 30
0.0
 11
2455.3778661053
 21
1410.0698665669
 31
0.0
  0
LINE
  5
1DE
330
1F
100
AcDbEntity
  8
0
  6
Continuous
 62
     7
370
    15
100
AcDbLine
 10
2455.7132787012
 20
1410.2662182892
 30
0.0
 11
2455.4828671349
 21
1410.0413295369
 31
0.0
  0
SPLINE
  5
1DF
330
1F
100
AcDbEntity
  8
0
  6
Continuous
 62
     7
370
    15
100
AcDbSpline
210
0.0
220
0.0
230
1.0
 70
     8
 71
     3
 72
    23
 73
    19
 74
     0
 42
0.000000001
 43
0.00000001
 40
0.0
 40
0.0
 40
0.0
 40
0.0
 40
0.0772404236164789
 40
0.151178140466383
 40
0.2234879838003995
 40
0.29554264419887
 40
0.3669762546197899
 40
0.4371305254863862
 40
0.5070436156432692
 40
0.578559733523678
 40
0.6166135446965534
 40
0.658756236977529
 40
0.7044912261144044
 40
0.75480311490515
 40
0.8093316253185657
 40
0.868274455472821
 40
0.932072883409294
 40
1.0
 40
1.0
 40
1.0
 40
1.0
 10
2455.622268144582
 20
1410.57630212064
 30
0.0
 10
2455.63778240254
 20
1410.571701537152
 30
0.0
 10
2455.668147547616
 20
1410.562697085541
 30
0.0
 10
2455.708470061425
 20
1410.545791559148
 30
0.0
 10
2455.742441569026
 20
1410.526401650145
 30
0.0
 10
2455.770275609713
 20
1410.504923141302
 30
0.0
 10
2455.791552318063
 20
1410.481838263111
 30
0.0
 10
2455.806261202268
 20
1410.45768322221
 30
0.0
 10
2455.813207337046
 20
1410.43260954609
 30
0.0
 10
2455.813083712076
 20
1410.411132985135
 30
0.0
 10
2455.809065943638
 20
1410.393143577987
 30
0.0
 10
2455.803066572551
 20
1410.37843138651
 30
0.0
 10
2455.794502670384
 20
1410.362551512177
 30
0.0
 10
2455.783686471339
 20
1410.345474116625
 30
0.0
 10
2455.769617908074
 20
1410.327330748655
 30
0.0
 10
2455.753311779005
 20
1410.307935655991
 30
0.0
 10
2455.734731220599
 20
1410.287306575261
 30
0.0
 10
2455.720577415766
 20
1410.273393081952
 30
0.0
 10
2455.713278701196
 20
1410.2662182892
 30
0.0
  0
SPLINE
  5
1E0
330
1F
100
AcDbEntity
  8
0
  6
Continuous
 62
     7
370
    15
100
AcDbSpline
210
0.0
220
0.0
230
1.0
 70
     8
 71
     3
 72
    15
 73
    11
 74
     0
 42
0.000000001
 43
0.00000001
 40
0.0
 40
0.0
 40
0.0
 40
0.0
 40
0.140975966268771
 40
0.2735687809631695
 40
0.3989883138042537
 40
0.5199297813924317
 40
0.6381100215247456
 40
0.7565889007405953
 40
0.8768597544106078
 40
1.0
 40
1.0
 40
1.0
 40
1.0
 10
2455.207657150722
 20
1410.577561000643
 30
0.0
 10
2455.226249458626
 20
1410.581718146618
 30
0.0
 10
2455.262328480769
 20
1410.58978523342
 30
0.0
 10
2455.317385652496
 20
1410.59831248426
 30
0.0
 10
2455.371189932814
 20
1410.603047541311
 30
0.0
 10
2455.423671573039
 20
1410.60421492857
 30
0.0
 10
2455.474988093898
 20
1410.60190043936
 30
0.0
 10
2455.525338003817
 20
1410.596617239083
 30
0.0
 10
2455.574876529692
 20
1410.588190982762
 30
0.0
 10
2455.606347277891
 20
1410.580296096988
 30
0.0
 10
2455.622268144582
 20
1410.57630212064
 30
0.0
  0
LINE
  5
1E1
330
1F
100
AcDbEntity
  8
0
  6
Continuous
 62
     7
370
    15
100
AcDbLine
 10
2455.2890370813
 20
1410.6569903077
 30
0.0
 11
2455.2076571507
 21
1410.5775610006
 31
0.0
  0
LINE
  5
1E2
330
1F
100
AcDbEntity
  8
0
  6
Continuous
 62
     7
370
    15
100
AcDbLine
 10
2455.1840360516
 20
1410.6855273376
 30
0.0
 11
2455.2890370813
 21
1410.6569903077
 31
0.0
  0
LINE
  5
1E3
330
1F
100
AcDbEntity
  8
0
  6
Continuous
 62
     7
370
    15
100
AcDbLine
 10
2454.7328597802
 20
1410.2451654653
 30
0.0
 11
2455.1840360516
 21
1410.6855273376
 31
0.0
  0
LINE
  5
1E4
330
1F
100
AcDbEntity
  8
0
  6
Continuous
 62
     7
370
    15
100
AcDbLine
 10
2456.1740457599
 20
1410.2396683229
 30
0.0
 11
2456.1740457599
 21
1410.4164639123
 31
0.0
  0
LINE
  5
1E5
330
1F
100
AcDbEntity
  8
0
  6
Continuous
 62
     7
370
    15
100
AcDbLine
 10
2456.6122778529
 20
1410.2247747376
 30
0.0
 11
2456.6122778529
 21
1410.3072386953
 31
0.0
  0
LINE
  5
1E6
330
1F
100
AcDbEntity
  8
0
  6
Continuous
 62
     7
370
    15
100
AcDbLine
 10
2456.6703372562
 20
1409.964993528
 30
0.0
 11
2456.6703372562
 21
1410.1115150642
 31
0.0
  0
LINE
  5
1E7
330
1F
100
AcDbEntity
  8
0
  6
Continuous
 62
     7
370
    15
100
AcDbLine
 10
2456.197666859
 20
1410.2495205494
 30
0.0
 11
2456.197666859
 21
1410.3084975753
 31
0.0
  0
LINE
  5
1E8
330
1F
100
AcDbEntity
  8
0
  6
Continuous
 62
     7
370
    15
100
AcDbLine
 10
2455.1840360516
 20
1410.5087317482
 30
0.0
 11
2455.1840360516
 21
1410.6855273376
 31
0.0
  0
LINE
  5
1E9
330
1F
100
AcDbEntity
  8
0
  6
Continuous
 62
     7
370
    15
100
AcDbLine
 10
2455.6222681446
 20
1410.4938381629
 30
0.0
 11
2455.6222681446
 21
1410.5763021206
 31
0.0
  0
LINE
  5
1EA
330
1F
100
AcDbEntity
  8
0
  6
Continuous
 62
     7
370
    15
100
AcDbLine
 10
2455.6803275479
 20
1410.2340569534
 30
0.0
 11
2455.6803275479
 21
1410.3805784896
 31
0.0
  0
LINE
  5
1EB
330
1F
100
AcDbEntity
  8
0
  6
Continuous
 62
     7
370
    15
100
AcDbLine
 10
2454.4658970294
 20
1410.3177202206
 30
0.0
 11
2454.4658970294
 21
1410.415100042
 31
0.0
  0
LINE
  5
1EC
330
1F
100
AcDbEntity
  8
0
  6
Continuous
 62
     7
370
    15
100
AcDbLine
 10
2454.612455111
 20
1410.4271239687
 30
0.0
 11
2454.612455111
 21
1410.5581452226
 31
0.0
  0
LINE
  5
1ED
330
1F
100
AcDbEntity
  8
0
  6
Continuous
 62
     7
370
    15
100
AcDbLine
 10
2454.0898764983
 20
1410.4164495509
 30
0.0
 11
2454.0898764983
 21
1410.4791757981
 31
0.0
  0
SPLINE
  5
1EE
330
1F
100
AcDbEntity
  8
0
  6
Continuous
 62
     7
370
    15
100
AcDbSpline
210
0.0
220
0.0
230
1.0
 70
     8
 71
     3
 72
    19
 73
    15
 74
     0
 42
0.000000001
 43
0.00000001
 40
0.0
 40
0.0
 40
0.0
 40
0.0
 40
0.0848023883688278
 40
0.1686635395998415
 40
0.2525519243727824
 40
0.3382396894642449
 40
0.4231026613931557
 40
0.5055560510576225
 40
0.5861756559890523
 40
0.6671357203303605
 40
0.7484991803055339
 40
0.8304523987582789
 40
0.9134557062010135
 40
1.0
 40
1.0
 40
1.0
 40
1.0
 10
2454.089876498255
 20
1410.479175798074
 30
0.0
 10
2454.105361581087
 20
1410.475332664388
 30
0.0
 10
2454.136159874997
 20
1410.467689052654
 30
0.0
 10
2454.18522657496
 20
1410.45991851594
 30
0.0
 10
2454.235883320985
 20
1410.455344962935
 30
0.0
 10
2454.287477420038
 20
1410.454067156144
 30
0.0
 10
2454.338684312627
 20
1410.455944963359
 30
0.0
 10
2454.388101343307
 20
1410.461005545455
 30
0.0
 10
2454.434591784982
 20
1410.469876203024
 30
0.0
 10
2454.478334736643
 20
1410.481622783975
 30
0.0
 10
2454.51854650426
 20
1410.496604054931
 30
0.0
 10
2454.554821273706
 20
1410.514333063434
 30
0.0
 10
2454.586650760722
 20
1410.534948910635
 30
0.0
 10
2454.603734728547
 20
1410.550306206706
 30
0.0
 10
2454.612455111024
 20
1410.558145222613
 30
0.0
  0
SPLINE
  5
1EF
330
1F
100
AcDbEntity
  8
0
  6
Continuous
 62
     7
370
    15
100
AcDbSpline
210
0.0
220
0.0
230
1.0
 70
     8
 71
     3
 72
    19
 73
    15
 74
     0
 42
0.000000001
 43
0.00000001
 40
0.0
 40
0.0
 40
0.0
 40
0.0
 40
0.0815893489321834
 40
0.1628588951679349
 40
0.2454836892755792
 40
0.330807139158011
 40
0.4164933737762846
 40
0.4998932031606323
 40
0.583048155995021
 40
0.6671578520621577
 40
0.7513119292929143
 40
0.8337847893576151
 40
0.9162564885439797
 40
1.0
 40
1.0
 40
1.0
 40
1.0
 10
2453.924056154797
 20
1410.747243548688
 30
0.0
 10
2453.916990284301
 20
1410.739569141594
 30
0.0
 10
2453.902886239136
 20
1410.724250408489
 30
0.0
 10
2453.889076560932
 20
1410.69961325175
 30
0.0
 10
2453.881914067596
 20
1410.673901746893
 30
0.0
 10
2453.880996206678
 20
1410.647460052857
 30
0.0
 10
2453.88677189457
 20
1410.621109094659
 30
0.0
 10
2453.89853946097
 20
1410.595516575254
 30
0.0
 10
2453.917187176707
 20
1410.571190909816
 30
0.0
 10
2453.942018509938
 20
1410.548321726625
 30
0.0
 10
2453.971900173229
 20
1410.527178077256
 30
0.0
 10
2454.007037752065
 20
1410.508567334355
 30
0.0
 10
2454.046032865748
 20
1410.49211917688
 30
0.0
 10
2454.075187593982
 20
1410.483512210031
 30
0.0
 10
2454.089876498255
 20
1410.479175798074
 30
0.0
  0
SPLINE
  5
1F0
330
1F
100
AcDbEntity
  8
0
  6
Continuous
 62
     7
370
    15
100
AcDbSpline
210
0.0
220
0.0
230
1.0
 70
     8
 71
     3
 72
    19
 73
    15
 74
     0
 42
0.000000001
 43
0.00000001
 40
0.0
 40
0.0
 40
0.0
 40
0.0
 40
0.0859205174117674
 40
0.1695934351247439
 40
0.2524755148685386
 40
0.3362444769570507
 40
0.4195045210415723
 40
0.5020359066440895
 40
0.5847746476768717
 40
0.6698464747058012
 40
0.7541848663887866
 40
0.8366582383293274
 40
0.9180097257088056
 40
1.0
 40
1.0
 40
1.0
 40
1.0
 10
2454.447005800683
 20
1410.826575112925
 30
0.0
 10
2454.431368969659
 20
1410.830465283263
 30
0.0
 10
2454.400504352362
 20
1410.838143860751
 30
0.0
 10
2454.351588608828
 20
1410.845897092369
 30
0.0
 10
2454.301640704136
 20
1410.850252509254
 30
0.0
 10
2454.25110525006
 20
1410.851378458536
 30
0.0
 10
2454.20073565466
 20
1410.849213357401
 30
0.0
 10
2454.151706679079
 20
1410.843361813314
 30
0.0
 10
2454.104162315804
 20
1410.834307904833
 30
0.0
 10
2454.059212808321
 20
1410.821849060198
 30
0.0
 10
2454.017491256316
 20
1410.806735296239
 30
0.0
 10
2453.98090087383
 20
1410.789028177314
 30
0.0
 10
2453.948662752574
 20
1410.769438128231
 30
0.0
 10
2453.932279710653
 20
1410.754661005024
 30
0.0
 10
2453.924056154797
 20
1410.747243548688
 30
0.0
  0
SPLINE
  5
1F1
330
1F
100
AcDbEntity
  8
0
  6
Continuous
 62
     7
370
    15
100
AcDbSpline
210
0.0
220
0.0
230
1.0
 70
     8
 71
     3
 72
    23
 73
    19
 74
     0
 42
0.000000001
 43
0.00000001
 40
0.0
 40
0.0
 40
0.0
 40
0.0
 40
0.0656337996756899
 40
0.1291880880571288
 40
0.1912186831121886
 40
0.2519128178811571
 40
0.3125074743865505
 40
0.3734944337751982
 40
0.4351515996540498
 40
0.4987414744066493
 40
0.5620952169966309
 40
0.6241865668116559
 40
0.6854757184651954
 40
0.7460968148060529
 40
0.807611636447785
 40
0.8699665806571899
 40
0.9339510189149071
 40
1.0
 40
1.0
 40
1.0
 40
1.0
 10
2454.612455111024
 20
1410.558145222613
 30
0.0
 10
2454.61836789276
 20
1410.56431657925
 30
0.0
 10
2454.630006118361
 20
1410.576463762081
 30
0.0
 10
2454.643197405892
 20
1410.595358270559
 30
0.0
 10
2454.652764031041
 20
1410.614270752953
 30
0.0
 10
2454.658434329
 20
1410.633297659584
 30
0.0
 10
2454.65986515448
 20
1410.652418531415
 30
0.0
 10
2454.65763297624
 20
1410.671616780716
 30
0.0
 10
2454.65135904096
 20
1410.690898650182
 30
0.0
 10
2454.641177130421
 20
1410.709985746136
 30
0.0
 10
2454.627645232317
 20
1410.728548905133
 30
0.0
 10
2454.611351601216
 20
1410.746264132941
 30
0.0
 10
2454.591357299404
 20
1410.762613300691
 30
0.0
 10
2454.568538693567
 20
1410.77784863565
 30
0.0
 10
2454.542872805015
 20
1410.792012785181
 30
0.0
 10
2454.513664788765
 20
1410.804746657797
 30
0.0
 10
2454.481979330502
 20
1410.816651051002
 30
0.0
 10
2454.458786388866
 20
1410.823232262282
 30
0.0
 10
2454.447005800683
 20
1410.826575112925
 30
0.0
  0
LINE
  5
1F2
330
1F
100
AcDbEntity
  8
0
  6
Continuous
 62
     7
370
    15
100
AcDbLine
 10
2453.8196735137
 20
1410.5472319133
 30
0.0
 11
2453.8196735137
 21
1410.7763841448
 31
0.0
  0
LINE
  5
1F3
330
1F
100
AcDbEntity
  8
0
  6
Continuous
 62
     7
370
    15
100
AcDbLine
 10
2455.2076571507
 20
1410.5185839747
 30
0.0
 11
2455.2076571507
 21
1410.5775610006
 31
0.0
  0
LINE
  5
1F4
330
1F
100
AcDbEntity
  8
0
  6
Continuous
 62
     7
370
    15
100
AcDbLine
 10
2454.5010071492
 20
1410.8059316156
 30
0.0
 11
2454.5010071492
 21
1410.8810368335
 31
0.0
  0
LINE
  5
1F5
330
1F
100
AcDbEntity
  8
0
  6
Continuous
 62
     7
370
    15
100
AcDbLine
 10
2454.7555502168
 20
1410.5667891788
 30
0.0
 11
2454.7555502168
 21
1410.6978104327
 31
0.0
  0
LINE
  5
1F6
330
1F
100
AcDbEntity
  8
0
  6
Continuous
 62
     7
370
    15
100
AcDbLine
 10
2454.8390326684
 20
1410.6482706108
 30
0.0
 11
2454.8390326684
 21
1410.7792918647
 31
0.0
  0
LINE
  5
1F7
330
1F
100
AcDbEntity
  8
0
  6
Continuous
 62
     7
370
    15
100
AcDbLine
 10
2453.5524822227
 20
1411.0570775059
 30
0.0
 11
2453.5524822227
 21
1411.1388255841
 31
0.0
  0
LINE
  5
1F8
330
1F
100
AcDbEntity
  8
0
  6
Continuous
 62
     7
370
    15
100
AcDbLine
 10
2452.5590103098
 20
1411.2268117571
 30
0.0
 11
2452.5590103098
 21
1411.3989530867
 31
0.0
  0
LINE
  5
1F9
330
1F
100
AcDbEntity
  8
0
  6
Continuous
 62
     7
370
    15
100
AcDbLine
 10
2453.1299253385
 20
1411.0523866142
 30
0.0
 11
2453.1299253385
 21
1411.1177061237
 31
0.0
  0
LINE
  5
1FA
330
1F
100
AcDbEntity
  8
0
  6
Continuous
 62
     7
370
    15
100
AcDbLine
 10
2451.8408712877
 20
1411.0311459697
 30
0.0
 11
2451.8408712877
 21
1411.1285257911
 31
0.0
  0
SPLINE
  5
1FB
330
1F
100
AcDbEntity
  8
0
  6
Continuous
 62
     7
370
    15
100
AcDbSpline
210
0.0
220
0.0
230
1.0
 70
     8
 71
     3
 72
    19
 73
    15
 74
     0
 42
0.000000001
 43
0.00000001
 40
0.0
 40
0.0
 40
0.0
 40
0.0
 40
0.0848023883688278
 40
0.1686635395998416
 40
0.2525519243727825
 40
0.338239689464245
 40
0.4231026613931558
 40
0.5055560510576226
 40
0.5861756559890524
 40
0.6671357203303606
 40
0.748499180305534
 40
0.830452398758279
 40
0.9134557062010135
 40
1.0
 40
1.0
 40
1.0
 40
1.0
 10
2451.464850756498
 20
1411.192601547185
 30
0.0
 10
2451.480335839329
 20
1411.188758413499
 30
0.0
 10
2451.511134133239
 20
1411.181114801765
 30
0.0
 10
2451.560200833203
 20
1411.173344265052
 30
0.0
 10
2451.610857579227
 20
1411.168770712046
 30
0.0
 10
2451.66245167828
 20
1411.167492905256
 30
0.0
 10
2451.713658570869
 20
1411.16937071247
 30
0.0
 10
2451.76307560155
 20
1411.174431294566
 30
0.0
 10
2451.809566043225
 20
1411.183301952135
 30
0.0
 10
2451.853308994885
 20
1411.195048533086
 30
0.0
 10
2451.893520762502
 20
1411.210029804042
 30
0.0
 10
2451.929795531949
 20
1411.227758812546
 30
0.0
 10
2451.961625018964
 20
1411.248374659746
 30
0.0
 10
2451.97870898679
 20
1411.263731955817
 30
0.0
 10
2451.987429369266
 20
1411.271570971724
 30
0.0
  0
SPLINE
  5
1FC
330
1F
100
AcDbEntity
  8
0
  6
Continuous
 62
     7
370
    15
100
AcDbSpline
210
0.0
220
0.0
230
1.0
 70
     8
 71
     3
 72
    19
 73
    15
 74
     0
 42
0.000000001
 43
0.00000001
 40
0.0
 40
0.0
 40
0.0
 40
0.0
 40
0.0815893489321834
 40
0.1628588951679349
 40
0.2454836892755792
 40
0.330807139158011
 40
0.4164933737762846
 40
0.4998932031606323
 40
0.583048155995021
 40
0.6671578520621577
 40
0.7513119292929143
 40
0.8337847893576151
 40
0.9162564885439797
 40
1.0
 40
1.0
 40
1.0
 40
1.0
 10
2451.299030413039
 20
1411.460669297799
 30
0.0
 10
2451.291964542543
 20
1411.452994890705
 30
0.0
 10
2451.277860497378
 20
1411.4376761576
 30
0.0
 10
2451.264050819174
 20
1411.413039000861
 30
0.0
 10
2451.256888325839
 20
1411.387327496005
 30
0.0
 10
2451.25597046492
 20
1411.360885801969
 30
0.0
 10
2451.261746152813
 20
1411.334534843771
 30
0.0
 10
2451.273513719213
 20
1411.308942324366
 30
0.0
 10
2451.292161434949
 20
1411.284616658927
 30
0.0
 10
2451.316992768181
 20
1411.261747475736
 30
0.0
 10
2451.346874431471
 20
1411.240603826367
 30
0.0
 10
2451.382012010307
 20
1411.221993083466
 30
0.0
 10
2451.42100712399
 20
1411.205544925991
 30
0.0
 10
2451.450161852224
 20
1411.196937959143
 30
0.0
 10
2451.464850756498
 20
1411.192601547185
 30
0.0
  0
SPLINE
  5
1FD
330
1F
100
AcDbEntity
  8
0
  6
Continuous
 62
     7
370
    15
100
AcDbSpline
210
0.0
220
0.0
230
1.0
 70
     8
 71
     3
 72
    19
 73
    15
 74
     0
 42
0.000000001
 43
0.00000001
 40
0.0
 40
0.0
 40
0.0
 40
0.0
 40
0.0859205174117674
 40
0.1695934351247439
 40
0.2524755148685386
 40
0.3362444769570507
 40
0.4195045210415723
 40
0.5020359066440895
 40
0.5847746476768717
 40
0.6698464747058012
 40
0.7541848663887866
 40
0.8366582383293274
 40
0.9180097257088056
 40
1.0
 40
1.0
 40
1.0
 40
1.0
 10
2451.821980058925
 20
1411.540000862035
 30
0.0
 10
2451.806343227901
 20
1411.543891032374
 30
0.0
 10
2451.775478610604
 20
1411.551569609863
 30
0.0
 10
2451.72656286707
 20
1411.55932284148
 30
0.0
 10
2451.676614962379
 20
1411.563678258365
 30
0.0
 10
2451.626079508303
 20
1411.564804207648
 30
0.0
 10
2451.575709912902
 20
1411.562639106512
 30
0.0
 10
2451.526680937322
 20
1411.556787562426
 30
0.0
 10
2451.479136574047
 20
1411.547733653944
 30
0.0
 10
2451.434187066564
 20
1411.53527480931
 30
0.0
 10
2451.392465514559
 20
1411.52016104535
 30
0.0
 10
2451.355875132072
 20
1411.502453926425
 30
0.0
 10
2451.323637010817
 20
1411.482863877342
 30
0.0
 10
2451.307253968896
 20
1411.468086754135
 30
0.0
 10
2451.299030413039
 20
1411.460669297799
 30
0.0
  0
SPLINE
  5
1FE
330
1F
100
AcDbEntity
  8
0
  6
Continuous
 62
     7
370
    15
100
AcDbSpline
210
0.0
220
0.0
230
1.0
 70
     8
 71
     3
 72
    23
 73
    19
 74
     0
 42
0.000000001
 43
0.00000001
 40
0.0
 40
0.0
 40
0.0
 40
0.0
 40
0.0656337996756899
 40
0.1291880880571288
 40
0.1912186831121886
 40
0.2519128178811572
 40
0.3125074743865505
 40
0.3734944337751982
 40
0.4351515996540498
 40
0.4987414744066493
 40
0.5620952169966309
 40
0.6241865668116559
 40
0.6854757184651954
 40
0.7460968148060529
 40
0.807611636447785
 40
0.8699665806571899
 40
0.9339510189149071
 40
1.0
 40
1.0
 40
1.0
 40
1.0
 10
2451.987429369266
 20
1411.271570971724
 30
0.0
 10
2451.993342151003
 20
1411.277742328361
 30
0.0
 10
2452.004980376604
 20
1411.289889511193
 30
0.0
 10
2452.018171664135
 20
1411.30878401967
 30
0.0
 10
2452.027738289283
 20
1411.327696502064
 30
0.0
 10
2452.033408587242
 20
1411.346723408695
 30
0.0
 10
2452.034839412723
 20
1411.365844280526
 30
0.0
 10
2452.032607234482
 20
1411.385042529827
 30
0.0
 10
2452.026333299202
 20
1411.404324399293
 30
0.0
 10
2452.016151388663
 20
1411.423411495247
 30
0.0
 10
2452.002619490559
 20
1411.441974654245
 30
0.0
 10
2451.986325859459
 20
1411.459689882053
 30
0.0
 10
2451.966331557646
 20
1411.476039049802
 30
0.0
 10
2451.943512951809
 20
1411.491274384761
 30
0.0
 10
2451.917847063257
 20
1411.505438534292
 30
0.0
 10
2451.888639047007
 20
1411.518172406908
 30
0.0
 10
2451.856953588745
 20
1411.530076800113
 30
0.0
 10
2451.833760647109
 20
1411.536658011393
 30
0.0
 10
2451.821980058925
 20
1411.540000862035
 30
0.0
  0
LINE
  5
1FF
330
1F
100
AcDbEntity
  8
0
  6
Continuous
 62
     7
370
    15
100
AcDbLine
 10
2451.9874293693
 20
1411.1405497178
 30
0.0
 11
2451.9874293693
 21
1411.2715709717
 31
0.0
  0
LINE
  5
200
330
1F
100
AcDbEntity
  8
0
  6
Continuous
 62
     7
370
    15
100
AcDbLine
 10
2451.4648507565
 20
1411.1298753
 30
0.0
 11
2451.4648507565
 21
1411.1926015472
 31
0.0
  0
LINE
  5
201
330
1F
100
AcDbEntity
  8
0
  6
Continuous
 62
     7
370
    15
100
AcDbLine
 10
2452.966773354
 20
1411.2143394539
 30
0.0
 11
2452.966773354
 21
1411.2980087043
 31
0.0
  0
LINE
  5
202
330
1F
100
AcDbEntity
  8
0
  6
Continuous
 62
     7
370
    15
100
AcDbLine
 10
2451.1946477719
 20
1411.2606576624
 30
0.0
 11
2451.1946477719
 21
1411.4898098939
 31
0.0
  0
LINE
  5
203
330
1F
100
AcDbEntity
  8
0
  6
Continuous
 62
     7
370
    15
100
AcDbLine
 10
2452.7676412501
 20
1411.2644692591
 30
0.0
 11
2452.7676412501
 21
1411.3235781995
 31
0.0
  0
LINE
  5
204
330
1F
100
AcDbEntity
  8
0
  6
Continuous
 62
     7
370
    15
100
AcDbLine
 10
2452.5855996739
 20
1411.2360337394
 30
0.0
 11
2452.5855996739
 21
1411.2938838673
 31
0.0
  0
LINE
  5
205
330
1F
100
AcDbEntity
  8
0
  6
Continuous
 62
     7
370
    15
100
AcDbLine
 10
2451.2860496248
 20
1411.8410634121
 30
0.0
 11
2451.2860496248
 21
1411.972084666
 31
0.0
  0
LINE
  5
206
330
1F
100
AcDbEntity
  8
0
  6
Continuous
 62
     7
370
    15
100
AcDbLine
 10
2451.8759814074
 20
1411.5193573647
 30
0.0
 11
2451.8759814074
 21
1411.5944625826
 31
0.0
  0
LINE
  5
207
330
1F
100
AcDbEntity
  8
0
  6
Continuous
 62
     7
370
    15
100
AcDbLine
 10
2452.3960605098
 20
1411.5393862382
 30
0.0
 11
2452.3960605098
 21
1411.6704074921
 31
0.0
  0
LINE
  5
208
330
1F
100
AcDbEntity
  8
0
  6
Continuous
 62
     7
370
    15
100
AcDbLine
 10
2452.1266904662
 20
1411.2764728177
 30
0.0
 11
2452.1266904662
 21
1411.4074940716
 31
0.0
  0
LINE
  5
209
330
1F
100
AcDbEntity
  8
0
  6
Continuous
 62
     7
370
    15
100
AcDbLine
 10
2450.4620119691
 20
1411.5155349683
 30
0.0
 11
2450.4620119691
 21
1411.5836741499
 31
0.0
  0
LINE
  5
20A
330
1F
100
AcDbEntity
  8
0
  6
Continuous
 62
     7
370
    15
100
AcDbLine
 10
2450.0522587792
 20
1411.5128358481
 30
0.0
 11
2450.0522587792
 21
1411.5765137784
 31
0.0
  0
LINE
  5
20B
330
1F
100
AcDbEntity
  8
0
  6
Continuous
 62
     7
370
    15
100
AcDbLine
 10
2449.812160685
 20
1411.6255013106
 30
0.0
 11
2449.812160685
 21
1411.8624537374
 31
0.0
  0
LINE
  5
20C
330
1F
100
AcDbEntity
  8
0
  6
Continuous
 62
     7
370
    15
100
AcDbLine
 10
2450.7350611221
 20
1411.7221754298
 30
0.0
 11
2450.7350611221
 21
1411.7937340698
 31
0.0
  0
SPLINE
  5
20D
330
1F
100
AcDbEntity
  8
0
  6
Continuous
 62
     7
370
    15
100
AcDbSpline
210
0.0
220
0.0
230
1.0
 70
     8
 71
     3
 72
    15
 73
    11
 74
     0
 42
0.000000001
 43
0.00000001
 40
0.0
 40
0.0
 40
0.0
 40
0.0
 40
0.1099838451118727
 40
0.2225804973638886
 40
0.3384998709624456
 40
0.4587085654776341
 40
0.5855353464579961
 40
0.7175177429458921
 40
0.854666819751022
 40
1.0
 40
1.0
 40
1.0
 40
1.0
 10
2450.166932093387
 20
1411.937027881112
 30
0.0
 10
2450.158689079548
 20
1411.935945697079
 30
0.0
 10
2450.142007228517
 20
1411.933755620345
 30
0.0
 10
2450.117633470445
 20
1411.928795500872
 30
0.0
 10
2450.093174381072
 20
1411.922951187608
 30
0.0
 10
2450.068904430009
 20
1411.915670174249
 30
0.0
 10
2450.044739402048
 20
1411.907133369737
 30
0.0
 10
2450.020467681194
 20
1411.897525687903
 30
0.0
 10
2449.996343718109
 20
1411.886655010718
 30
0.0
 10
2449.980896272489
 20
1411.878709111628
 30
0.0
 10
2449.972948777229
 20
1411.874621057403
 30
0.0
  0
SPLINE
  5
20E
330
1F
100
AcDbEntity
  8
0
  6
Continuous
 62
     7
370
    15
100
AcDbSpline
210
0.0
220
0.0
230
1.0
 70
     8
 71
     3
 72
    15
 73
    11
 74
     0
 42
0.000000001
 43
0.00000001
 40
0.0
 40
0.0
 40
0.0
 40
0.0
 40
0.1310919762569281
 40
0.2591412763281413
 40
0.3841617634834039
 40
0.5059919524977761
 40
0.6290980893898571
 40
0.7506691234237093
 40
0.8740389376151269
 40
1.0
 40
1.0
 40
1.0
 40
1.0
 10
2450.429544529302
 20
1411.918435002703
 30
0.0
 10
2450.418956858382
 20
1411.921177867792
 30
0.0
 10
2450.398027258923
 20
1411.926599935416
 30
0.0
 10
2450.365482988938
 20
1411.932920043442
 30
0.0
 10
2450.332828118926
 20
1411.937621624705
 30
0.0
 10
2450.299931861949
 20
1411.940846892004
 30
0.0
 10
2450.266876244429
 20
1411.942212889264
 30
0.0
 10
2450.233577723314
 20
1411.942329808706
 30
0.0
 10
2450.200174626233
 20
1411.940503296717
 30
0.0
 10
2450.178089446687
 20
1411.938194351788
 30
0.0
 10
2450.166932093387
 20
1411.937027881112
 30
0.0
  0
SPLINE
  5
20F
330
1F
100
AcDbEntity
  8
0
  6
Continuous
 62
     7
370
    15
100
AcDbSpline
210
0.0
220
0.0
230
1.0
 70
     8
 71
     3
 72
    19
 73
    15
 74
     0
 42
0.000000001
 43
0.00000001
 40
0.0
 40
0.0
 40
0.0
 40
0.0
 40
0.0962401251801507
 40
0.1852312611287011
 40
0.2675005230774393
 40
0.3444003817777766
 40
0.4195948685557301
 40
0.4968906265927774
 40
0.5766379188385165
 40
0.6602678524196381
 40
0.7453866150876284
 40
0.8300403273864532
 40
0.9144742116388019
 40
0.9999999999999999
 40
0.9999999999999999
 40
0.9999999999999999
 40
0.9999999999999999
 10
2450.621939516419
 20
1411.698239280681
 30
0.0
 10
2450.625445641691
 20
1411.70645694067
 30
0.0
 10
2450.632193804212
 20
1411.722273290869
 30
0.0
 10
2450.636325081312
 20
1411.745592067343
 30
0.0
 10
2450.636326659033
 20
1411.767314151213
 30
0.0
 10
2450.630823418008
 20
1411.787647023664
 30
0.0
 10
2450.620890786892
 20
1411.807075878712
 30
0.0
 10
2450.605648211543
 20
1411.825838093402
 30
0.0
 10
2450.585897711058
 20
1411.844284423309
 30
0.0
 10
2450.561396216565
 20
1411.861982633163
 30
0.0
 10
2450.533611810876
 20
1411.878930441977
 30
0.0
 10
2450.501686841532
 20
1411.893907731264
 30
0.0
 10
2450.467418843603
 20
1411.907537358522
 30
0.0
 10
2450.442223256995
 20
1411.914786929712
 30
0.0
 10
2450.429544529302
 20
1411.918435002703
 30
0.0
  0
LINE
  5
210
330
1F
100
AcDbEntity
  8
0
  6
Continuous
 62
     7
370
    15
100
AcDbLine
 10
2449.9729487772
 20
1411.8746210574
 30
0.0
 11
2450.6219395164
 21
1411.6982392807
 31
0.0
  0
LINE
  5
211
330
1F
100
AcDbEntity
  8
0
  6
Continuous
 62
     7
370
    15
100
AcDbLine
 10
2450.6219395164
 20
1411.6291011507
 30
0.0
 11
2450.6219395164
 21
1411.6982392807
 31
0.0
  0
LINE
  5
212
330
1F
100
AcDbEntity
  8
0
  6
Continuous
 62
     7
370
    15
100
AcDbLine
 10
2449.9729487772
 20
1411.8054829274
 30
0.0
 11
2449.9729487772
 21
1411.8746210574
 31
0.0
  0
LINE
  5
213
330
1F
100
AcDbEntity
  8
0
  6
Continuous
 62
     7
370
    15
100
AcDbLine
 10
2450.4795614637
 20
1411.9000129577
 30
0.0
 11
2450.4795614637
 21
1411.9739796016
 31
0.0
  0
LINE
  5
214
330
1F
100
AcDbEntity
  8
0
  6
Continuous
 62
     7
370
    15
100
AcDbLine
 10
2450.0612385962
 20
1411.9116132497
 30
0.0
 11
2450.0612385962
 21
1411.982728989
 31
0.0
  0
LINE
  5
215
330
1F
100
AcDbEntity
  8
0
  6
Continuous
 62
     7
370
    15
100
AcDbLine
 10
2449.485201374
 20
1412.3107416277
 30
0.0
 11
2449.485201374
 21
1412.4417628816
 31
0.0
  0
LINE
  5
216
330
1F
100
AcDbEntity
  8
0
  6
Continuous
 62
     7
370
    15
100
AcDbLine
 10
2449.3369104618
 20
1412.0869901457
 30
0.0
 11
2449.3369104618
 21
1412.1660051514
 31
0.0
  0
SPLINE
  5
217
330
1F
100
AcDbEntity
  8
0
  6
Continuous
 62
     7
370
    15
100
AcDbSpline
210
0.0
220
0.0
230
1.0
 70
     8
 71
     3
 72
    10
 73
     6
 74
     0
 42
0.000000001
 43
0.00000001
 40
0.0
 40
0.0
 40
0.0
 40
0.0
 40
0.4023314671341158
 40
0.911324478904573
 40
1.0
 40
1.0
 40
1.0
 40
1.0
 10
2497.432114730124
 20
845.5272213615985
 30
0.0
 10
2497.660413567031
 20
845.7621918145994
 30
0.0
 10
2498.177535233056
 20
846.2944254158244
 30
0.0
 10
2498.422986797815
 20
846.6725532138196
 30
0.0
 10
2498.29991941173
 20
846.6930979995435
 30
0.0
 10
2498.281660018787
 20
846.6961462101814
 30
0.0
  0
SPLINE
  5
218
330
1F
100
AcDbEntity
  8
0
  6
Continuous
 62
     7
370
    15
100
AcDbSpline
210
0.0
220
0.0
230
1.0
 70
     8
 71
     3
 72
    15
 73
    11
 74
     0
 42
0.000000001
 43
0.00000001
 40
0.0
 40
0.0
 40
0.0
 40
0.0
 40
0.0910805575980414
 40
0.219683432488539
 40
0.3552653072987604
 40
0.4908471821089767
 40
0.6194500569994669
 40
0.736034194218131
 40
0.8834643945468088
 40
1.0
 40
1.0
 40
1.0
 40
1.0
 10
2488.765040651948
 20
839.5126443796952
 30
0.0
 10
2488.80476065647
 20
839.4823855281177
 30
0.0
 10
2488.900564054713
 20
839.4094021323958
 30
0.0
 10
2489.563801213925
 20
839.6894425736284
 30
0.0
 10
2490.669554806485
 20
840.3192983102183
 30
0.0
 10
2492.092543882654
 20
841.255769418894
 30
0.0
 10
2493.584587554177
 20
842.3267057442023
 30
0.0
 10
2495.104765272866
 20
843.4956863345983
 30
0.0
 10
2496.467050156618
 20
844.6211164488827
 30
0.0
 10
2497.136545828001
 20
845.2497099477389
 30
0.0
 10
2497.432114730124
 20
845.5272213615985
 30
0.0
  0
SPLINE
  5
219
330
1F
100
AcDbEntity
  8
0
  6
Continuous
 62
     7
370
    15
100
AcDbSpline
210
0.0
220
0.0
230
1.0
 70
     8
 71
     3
 72
    16
 73
    12
 74
     0
 42
0.000000001
 43
0.00000001
 40
0.0
 40
0.0
 40
0.0
 40
0.0
 40
0.0249468020153132
 40
0.1499468020153134
 40
0.2749468020153137
 40
0.399946802015314
 40
0.5249468020153143
 40
0.6499468020153141
 40
0.7749468020153136
 40
0.899946802015313
 40
0.9999999999999999
 40
0.9999999999999999
 40
0.9999999999999999
 40
0.9999999999999999
 10
2473.95224158108
 20
830.1135334230879
 30
0.0
 10
2473.942377736135
 20
830.0894337652409
 30
0.0
 10
2473.883089495333
 20
829.9445788607281
 30
0.0
 10
2474.47801196301
 20
830.2456772413123
 30
0.0
 10
2475.682919483889
 20
831.0201428634778
 30
0.0
 10
2477.388557451777
 20
832.2719534028832
 30
0.0
 10
2479.255586112141
 20
833.7470830096855
 30
0.0
 10
2481.027780568284
 20
835.2432999360615
 30
0.0
 10
2482.402958946065
 20
836.5068943102033
 30
0.0
 10
2483.215377248284
 20
837.3656497650242
 30
0.0
 10
2483.191477466615
 20
837.4946326797572
 30
0.0
 10
2483.180852202862
 20
837.5519753579327
 30
0.0
  0
SPLINE
  5
21A
330
1F
100
AcDbEntity
  8
0
  6
Continuous
 62
     7
370
    15
100
AcDbSpline
210
0.0
220
0.0
230
1.0
 70
     8
 71
     3
 72
    20
 73
    16
 74
     0
 42
0.000000001
 43
0.00000001
 40
0.0
 40
0.0
 40
0.0
 40
0.0
 40
0.051558404077284
 40
0.1181889127090872
 40
0.1746008841602074
 40
0.2310128556113276
 40
0.2976433642431309
 40
0.3758821387622608
 40
0.4662338696356368
 40
0.567256490393418
 40
0.6747259785073615
 40
0.7821954666213048
 40
0.8832180873790854
 40
0.9735698182524609
 40
1.0
 40
1.0
 40
1.0
 40
1.0
 10
2435.122533880994
 20
841.3760321390762
 30
0.0
 10
2435.138021974621
 20
841.2822402155492
 30
0.0
 10
2435.173525807186
 20
841.067238109473
 30
0.0
 10
2434.906049329076
 20
840.6225690624236
 30
0.0
 10
2434.461459055144
 20
840.1193655451392
 30
0.0
 10
2433.834048680743
 20
839.5733841799663
 30
0.0
 10
2432.94826286933
 20
838.9383930159245
 30
0.0
 10
2431.717080827913
 20
838.2034474179827
 30
0.0
 10
2430.150894171039
 20
837.4289726365975
 30
0.0
 10
2428.370642248863
 20
836.7235289616916
 30
0.0
 10
2426.618140817056
 20
836.2186522288737
 30
0.0
 10
2425.15584087963
 20
836.0024792557252
 30
0.0
 10
2424.218158578361
 20
836.1045412442883
 30
0.0
 10
2423.795403725311
 20
836.3385172712829
 30
0.0
 10
2423.809610256479
 20
836.571422454704
 30
0.0
 10
2423.812825490691
 20
836.6241337538222
 30
0.0
  0
SPLINE
  5
21B
330
1F
100
AcDbEntity
  8
0
  6
Continuous
 62
     7
370
    15
100
AcDbSpline
210
0.0
220
0.0
230
1.0
 70
     8
 71
     3
 72
    15
 73
    11
 74
     0
 42
0.000000001
 43
0.00000001
 40
0.0
 40
0.0
 40
0.0
 40
0.0
 40
0.1167200810305108
 40
0.2643773605873213
 40
0.3811327665317491
 40
0.50991599625932
 40
0.645681849836983
 40
0.7814477034146486
 40
0.9102309331422214
 40
1.0
 40
1.0
 40
1.0
 40
1.0
 10
2416.382496450398
 20
837.3036525898851
 30
0.0
 10
2416.089212633792
 20
837.0233106463684
 30
0.0
 10
2415.424908765488
 20
836.388320827697
 30
0.0
 10
2414.105134437455
 20
835.2102001037205
 30
0.0
 10
2412.650424347148
 20
833.9599512123847
 30
0.0
 10
2411.238547036
 20
832.7895383458841
 30
0.0
 10
2409.909565698666
 20
831.7361844226122
 30
0.0
 10
2408.897546290541
 20
830.9905329346275
 30
0.0
 10
2408.312258376615
 20
830.6164645360681
 30
0.0
 10
2408.251134060075
 20
830.6459557999575
 30
0.0
 10
2408.226027607552
 20
830.6580691626683
 30
0.0
  0
SPLINE
  5
21C
330
1F
100
AcDbEntity
  8
0
  6
Continuous
 62
     7
370
    15
100
AcDbSpline
210
0.0
220
0.0
230
1.0
 70
     8
 71
     3
 72
    10
 73
     6
 74
     0
 42
0.000000001
 43
0.00000001
 40
0.0
 40
0.0
 40
0.0
 40
0.0
 40
0.0809247836273778
 40
0.5942370651941095
 40
1.0
 40
1.0
 40
1.0
 40
1.0
 10
2417.306146173418
 20
838.3850766869465
 30
0.0
 10
2417.318604008007
 20
838.3870762298903
 30
0.0
 10
2417.410082869405
 20
838.4017590313443
 30
0.0
 10
2417.135570201071
 20
838.0601092640464
 30
0.0
 10
2416.613143050458
 20
837.5353352900611
 30
0.0
 10
2416.382496450398
 20
837.3036525898851
 30
0.0
  0
LWPOLYLINE
  5
21D
330
1F
100
AcDbEntity
  8
0
  6
Continuous
 62
     7
370
    15
100
AcDbPolyline
 90
       10
 70
   128
 43
0.0
 10
2449.7925425848
 20
550.926456238
 10
2451.2001902051
 20
550.6536607531
 10
2452.6953352745
 20
550.5697338486
 10
2454.1840323296
 20
550.6799489606
 10
2455.5727410592
 20
550.9773808683
 10
2456.7742037866
 20
551.443340831
 10
2457.71292819
 20
552.0485508707
 10
2458.3299307627
 20
552.7549834147
 10
2458.5864429639
 20
553.5182507081
 10
2458.5927149184
 20
553.6595102788
  0
LWPOLYLINE
  5
21E
330
1F
100
AcDbEntity
  8
0
  6
Continuous
 62
     7
370
    15
100
AcDbPolyline
 90
        6
 70
   128
 43
0.0
 10
2446.5927149184
 20
553.6595102788
 10
2446.6118740437
 20
553.4127525149
 10
2446.918921942
 20
552.6544502914
 10
2447.5824751198
 20
551.9592996833
 10
2448.5608400905
 20
551.3709795598
 10
2449.7925425848
 20
550.926456238
  0
LWPOLYLINE
  5
21F
330
1F
100
AcDbEntity
  8
0
  6
Continuous
 62
     8
370
    15
100
AcDbPolyline
 90
       12
 70
   128
 43
0.0
 10
2457.9618481375
 20
906.580207941
 10
2457.098759866
 20
905.9458342595
 10
2455.9564751454
 20
905.4419390485
 10
2454.6067679257
 20
905.1001838972
 10
2453.1344452753
 20
904.9420425388
 10
2451.6320186412
 20
904.9774515763
 10
2450.1938910143
 20
905.2041861297
 10
2448.9104252426
 20
905.6079996333
 10
2447.8622662006
 20
906.1635189993
 10
2447.115273576
 20
906.835838903
 10
2446.7163836624
 20
907.5827150122
 10
2446.6553394074
 20
908.0224033092
  0
LWPOLYLINE
  5
220
330
1F
100
AcDbEntity
  8
0
  6
Continuous
 62
     8
370
    15
100
AcDbPolyline
 90
        3
 70
   128
 43
0.0
 10
2458.6553394074
 20
908.0224033092
 10
2458.4915089494
 20
907.3052000616
 10
2457.9618481375
 20
906.580207941
  0
LINE
  5
221
330
1F
100
AcDbEntity
  8
0
  6
Continuous
 62
     8
370
    15
100
AcDbLine
 10
2456.5801067571
 20
1409.8769257947
 30
0.0
 11
2456.5801067571
 21
1410.0079470486
 31
0.0
  0
LINE
  5
222
330
1F
100
AcDbEntity
  8
0
  6
Continuous
 62
     8
370
    15
100
AcDbLine
 10
2455.5900970487
 20
1410.1459892201
 30
0.0
 11
2455.5900970487
 21
1410.277010474
 31
0.0
  0
LINE
  5
223
330
1F
100
AcDbEntity
  8
0
  6
Continuous
 62
     8
370
    15
100
AcDbLine
 10
2453.5224800143
 20
1410.7483566863
 30
0.0
 11
2453.5224800143
 21
1410.8793779402
 31
0.0
  0
LINE
  5
224
330
1F
100
AcDbEntity
  8
0
  6
Continuous
 62
     8
370
    15
100
AcDbLine
 10
2452.9222619197
 20
1410.8925009828
 30
0.0
 11
2452.9222619197
 21
1411.0235222367
 31
0.0
  0
LWPOLYLINE
  5
225
330
1F
100
AcDbEntity
  8
0
  6
Continuous
 62
     8
370
    15
100
AcDbPolyline
 90
       11
 70
   128
 43
0.0
 10
2466.7692105323
 20
883.5788559892
 10
2465.9549515818
 20
882.8169594074
 10
2464.9560866981
 20
881.9385082284
 10
2463.8353782355
 20
880.9986987705
 10
2462.6632444284
 20
880.0565827183
 10
2461.5133347547
 20
879.1713566882
 10
2460.4579022681
 20
878.3986426874
 10
2459.5632636736
 20
877.7869931783
 10
2458.8856324041
 20
877.374840349
 10
2458.4675865246
 20
877.1880812778
 10
2458.3450293061
 20
877.1972542403
  0
ARC
  5
226
330
1F
100
AcDbEntity
  8
0
  6
Continuous
 62
     8
370
    15
100
AcDbCircle
 10
2465.3899804132
 20
885.6267969791
 30
0.0
 40
2.46907634942932
100
AcDbArc
 50
303.9591474805
 51
338.6145410257
  0
LWPOLYLINE
  5
227
330
1F
100
AcDbEntity
  8
0
  6
Continuous
 62
     8
370
    15
100
AcDbPolyline
 90
       15
 70
   128
 43
0.0
 10
2421.9678754047
 20
894.5073833677
 10
2421.9876513298
 20
894.4936019349
 10
2422.2649574761
 20
894.562338758
 10
2422.8171502556
 20
894.8641747754
 10
2423.6095333651
 20
895.3801445201
 10
2424.5923184597
 20
896.0778277155
 10
2425.7037535374
 20
896.9133863604
 10
2426.8740030447
 20
897.8343192323
 10
2428.0295359013
 20
898.7827607319
 10
2429.0977457279
 20
899.6991167916
 10
2430.0115129726
 20
900.52580939
 10
2430.7134222788
 20
901.2108943909
 10
2431.1593701034
 20
901.7113253841
 10
2431.3213359044
 20
901.9956584497
 10
2431.3116987446
 20
902.0368564829
  0
LWPOLYLINE
  5
228
330
1F
100
AcDbEntity
  8
0
  6
Continuous
 62
     8
370
    15
100
AcDbPolyline
 90
       11
 70
   128
 43
0.0
 10
2416.0083602035
 20
890.857664159
 10
2415.194101253
 20
890.0957675772
 10
2414.1952363694
 20
889.2173163982
 10
2413.0745279068
 20
888.2775069403
 10
2411.9023940997
 20
887.3353908881
 10
2410.7524844259
 20
886.450164858
 10
2409.6970519394
 20
885.6774508572
 10
2408.8024133448
 20
885.0658013481
 10
2408.1247820754
 20
884.6536485188
 10
2407.7067361958
 20
884.4668894476
 10
2407.5841802261
 20
884.4760608604
  0
ARC
  5
229
330
1F
100
AcDbEntity
  8
0
  6
Continuous
 62
     8
370
    15
100
AcDbCircle
 10
2414.6335810047
 20
892.9014334492
 30
0.0
 40
2.463130276088818
100
AcDbArc
 50
303.9274786282
 51
338.6709265046
  0
LWPOLYLINE
  5
22A
330
1F
100
AcDbEntity
  8
0
  6
Continuous
 62
     8
370
    15
100
AcDbPolyline
 90
       11
 70
   128
 43
0.0
 10
2496.702510378
 20
790.7189330326
 10
2495.8882514275
 20
789.9570364508
 10
2494.8893865439
 20
789.0785852719
 10
2493.7686780813
 20
788.1387758139
 10
2492.5965442742
 20
787.1966597617
 10
2491.4466346004
 20
786.3114337317
 10
2490.3912021139
 20
785.5387197308
 10
2489.4965635193
 20
784.9270702217
 10
2488.8189322498
 20
784.5149173925
 10
2488.4008863703
 20
784.3281583212
 10
2488.2783304006
 20
784.337329734
  0
ARC
  5
22B
330
1F
100
AcDbEntity
  8
0
  6
Continuous
 62
     8
370
    15
100
AcDbCircle
 10
2495.3277311792
 20
792.7627023228
 30
0.0
 40
2.463130276089261
100
AcDbArc
 50
303.9274786282
 51
338.6709265046
  0
LWPOLYLINE
  5
22C
330
1F
100
AcDbEntity
  8
0
  6
Continuous
 62
     8
370
    15
100
AcDbPolyline
 90
       15
 70
   128
 43
0.0
 10
2473.8946905248
 20
774.3059387534
 10
2473.9144111471
 20
774.2922257939
 10
2474.1917172934
 20
774.3609626169
 10
2474.7439100729
 20
774.6627986343
 10
2475.5362931824
 20
775.178768379
 10
2476.519078277
 20
775.8764515744
 10
2477.6305133547
 20
776.7120102194
 10
2478.800762862
 20
777.6329430913
 10
2479.9562957186
 20
778.5813845908
 10
2481.0245055452
 20
779.4977406505
 10
2481.93827279
 20
780.324433249
 10
2482.6401820962
 20
781.0095182498
 10
2483.0861299207
 20
781.509949243
 10
2483.2480957217
 20
781.7942823087
 10
2483.2384783953
 20
781.8354557091
  0
LWPOLYLINE
  5
22D
330
1F
100
AcDbEntity
  8
0
  6
Continuous
 62
     8
370
    15
100
AcDbPolyline
 90
       11
 70
   128
 43
0.0
 10
2439.4309397674
 20
795.2200286416
 10
2440.4520635124
 20
795.9566808546
 10
2441.5849714231
 20
796.8187743367
 10
2442.7584787289
 20
797.7521405838
 10
2443.89884965
 20
798.698132762
 10
2444.9344304874
 20
799.5973107036
 10
2445.8001518884
 20
800.3931757516
 10
2446.4416173936
 20
801.035720778
 10
2446.8185213661
 20
801.4845723157
 10
2446.9071815431
 20
801.7115273719
 10
2446.9030237709
 20
801.71781924
  0
ARC
  5
22E
330
1F
100
AcDbEntity
  8
0
  6
Continuous
 62
     8
370
    15
100
AcDbCircle
 10
2436.7371835053
 20
797.8934490343
 30
0.0
 40
3.795194250091894
100
AcDbArc
 50
282.5090702204
 51
315.2170887949
  0
LWPOLYLINE
  5
22F
330
1F
100
AcDbEntity
  8
0
  6
Continuous
 62
     8
370
    15
100
AcDbPolyline
 90
       10
 70
   128
 43
0.0
 10
2449.7925425848
 20
768.1596145806
 10
2451.2001902051
 20
767.8868190957
 10
2452.6953352745
 20
767.8028921912
 10
2454.1840323296
 20
767.9131073032
 10
2455.5727410592
 20
768.2105392109
 10
2456.7742037866
 20
768.6764991737
 10
2457.71292819
 20
769.2817092133
 10
2458.3299307627
 20
769.9881417573
 10
2458.5864429639
 20
770.7514090508
 10
2458.5927143193
 20
770.8912876979
  0
LWPOLYLINE
  5
230
330
1F
100
AcDbEntity
  8
0
  6
Continuous
 62
     8
370
    15
100
AcDbPolyline
 90
        6
 70
   128
 43
0.0
 10
2446.5927254214
 20
770.8868864991
 10
2446.6118740437
 20
770.6459108576
 10
2446.918921942
 20
769.8876086341
 10
2447.5824751198
 20
769.1924580259
 10
2448.5608400905
 20
768.6041379024
 10
2449.7925425848
 20
768.1596145806
  0
ENDSEC
  0
SECTION
  2
OBJECTS
  0
DICTIONARY
  5
C
330
0
100
AcDbDictionary
281
     1
  3
ACAD_GROUP
350
D
  3
ACAD_LAYOUT
350
1A
  3
ACAD_MLINESTYLE
350
17
  3
ACAD_PLOTSETTINGS
350
19
  3
ACAD_PLOTSTYLENAME
350
E
  3
ACAD_SCALELIST
350
47
  0
DICTIONARY
  5
D
102
{ACAD_REACTORS
330
C
102
}
330
C
100
AcDbDictionary
281
     1
  0
DICTIONARY
  5
1A
102
{ACAD_REACTORS
330
C
102
}
330
C
100
AcDbDictionary
281
     1
  3
Layout1
350
1E
  3
Layout2
350
26
  3
Model
350
22
  0
DICTIONARY
  5
17
102
{ACAD_REACTORS
330
C
102
}
330
C
100
AcDbDictionary
281
     1
  3
Standard
350
18
  0
DICTIONARY
  5
19
102
{ACAD_REACTORS
330
C
102
}
330
C
100
AcDbDictionary
281
     1
  0
ACDBDICTIONARYWDFLT
  5
E
102
{ACAD_REACTORS
330
C
102
}
330
C
100
AcDbDictionary
281
     1
  3
Normal
350
F
100
AcDbDictionaryWithDefault
340
F
  0
DICTIONARY
  5
47
102
{ACAD_REACTORS
330
C
102
}
330
C
100
AcDbDictionary
281
     1
  3
A0
350
48
  3
A1
350
49
  3
A2
350
4A
  3
A3
350
4B
  3
A4
350
4C
  3
A5
350
4D
  3
A6
350
4E
  3
A7
350
4F
  3
A8
350
50
  3
A9
350
51
  3
B0
350
52
  3
B1
350
53
  3
B2
350
54
  3
B3
350
55
  3
B4
350
56
  3
B5
350
57
  3
B6
350
58
  3
B7
350
59
  3
B8
350
5A
  3
B9
350
5B
  3
C0
350
5C
  3
C1
350
5D
  3
C2
350
5E
  3
C3
350
5F
  3
C4
350
60
  3
C5
350
61
  3
C6
350
62
  3
C7
350
63
  3
C8
350
64
  3
C9
350
65
  3
D0
350
66
  3
D1
350
67
  3
D2
350
68
  0
LAYOUT
  5
1E
102
{ACAD_REACTORS
330
1A
102
}
330
1A
100
AcDbPlotSettings
  1

  2
none_device
  4

  6

 40
0.0
 41
0.0
 42
0.0
 43
0.0
 44
0.0
 45
0.0
 46
0.0
 47
0.0
 48
0.0
 49
0.0
140
0.0
141
0.0
142
1.0
143
1.0
 70
   688
 72
     1
 73
     0
 74
     5
  7

 75
    16
147
1.0
148
0.0
149
0.0
100
AcDbLayout
  1
Layout1
 70
     1
 71
     1
 10
0.0
 20
0.0
 11
420.0
 21
297.0
 12
0.0
 22
0.0
 32
0.0
 14
1.0000000000E+20
 24
1.0000000000E+20
 34
1.0000000000E+20
 15
-1.0000000000E+20
 25
-1.0000000000E+20
 35
-1.0000000000E+20
146
0.0
 13
0.0
 23
0.0
 33
0.0
 16
1.0
 26
0.0
 36
0.0
 17
0.0
 27
1.0
 37
0.0
 76
     0
330
1B
  0
LAYOUT
  5
26
102
{ACAD_REACTORS
330
1A
102
}
330
1A
100
AcDbPlotSettings
  1

  2
none_device
  4

  6

 40
0.0
 41
0.0
 42
0.0
 43
0.0
 44
0.0
 45
0.0
 46
0.0
 47
0.0
 48
0.0
 49
0.0
140
0.0
141
0.0
142
1.0
143
1.0
 70
   688
 72
     1
 73
     0
 74
     5
  7

 75
    16
147
1.0
148
0.0
149
0.0
100
AcDbLayout
  1
Layout2
 70
     1
 71
     2
 10
0.0
 20
0.0
 11
0.0
 21
0.0
 12
0.0
 22
0.0
 32
0.0
 14
0.0
 24
0.0
 34
0.0
 15
0.0
 25
0.0
 35
0.0
146
0.0
 13
0.0
 23
0.0
 33
0.0
 16
1.0
 26
0.0
 36
0.0
 17
0.0
 27
1.0
 37
0.0
 76
     0
330
23
  0
LAYOUT
  5
22
102
{ACAD_REACTORS
330
1A
102
}
330
1A
100
AcDbPlotSettings
  1

  2
none_device
  4
Letter_(8.50_x_11.00_Inches)
  6

 40
6.35
 41
6.35
 42
6.35000508
 43
6.35000508
 44
215.9
 45
279.4
 46
0.0
 47
0.0
 48
0.0
 49
0.0
140
0.0
141
0.0
142
1.0
143
1.0
 70
  1712
 72
     1
 73
     0
 74
     0
  7

 75
     0
147
1.0
148
0.0
149
0.0
100
AcDbLayout
  1
Model
 70
     1
 71
     0
 10
0.0
 20
0.0
 11
2970.0
 21
2100.0
 12
0.0
 22
0.0
 32
0.0
 14
0.0
 24
0.0
 34
0.0
 15
2970.0
 25
2100.0
 35
0.0
146
0.0
 13
0.0
 23
0.0
 33
0.0
 16
1.0
 26
0.0
 36
0.0
 17
0.0
 27
1.0
 37
0.0
 76
     0
330
1F
331
29
  0
MLINESTYLE
  5
18
102
{ACAD_REACTORS
330
17
102
}
330
17
100
AcDbMlineStyle
  2
Standard
 70
     0
  3

 62
   256
 51
90.0
 52
90.0
 71
     2
 49
0.5
 62
   256
  6
BYLAYER
 49
-0.5
 62
   256
  6
BYLAYER
  0
ACDBPLACEHOLDER
  5
F
102
{ACAD_REACTORS
330
E
102
}
330
E
  0
SCALE
  5
48
102
{ACAD_REACTORS
330
47
102
}
330
47
100
AcDbScale
 70
     0
300
1:1
140
1.0
141
1.0
290
     1
  0
SCALE
  5
49
102
{ACAD_REACTORS
330
47
102
}
330
47
100
AcDbScale
 70
     0
300
1:2
140
1.0
141
2.0
290
     0
  0
SCALE
  5
4A
102
{ACAD_REACTORS
330
47
102
}
330
47
100
AcDbScale
 70
     0
300
1:4
140
1.0
141
4.0
290
     0
  0
SCALE
  5
4B
102
{ACAD_REACTORS
330
47
102
}
330
47
100
AcDbScale
 70
     0
300
1:5
140
1.0
141
5.0
290
     0
  0
SCALE
  5
4C
102
{ACAD_REACTORS
330
47
102
}
330
47
100
AcDbScale
 70
     0
300
1:8
140
1.0
141
8.0
290
     0
  0
SCALE
  5
4D
102
{ACAD_REACTORS
330
47
102
}
330
47
100
AcDbScale
 70
     0
300
1:10
140
1.0
141
10.0
290
     0
  0
SCALE
  5
4E
102
{ACAD_REACTORS
330
47
102
}
330
47
100
AcDbScale
 70
     0
300
1:16
140
1.0
141
16.0
290
     0
  0
SCALE
  5
4F
102
{ACAD_REACTORS
330
47
102
}
330
47
100
AcDbScale
 70
     0
300
1:20
140
1.0
141
20.0
290
     0
  0
SCALE
  5
50
102
{ACAD_REACTORS
330
47
102
}
330
47
100
AcDbScale
 70
     0
300
1:30
140
1.0
141
30.0
290
     0
  0
SCALE
  5
51
102
{ACAD_REACTORS
330
47
102
}
330
47
100
AcDbScale
 70
     0
300
1:40
140
1.0
141
40.0
290
     0
  0
SCALE
  5
52
102
{ACAD_REACTORS
330
47
102
}
330
47
100
AcDbScale
 70
     0
300
1:50
140
1.0
141
50.0
290
     0
  0
SCALE
  5
53
102
{ACAD_REACTORS
330
47
102
}
330
47
100
AcDbScale
 70
     0
300
1:100
140
1.0
141
100.0
290
     0
  0
SCALE
  5
54
102
{ACAD_REACTORS
330
47
102
}
330
47
100
AcDbScale
 70
     0
300
2:1
140
2.0
141
1.0
290
     0
  0
SCALE
  5
55
102
{ACAD_REACTORS
330
47
102
}
330
47
100
AcDbScale
 70
     0
300
4:1
140
4.0
141
1.0
290
     0
  0
SCALE
  5
56
102
{ACAD_REACTORS
330
47
102
}
330
47
100
AcDbScale
 70
     0
300
8:1
140
8.0
141
1.0
290
     0
  0
SCALE
  5
57
102
{ACAD_REACTORS
330
47
102
}
330
47
100
AcDbScale
 70
     0
300
10:1
140
10.0
141
1.0
290
     0
  0
SCALE
  5
58
102
{ACAD_REACTORS
330
47
102
}
330
47
100
AcDbScale
 70
     0
300
100:1
140
100.0
141
1.0
290
     0
  0
SCALE
  5
59
102
{ACAD_REACTORS
330
47
102
}
330
47
100
AcDbScale
 70
     0
300
1/128" = 1'-0"
140
0.0078125
141
12.0
290
     0
  0
SCALE
  5
5A
102
{ACAD_REACTORS
330
47
102
}
330
47
100
AcDbScale
 70
     0
300
1/64" = 1'-0"
140
0.015625
141
12.0
290
     0
  0
SCALE
  5
5B
102
{ACAD_REACTORS
330
47
102
}
330
47
100
AcDbScale
 70
     0
300
1/32" = 1'-0"
140
0.03125
141
12.0
290
     0
  0
SCALE
  5
5C
102
{ACAD_REACTORS
330
47
102
}
330
47
100
AcDbScale
 70
     0
300
1/16" = 1'-0"
140
0.0625
141
12.0
290
     0
  0
SCALE
  5
5D
102
{ACAD_REACTORS
330
47
102
}
330
47
100
AcDbScale
 70
     0
300
3/32" = 1'-0"
140
0.09375
141
12.0
290
     0
  0
SCALE
  5
5E
102
{ACAD_REACTORS
330
47
102
}
330
47
100
AcDbScale
 70
     0
300
1/8" = 1'-0"
140
0.125
141
12.0
290
     0
  0
SCALE
  5
5F
102
{ACAD_REACTORS
330
47
102
}
330
47
100
AcDbScale
 70
     0
300
3/16" = 1'-0"
140
0.1875
141
12.0
290
     0
  0
SCALE
  5
60
102
{ACAD_REACTORS
330
47
102
}
330
47
100
AcDbScale
 70
     0
300
1/4" = 1'-0"
140
0.25
141
12.0
290
     0
  0
SCALE
  5
61
102
{ACAD_REACTORS
330
47
102
}
330
47
100
AcDbScale
 70
     0
300
3/8" = 1'-0"
140
0.375
141
12.0
290
     0
  0
SCALE
  5
62
102
{ACAD_REACTORS
330
47
102
}
330
47
100
AcDbScale
 70
     0
300
1/2" = 1'-0"
140
0.5
141
12.0
290
     0
  0
SCALE
  5
63
102
{ACAD_REACTORS
330
47
102
}
330
47
100
AcDbScale
 70
     0
300
3/4" = 1'-0"
140
0.75
141
12.0
290
     0
  0
SCALE
  5
64
102
{ACAD_REACTORS
330
47
102
}
330
47
100
AcDbScale
 70
     0
300
1" = 1'-0"
140
1.0
141
12.0
290
     0
  0
SCALE
  5
65
102
{ACAD_REACTORS
330
47
102
}
330
47
100
AcDbScale
 70
     0
300
1-1/2" = 1'-0"
140
1.5
141
12.0
290
     0
  0
SCALE
  5
66
102
{ACAD_REACTORS
330
47
102
}
330
47
100
AcDbScale
 70
     0
300
3" = 1'-0"
140
3.0
141
12.0
290
     0
  0
SCALE
  5
67
102
{ACAD_REACTORS
330
47
102
}
330
47
100
AcDbScale
 70
     0
300
6" = 1'-0"
140
6.0
141
12.0
290
     0
  0
SCALE
  5
68
102
{ACAD_REACTORS
330
47
102
}
330
47
100
AcDbScale
 70
     0
300
1'-0" = 1'-0"
140
12.0
141
12.0
290
     0
  0
ENDSEC
  0
EOF
