  0
SECTION
  2
HEADER
  9
$ACADVER
  1
AC1015
  9
$ACADMAINTVER
 70
     6
  9
$DWGCODEPAGE
  3
ANSI_1252
  9
$INSBASE
 10
0.0
 20
0.0
 30
0.0
  9
$EXTMIN
 10
0.0
 20
0.0
 30
0.0
  9
$EXTMAX
 10
2970.0
 20
2100.0
 30
0.0
  9
$LIMMIN
 10
0.0
 20
0.0
  9
$LIMMAX
 10
2970.0
 20
2100.0
  9
$ORTHOMODE
 70
     0
  9
$REGENMODE
 70
     1
  9
$FILLMODE
 70
     1
  9
$QTEXTMODE
 70
     0
  9
$MIRRTEXT
 70
     1
  9
$LTSCALE
 40
10.0
  9
$ATTMODE
 70
     1
  9
$TEXTSIZE
 40
35.0
  9
$TRACEWID
 40
1.0
  9
$TEXTSTYLE
  7
Standard
  9
$CLAYER
  8
0
  9
$CELTYPE
  6
ByLayer
  9
$CECOLOR
 62
   256
  9
$CELTSCALE
 40
1.0
  9
$DISPSILH
 70
     0
  9
$DIMSCALE
 40
1.0
  9
$DIMASZ
 40
33.02
  9
$DIMEXO
 40
10.0
  9
$DIMDLI
 40
3.75
  9
$DIMRND
 40
0.0
  9
$DIMDLE
 40
0.0
  9
$DIMEXE
 40
10.0
  9
$DIMTP
 40
0.0
  9
$DIMTM
 40
0.0
  9
$DIMTXT
 40
35.0
  9
$DIMCEN
 40
2.5
  9
$DIMTSZ
 40
0.0
  9
$DIMTOL
 70
     0
  9
$DIMLIM
 70
     0
  9
$DIMTIH
 70
     1
  9
$DIMTOH
 70
     1
  9
$DIMSE1
 70
     0
  9
$DIMSE2
 70
     0
  9
$DIMTAD
 70
     1
  9
$DIMZIN
 70
     0
  9
$DIMBLK
  1

  9
$DIMASO
 70
     1
  9
$DIMSHO
 70
     1
  9
$DIMPOST
  1

  9
$DIMAPOST
  1

  9
$DIMALT
 70
     0
  9
$DIMALTD
 70
     3
  9
$DIMALTF
 40
0.0393700787
  9
$DIMLFAC
 40
1.0
  9
$DIMTOFL
 70
     1
  9
$DIMTVP
 40
0.0
  9
$DIMTIX
 70
     0
  9
$DIMSOXD
 70
     0
  9
$DIMSAH
 70
     0
  9
$DIMBLK1
  1

  9
$DIMBLK2
  1

  9
$DIMSTYLE
  2
ISO-25
  9
$DIMCLRD
 70
     0
  9
$DIMCLRE
 70
     0
  9
$DIMCLRT
 70
     0
  9
$DIMTFAC
 40
1.0
  9
$DIMGAP
 40
15.24
  9
$DIMJUST
 70
     0
  9
$DIMSD1
 70
     0
  9
$DIMSD2
 70
     0
  9
$DIMTOLJ
 70
     0
  9
$DIMTZIN
 70
     0
  9
$DIMALTZ
 70
     0
  9
$DIMALTTZ
 70
     0
  9
$DIMUPT
 70
     0
  9
$DIMDEC
 70
     2
  9
$DIMTDEC
 70
     2
  9
$DIMALTU
 70
     2
  9
$DIMALTTD
 70
     3
  9
$DIMTXSTY
  7
Standard
  9
$DIMAUNIT
 70
     0
  9
$DIMADEC
 70
     2
  9
$DIMALTRND
 40
0.0
  9
$DIMAZIN
 70
     0
  9
$DIMDSEP
 70
    44
  9
$DIMATFIT
 70
     3
  9
$DIMFRAC
 70
     0
  9
$DIMLDRBLK
  1

  9
$DIMLUNIT
 70
     2
  9
$DIMLWD
 70
    -2
  9
$DIMLWE
 70
    -2
  9
$DIMTMOVE
 70
     0
  9
$LUNITS
 70
     2
  9
$LUPREC
 70
     2
  9
$SKETCHINC
 40
1.0
  9
$FILLETRAD
 40
10.0
  9
$AUNITS
 70
     0
  9
$AUPREC
 70
     2
  9
$MENU
  1
.
  9
$ELEVATION
 40
0.0
  9
$PELEVATION
 40
0.0
  9
$THICKNESS
 40
0.0
  9
$LIMCHECK
 70
     0
  9
$CHAMFERA
 40
0.0
  9
$CHAMFERB
 40
0.0
  9
$CHAMFERC
 40
0.0
  9
$CHAMFERD
 40
0.0
  9
$SKPOLY
 70
     0
  9
$TDCREATE
 40
2456875.365646238
  9
$TDUCREATE
 40
2456875.282312905
  9
$TDUPDATE
 40
2456875.365647292
  9
$TDUUPDATE
 40
2456875.282313958
  9
$TDINDWG
 40
0.0000000116
  9
$TDUSRTIMER
 40
0.0000000116
  9
$USRTIMER
 70
     1
  9
$ANGBASE
 50
0.0
  9
$ANGDIR
 70
     0
  9
$PDMODE
 70
     0
  9
$PDSIZE
 40
-1.0
  9
$PLINEWID
 40
0.0
  9
$SPLFRAME
 70
     0
  9
$SPLINETYPE
 70
     6
  9
$SPLINESEGS
 70
     8
  9
$HANDSEED
  5
1A7
  9
$SURFTAB1
 70
     6
  9
$SURFTAB2
 70
     6
  9
$SURFTYPE
 70
     6
  9
$SURFU
 70
     6
  9
$SURFV
 70
     6
  9
$UCSBASE
  2

  9
$UCSNAME
  2

  9
$UCSORG
 10
0.0
 20
0.0
 30
0.0
  9
$UCSXDIR
 10
1.0
 20
0.0
 30
0.0
  9
$UCSYDIR
 10
0.0
 20
1.0
 30
0.0
  9
$UCSORTHOREF
  2

  9
$UCSORTHOVIEW
 70
     0
  9
$UCSORGTOP
 10
0.0
 20
0.0
 30
0.0
  9
$UCSORGBOTTOM
 10
0.0
 20
0.0
 30
0.0
  9
$UCSORGLEFT
 10
0.0
 20
0.0
 30
0.0
  9
$UCSORGRIGHT
 10
0.0
 20
0.0
 30
0.0
  9
$UCSORGFRONT
 10
0.0
 20
0.0
 30
0.0
  9
$UCSORGBACK
 10
0.0
 20
0.0
 30
0.0
  9
$PUCSBASE
  2

  9
$PUCSNAME
  2

  9
$PUCSORG
 10
0.0
 20
0.0
 30
0.0
  9
$PUCSXDIR
 10
1.0
 20
0.0
 30
0.0
  9
$PUCSYDIR
 10
0.0
 20
1.0
 30
0.0
  9
$PUCSORTHOREF
  2

  9
$PUCSORTHOVIEW
 70
     0
  9
$PUCSORGTOP
 10
0.0
 20
0.0
 30
0.0
  9
$PUCSORGBOTTOM
 10
0.0
 20
0.0
 30
0.0
  9
$PUCSORGLEFT
 10
0.0
 20
0.0
 30
0.0
  9
$PUCSORGRIGHT
 10
0.0
 20
0.0
 30
0.0
  9
$PUCSORGFRONT
 10
0.0
 20
0.0
 30
0.0
  9
$PUCSORGBACK
 10
0.0
 20
0.0
 30
0.0
  9
$USERI1
 70
     0
  9
$USERI2
 70
     0
  9
$USERI3
 70
     0
  9
$USERI4
 70
     0
  9
$USERI5
 70
     0
  9
$USERR1
 40
0.0
  9
$USERR2
 40
0.0
  9
$USERR3
 40
0.0
  9
$USERR4
 40
0.0
  9
$USERR5
 40
0.0
  9
$WORLDVIEW
 70
     1
  9
$SHADEDGE
 70
     3
  9
$SHADEDIF
 70
    70
  9
$TILEMODE
 70
     1
  9
$MAXACTVP
 70
    64
  9
$PINSBASE
 10
0.0
 20
0.0
 30
0.0
  9
$PLIMCHECK
 70
     0
  9
$PEXTMIN
 10
1.0000000000E+20
 20
1.0000000000E+20
 30
1.0000000000E+20
  9
$PEXTMAX
 10
-1.0000000000E+20
 20
-1.0000000000E+20
 30
-1.0000000000E+20
  9
$PLIMMIN
 10
0.0
 20
0.0
  9
$PLIMMAX
 10
420.0
 20
297.0
  9
$UNITMODE
 70
     0
  9
$VISRETAIN
 70
     1
  9
$PLINEGEN
 70
     0
  9
$PSLTSCALE
 70
     1
  9
$TREEDEPTH
 70
  3020
  9
$CMLSTYLE
  2
Standard
  9
$CMLJUST
 70
     0
  9
$CMLSCALE
 40
20.0
  9
$PROXYGRAPHICS
 70
     1
  9
$MEASUREMENT
 70
     1
  9
$CELWEIGHT
370
    -1
  9
$ENDCAPS
280
     0
  9
$JOINSTYLE
280
     0
  9
$LWDISPLAY
290
     1
  9
$INSUNITS
 70
     4
  9
$HYPERLINKBASE
  1

  9
$STYLESHEET
  1

  9
$XEDIT
290
     1
  9
$CEPSNTYPE
380
     0
  9
$PSTYLEMODE
290
     1
  9
$FINGERPRINTGUID
  2
{17E2C13F-EBFD-490C-925E-9743D1D7F37A}
  9
$VERSIONGUID
  2
{FAEB1C32-E019-11D5-929B-00C0DF256EC4}
  9
$EXTNAMES
290
     1
  9
$PSVPSCALE
 40
0.0
  9
$OLESTARTUP
290
     0
  0
ENDSEC
  0
SECTION
  2
CLASSES
  0
CLASS
  1
ACDBDICTIONARYWDFLT
  2
AcDbDictionaryWithDefault
  3
ObjectDBX Classes
 90
        0
280
     0
281
     0
  0
CLASS
  1
VISUALSTYLE
  2
AcDbVisualStyle
  3
ObjectDBX Classes
 90
     4095
280
     0
281
     0
  0
CLASS
  1
MATERIAL
  2
AcDbMaterial
  3
ObjectDBX Classes
 90
     1153
280
     0
281
     0
  0
CLASS
  1
SCALE
  2
AcDbScale
  3
ObjectDBX Classes
 90
     1153
280
     0
281
     0
  0
CLASS
  1
SUN
  2
AcDbSun
  3
SCENEOE
 90
     1153
280
     0
281
     0
  0
CLASS
  1
ACDBPLACEHOLDER
  2
AcDbPlaceHolder
  3
ObjectDBX Classes
 90
        0
280
     0
281
     0
  0
CLASS
  1
LAYOUT
  2
AcDbLayout
  3
ObjectDBX Classes
 90
        0
280
     0
281
     0
  0
ENDSEC
  0
SECTION
  2
TABLES
  0
TABLE
  2
VPORT
  5
8
330
0
100
AcDbSymbolTable
 70
     1
  0
VPORT
  5
29
330
8
100
AcDbSymbolTableRecord
100
AcDbViewportTableRecord
  2
*Active
 70
     0
 10
0.0
 20
0.0
 11
1.0
 21
1.0
 12
1485.0
 22
1050.0
 13
0.0
 23
0.0
 14
10.0
 24
10.0
 15
10.0
 25
10.0
 16
0.0
 26
0.0
 36
1.0
 17
0.0
 27
0.0
 37
0.0
 40
2100.0
 41
1.4142857143
 42
50.0
 43
0.0
 44
0.0
 50
0.0
 51
0.0
 71
     0
 72
  2000
 73
     1
 74
     3
 75
     0
 76
     0
 77
     0
 78
     0
281
     0
 65
     1
110
0.0
120
0.0
130
0.0
111
1.0
121
0.0
131
0.0
112
0.0
122
1.0
132
0.0
 79
     0
146
0.0
  0
ENDTAB
  0
TABLE
  2
LTYPE
  5
5
330
0
100
AcDbSymbolTable
 70
     6
  0
LTYPE
  5
14
330
5
100
AcDbSymbolTableRecord
100
AcDbLinetypeTableRecord
  2
ByBlock
 70
     0
  3

 72
    65
 73
     0
 40
0.0
  0
LTYPE
  5
15
330
5
100
AcDbSymbolTableRecord
100
AcDbLinetypeTableRecord
  2
ByLayer
 70
     0
  3

 72
    65
 73
     0
 40
0.0
  0
LTYPE
  5
16
330
5
100
AcDbSymbolTableRecord
100
AcDbLinetypeTableRecord
  2
Continuous
 70
     0
  3
Solid line
 72
    65
 73
     0
 40
0.0
  0
LTYPE
  5
6A
330
5
100
AcDbSymbolTableRecord
100
AcDbLinetypeTableRecord
  2
HIDDEN
 70
     0
  3
Hidden __ __ __ __ __ __ __ __ __ __ __ __ __ __
 72
    65
 73
     2
 40
1.905
 49
1.27
 74
     0
 49
-0.635
 74
     0
  0
LTYPE
  5
6B
330
5
100
AcDbSymbolTableRecord
100
AcDbLinetypeTableRecord
  2
PHANTOM
 70
     0
  3
Phantom ______  __  __  ______  __  __  ______
 72
    65
 73
     6
 40
12.7
 49
6.35
 74
     0
 49
-1.27
 74
     0
 49
1.27
 74
     0
 49
-1.27
 74
     0
 49
1.27
 74
     0
 49
-1.27
 74
     0
  0
LTYPE
  5
6C
330
5
100
AcDbSymbolTableRecord
100
AcDbLinetypeTableRecord
  2
CENTER
 70
     0
  3
Center ____ _ ____ _ ____ _ ____ _ ____ _ ____
 72
    65
 73
     4
 40
10.16
 49
6.35
 74
     0
 49
-1.27
 74
     0
 49
1.27
 74
     0
 49
-1.27
 74
     0
  0
LTYPE
  5
6D
330
5
100
AcDbSymbolTableRecord
100
AcDbLinetypeTableRecord
  2
CENTERX2
 70
     0
  3
Center (2x) ________  __  ________  __  _____
 72
    65
 73
     4
 40
20.32
 49
12.7
 74
     0
 49
-2.54
 74
     0
 49
2.54
 74
     0
 49
-2.54
 74
     0
  0
LTYPE
  5
6E
330
5
100
AcDbSymbolTableRecord
100
AcDbLinetypeTableRecord
  2
DOT2
 70
     0
  3
Dot (.5x) ........................................
 72
    65
 73
     2
 40
0.635
 49
0.0
 74
     0
 49
-0.635
 74
     0
  0
ENDTAB
  0
TABLE
  2
LAYER
  5
2
330
0
100
AcDbSymbolTable
 70
     2
  0
LAYER
  5
10
330
2
100
AcDbSymbolTableRecord
100
AcDbLayerTableRecord
  2
0
 70
     0
 62
     7
  6
Continuous
370
    -3
390
F
  0
LAYER
  5
6F
330
2
100
AcDbSymbolTableRecord
100
AcDbLayerTableRecord
  2
FORMAT
 70
     0
 62
     7
  6
Continuous
370
    -3
390
F
  0
ENDTAB
  0
TABLE
  2
STYLE
  5
3
330
0
100
AcDbSymbolTable
 70
     3
  0
STYLE
  5
11
330
3
100
AcDbSymbolTableRecord
100
AcDbTextStyleTableRecord
  2
Standard
 70
     0
 40
0.0
 41
1.0
 50
0.0
 71
     0
 42
35.0
  3
txt
  4

  0
STYLE
  5
8C
330
3
100
AcDbSymbolTableRecord
100
AcDbTextStyleTableRecord
  2
SLDTEXTSTYLE0
 70
     0
 40
0.0
 41
0.75
 50
0.0
 71
     0
 42
35.0
  3
TXT
  4

  0
STYLE
  5
94
330
3
100
AcDbSymbolTableRecord
100
AcDbTextStyleTableRecord
  2
SLDTEXTSTYLE1
 70
     0
 40
0.0
 41
0.6923076923
 50
0.0
 71
     0
 42
35.0
  3
TXT
  4

  0
ENDTAB
  0
TABLE
  2
VIEW
  5
6
330
0
100
AcDbSymbolTable
 70
     0
  0
ENDTAB
  0
TABLE
  2
UCS
  5
7
330
0
100
AcDbSymbolTable
 70
     0
  0
ENDTAB
  0
TABLE
  2
APPID
  5
9
330
0
100
AcDbSymbolTable
 70
     1
  0
APPID
  5
12
330
9
100
AcDbSymbolTableRecord
100
AcDbRegAppTableRecord
  2
ACAD
 70
     0
  0
ENDTAB
  0
TABLE
  2
DIMSTYLE
  5
A
330
0
100
AcDbSymbolTable
 70
     1
100
AcDbDimStyleTable
  0
DIMSTYLE
105
27
330
A
100
AcDbSymbolTableRecord
100
AcDbDimStyleTableRecord
  2
ISO-25
 70
     0
 41
2.5
 42
0.625
 43
3.75
 44
1.25
 73
     0
 74
     0
 77
     1
 78
     8
140
2.5
141
2.5
143
0.0393700787
147
0.625
171
     3
172
     1
178
     0
271
     2
272
     2
274
     3
278
    44
283
     0
284
     8
340
11
  0
ENDTAB
  0
TABLE
  2
BLOCK_RECORD
  5
1
330
0
100
AcDbSymbolTable
 70
     1
  0
BLOCK_RECORD
  5
1F
330
1
100
AcDbSymbolTableRecord
100
AcDbBlockTableRecord
  2
*Model_Space
340
22
  0
BLOCK_RECORD
  5
1B
330
1
100
AcDbSymbolTableRecord
100
AcDbBlockTableRecord
  2
*Paper_Space
340
1E
  0
BLOCK_RECORD
  5
23
330
1
100
AcDbSymbolTableRecord
100
AcDbBlockTableRecord
  2
*Paper_Space0
340
26
  0
ENDTAB
  0
ENDSEC
  0
SECTION
  2
BLOCKS
  0
BLOCK
  5
20
330
1F
100
AcDbEntity
  8
0
100
AcDbBlockBegin
  2
*Model_Space
 70
     0
 10
0.0
 20
0.0
 30
0.0
  3
*Model_Space
  1
*Model_Space
  0
ENDBLK
  5
21
330
1F
100
AcDbEntity
  8
0
100
AcDbBlockEnd
  0
BLOCK
  5
1C
330
1B
100
AcDbEntity
 67
     1
  8
0
100
AcDbBlockBegin
  2
*Paper_Space
 70
     0
 10
0.0
 20
0.0
 30
0.0
  3
*Paper_Space
  1
*Paper_Space
  0
ENDBLK
  5
1D
330
1B
100
AcDbEntity
 67
     1
  8
0
100
AcDbBlockEnd
  0
BLOCK
  5
24
330
23
100
AcDbEntity
  8
0
100
AcDbBlockBegin
  2
*Paper_Space0
 70
     0
 10
0.0
 20
0.0
 30
0.0
  3
*Paper_Space0
  1
*Paper_Space0
  0
ENDBLK
  5
25
330
23
100
AcDbEntity
  8
0
100
AcDbBlockEnd
  0
ENDSEC
  0
SECTION
  2
ENTITIES
  0
LINE
  5
70
330
1F
100
AcDbEntity
  8
0
  6
Continuous
 62
     7
370
     0
100
AcDbLine
 10
2920.0
 20
2050.0
 30
0.0
 11
2920.0
 21
50.0
 31
0.0
  0
LINE
  5
71
330
1F
100
AcDbEntity
  8
0
  6
Continuous
 62
     7
370
     0
100
AcDbLine
 10
1594.0
 20
347.5
 30
0.0
 11
1741.3
 21
347.5
 31
0.0
  0
LINE
  5
72
330
1F
100
AcDbEntity
  8
0
  6
Continuous
 62
     7
370
     0
100
AcDbLine
 10
2036.0
 20
347.5
 30
0.0
 11
2920.0
 21
347.5
 31
0.0
  0
LINE
  5
73
330
1F
100
AcDbEntity
  8
0
  6
Continuous
 62
     7
370
     0
100
AcDbLine
 10
1594.0
 20
92.5
 30
0.0
 11
2920.0
 21
92.5
 31
0.0
  0
LINE
  5
74
330
1F
100
AcDbEntity
  8
0
  6
Continuous
 62
     7
370
     0
100
AcDbLine
 10
1594.0
 20
347.5
 30
0.0
 11
1594.0
 21
283.75
 31
0.0
  0
LINE
  5
75
330
1F
100
AcDbEntity
  8
0
  6
Continuous
 62
     7
370
     0
100
AcDbLine
 10
2920.0
 20
220.0
 30
0.0
 11
2790.0
 21
220.0
 31
0.0
  0
LINE
  5
76
330
1F
100
AcDbEntity
  8
0
  6
Continuous
 62
     7
370
     0
100
AcDbLine
 10
1888.6
 20
220.0
 30
0.0
 11
2036.0
 21
220.0
 31
0.0
  0
LINE
  5
77
330
1F
100
AcDbEntity
  8
0
  6
Continuous
 62
     7
370
     0
100
AcDbLine
 10
2036.0
 20
347.5
 30
0.0
 11
2036.0
 21
50.0
 31
0.0
  0
LINE
  5
78
330
1F
100
AcDbEntity
  8
0
  6
Continuous
 62
     7
370
     0
100
AcDbLine
 10
2478.0
 20
50.0
 30
0.0
 11
2478.0
 21
92.5
 31
0.0
  0
LINE
  5
79
330
1F
100
AcDbEntity
  8
0
  6
Continuous
 62
     7
370
     0
100
AcDbLine
 10
1741.3
 20
347.5
 30
0.0
 11
1888.6
 21
347.5
 31
0.0
  0
LINE
  5
7A
330
1F
100
AcDbEntity
  8
0
  6
Continuous
 62
     7
370
     0
100
AcDbLine
 10
2790.0
 20
92.5
 30
0.0
 11
2790.0
 21
154.9496936018
 31
0.0
  0
LINE
  5
7B
330
1F
100
AcDbEntity
  8
0
  6
Continuous
 62
     7
370
     0
100
AcDbLine
 10
1888.6
 20
347.5
 30
0.0
 11
2036.0
 21
347.5
 31
0.0
  0
LINE
  5
7C
330
1F
100
AcDbEntity
  8
0
  6
Continuous
 62
     7
370
     0
100
AcDbLine
 10
2920.0
 20
154.9496936018
 30
0.0
 11
2790.0
 21
154.9496936018
 31
0.0
  0
LINE
  5
7D
330
1F
100
AcDbEntity
  8
0
  6
Continuous
 62
     7
370
     0
100
AcDbLine
 10
2036.0
 20
220.0
 30
0.0
 11
2790.0
 21
220.0
 31
0.0
  0
LINE
  5
7E
330
1F
100
AcDbEntity
  8
0
  6
Continuous
 62
     7
370
     0
100
AcDbLine
 10
1888.6
 20
347.5
 30
0.0
 11
1888.6
 21
220.0
 31
0.0
  0
LINE
  5
7F
330
1F
100
AcDbEntity
  8
0
  6
Continuous
 62
     7
370
     0
100
AcDbLine
 10
1888.6
 20
220.0
 30
0.0
 11
1741.3
 21
220.0
 31
0.0
  0
LINE
  5
80
330
1F
100
AcDbEntity
  8
0
  6
Continuous
 62
     7
370
     0
100
AcDbLine
 10
2920.0
 20
2050.0
 30
0.0
 11
50.0
 21
2050.0
 31
0.0
  0
LINE
  5
81
330
1F
100
AcDbEntity
  8
0
  6
Continuous
 62
     7
370
     0
100
AcDbLine
 10
50.0
 20
2050.0
 30
0.0
 11
50.0
 21
50.0
 31
0.0
  0
LINE
  5
82
330
1F
100
AcDbEntity
  8
0
  6
Continuous
 62
     7
370
     0
100
AcDbLine
 10
50.0
 20
50.0
 30
0.0
 11
2920.0
 21
50.0
 31
0.0
  0
LINE
  5
83
330
1F
100
AcDbEntity
  8
0
  6
Continuous
 62
     7
370
     0
100
AcDbLine
 10
1741.3
 20
220.0
 30
0.0
 11
1741.3
 21
347.5
 31
0.0
  0
LINE
  5
84
330
1F
100
AcDbEntity
  8
0
  6
Continuous
 62
     7
370
     0
100
AcDbLine
 10
1741.3
 20
220.0
 30
0.0
 11
1594.0
 21
220.0
 31
0.0
  0
LINE
  5
85
330
1F
100
AcDbEntity
  8
0
  6
Continuous
 62
     7
370
     0
100
AcDbLine
 10
2790.0
 20
154.9496936018
 30
0.0
 11
2790.0
 21
220.0
 31
0.0
  0
LINE
  5
86
330
1F
100
AcDbEntity
  8
0
  6
Continuous
 62
     7
370
     0
100
AcDbLine
 10
1594.0
 20
283.75
 30
0.0
 11
1741.3
 21
283.75
 31
0.0
  0
LINE
  5
87
330
1F
100
AcDbEntity
  8
0
  6
Continuous
 62
     7
370
     0
100
AcDbLine
 10
1741.3
 20
283.75
 30
0.0
 11
1888.6
 21
283.75
 31
0.0
  0
LINE
  5
88
330
1F
100
AcDbEntity
  8
0
  6
Continuous
 62
     7
370
     0
100
AcDbLine
 10
1888.6
 20
283.75
 30
0.0
 11
2036.0
 21
283.75
 31
0.0
  0
LINE
  5
89
330
1F
100
AcDbEntity
  8
0
  6
Continuous
 62
     7
370
     0
100
AcDbLine
 10
1594.0
 20
220.0
 30
0.0
 11
1594.0
 21
283.75
 31
0.0
  0
LINE
  5
8A
330
1F
100
AcDbEntity
  8
0
  6
Continuous
 62
     7
370
     0
100
AcDbLine
 10
1594.0
 20
220.0
 30
0.0
 11
1594.0
 21
92.5
 31
0.0
  0
LINE
  5
8B
330
1F
100
AcDbEntity
  8
0
  6
Continuous
 62
     7
370
     0
100
AcDbLine
 10
1594.0
 20
50.0
 30
0.0
 11
1594.0
 21
92.5
 31
0.0
  0
MTEXT
  5
8D
330
1F
100
AcDbEntity
  8
0
  6
Continuous
 62
     7
370
     0
100
AcDbMText
 10
2802.7693727994
 20
194.3244494768
 30
0.0
 40
15.0
 41
0.0
 71
     1
 72
     1
  1
Blattformat
  7
SLDTEXTSTYLE0
 73
     1
 44
1.0
  0
MTEXT
  5
8E
330
1F
100
AcDbEntity
  8
0
  6
Continuous
 62
     7
370
     0
100
AcDbMText
 10
1623.642408927
 20
258.7493046935
 30
0.0
 40
15.0
 41
0.0
 71
     1
 72
     1
  1
Ch. Höfig
  7
SLDTEXTSTYLE0
 73
     1
 44
1.0
  0
MTEXT
  5
8F
330
1F
100
AcDbEntity
  8
0
  6
Continuous
 62
     7
370
     0
100
AcDbMText
 10
1667.7619782589
 20
322.1696719569
 30
0.0
 40
15.0
 41
0.0
 71
     2
 72
     1
  1
Name
  7
SLDTEXTSTYLE0
 73
     1
 44
1.0
  0
MTEXT
  5
90
330
1F
100
AcDbEntity
  8
0
  6
Continuous
 62
     7
370
     0
100
AcDbMText
 10
1604.4586230876
 20
209.8605628925
 30
0.0
 40
15.0
 41
0.0
 71
     1
 72
     1
  1
Werkstoff:
  7
SLDTEXTSTYLE0
 73
     1
 44
1.0
  0
MTEXT
  5
91
330
1F
100
AcDbEntity
  8
0
  6
Continuous
 62
     7
370
     0
100
AcDbMText
 10
2048.6498590342
 20
322.4610146297
 30
0.0
 40
15.0
 41
0.0
 71
     1
 72
     1
  1
Artikelnummer
  7
SLDTEXTSTYLE0
 73
     1
 44
1.0
  0
MTEXT
  5
92
330
1F
100
AcDbEntity
  8
0
  6
Continuous
 62
     7
370
     0
100
AcDbMText
 10
2048.7396611749
 20
198.6863782703
 30
0.0
 40
15.0
 41
0.0
 71
     1
 72
     1
  1
Hersteller
  7
SLDTEXTSTYLE0
 73
     1
 44
1.0
  0
MTEXT
  5
93
330
1F
100
AcDbEntity
  8
0
  6
Continuous
 62
     7
370
     0
100
AcDbMText
 10
2048.7396611749
 20
79.0008727453
 30
0.0
 40
15.0
 41
0.0
 71
     1
 72
     1
  1
Massstab: 1:10
  7
SLDTEXTSTYLE0
 73
     1
 44
1.0
  0
MTEXT
  5
95
330
1F
100
AcDbEntity
  8
0
  6
Continuous
 62
     7
370
     0
100
AcDbMText
 10
2492.7829442782
 20
79.0008727453
 30
0.0
 40
15.0
 41
0.0
 71
     1
 72
     1
  1
Blatt 1 von 1
  7
SLDTEXTSTYLE1
 73
     1
 44
1.0
  0
MTEXT
  5
96
330
1F
100
AcDbEntity
  8
0
  6
Continuous
 62
     7
370
     0
100
AcDbMText
 10
2830.1820125196
 20
142.1449358799
 30
0.0
 40
29.1041666667
 41
0.0
 71
     1
 72
     1
  1
A4
  7
SLDTEXTSTYLE0
 73
     1
 44
1.0
  0
MTEXT
  5
97
330
1F
100
AcDbEntity
  8
0
  6
Continuous
 62
     7
370
     0
100
AcDbMText
 10
2447.8572108176
 20
182.8771937365
 30
0.0
 40
52.9166666667
 41
0.0
 71
     2
 72
     1
  1
Feldmann GmbH
  7
SLDTEXTSTYLE0
 73
     1
 44
1.0
  0
MTEXT
  5
98
330
1F
100
AcDbEntity
  8
0
  6
Continuous
 62
     7
370
     0
100
AcDbMText
 10
1962.5434899658
 20
322.1696719569
 30
0.0
 40
15.0
 41
0.0
 71
     2
 72
     1
  1
Datum
  7
SLDTEXTSTYLE0
 73
     1
 44
1.0
  0
MTEXT
  5
99
330
1F
100
AcDbEntity
  8
0
  6
Continuous
 62
     7
370
     0
100
AcDbMText
 10
1800.2675095033
 20
258.7493046935
 30
0.0
 40
15.0
 41
0.0
 71
     1
 72
     1
  1
CH
  7
SLDTEXTSTYLE0
 73
     1
 44
1.0
  0
MTEXT
  5
9A
330
1F
100
AcDbEntity
  8
0
  6
Continuous
 62
     7
370
     0
100
AcDbMText
 10
1913.972993064
 20
258.7696708294
 30
0.0
 40
15.0
 41
0.0
 71
     1
 72
     1
  1
05.08.2014
  7
SLDTEXTSTYLE0
 73
     1
 44
1.0
  0
MTEXT
  5
9B
330
1F
100
AcDbEntity
  8
0
  6
Continuous
 62
     7
370
     0
100
AcDbMText
 10
1816.919010631
 20
79.2644690292
 30
0.0
 40
15.0
 41
0.0
 71
     2
 72
     1
  1
Gewicht 1.171 kg
  7
SLDTEXTSTYLE0
 73
     1
 44
1.0
  0
MTEXT
  5
9C
330
1F
100
AcDbEntity
  8
0
  6
Continuous
 62
     7
370
     0
100
AcDbMText
 10
1817.3958841428
 20
156.1538563969
 30
0.0
 40
23.8125
 41
0.0
 71
     2
 72
     1
  1
1.4301 (X5CrNi18-10)
  7
SLDTEXTSTYLE0
 73
     1
 44
1.0
  0
MTEXT
  5
9D
330
1F
100
AcDbEntity
  8
0
  6
Continuous
 62
     7
370
     0
100
AcDbMText
 10
2304.4884013849
 20
294.0728645459
 30
0.0
 40
42.3333333333
 41
0.0
 71
     2
 72
     1
  1
56302-240
  7
SLDTEXTSTYLE0
 73
     1
 44
1.0
  0
MTEXT
  5
9E
330
1F
100
AcDbEntity
  8
0
  6
Continuous
 62
     7
370
     0
100
AcDbMText
 10
1817.5300178247
 20
320.1755564777
 30
0.0
 40
15.0
 41
0.0
 71
     2
 72
     1
  1
Signatur
  7
SLDTEXTSTYLE0
 73
     1
 44
1.0
  0
LINE
  5
9F
330
1F
100
AcDbEntity
  8
0
  6
Continuous
 62
     7
370
    15
100
AcDbLine
 10
1033.3756218093
 20
1426.2852612386
 30
0.0
 11
1035.2230101771
 21
1428.9236052536
 31
0.0
  0
LINE
  5
A0
330
1F
100
AcDbEntity
  8
0
  6
Continuous
 62
     7
370
    15
100
AcDbLine
 10
1025.3931856457
 20
1435.8065224899
 30
0.0
 11
1023.5457972779
 21
1433.1681784748
 31
0.0
  0
LINE
  5
A1
330
1F
100
AcDbEntity
  8
0
  6
Continuous
 62
     7
370
    15
100
AcDbLine
 10
1097.8157426435
 20
1376.2807045126
 30
0.0
 11
1069.7104972623
 21
1336.1422543424
 31
0.0
  0
LINE
  5
A2
330
1F
100
AcDbEntity
  8
0
  6
Continuous
 62
     7
370
    15
100
AcDbLine
 10
1079.5403217937
 20
1329.2593371061
 30
0.0
 11
1107.6455671749
 21
1369.3977872762
 31
0.0
  0
LINE
  5
A3
330
1F
100
AcDbEntity
  8
0
  6
Continuous
 62
     7
370
    15
100
AcDbLine
 10
1106.8663065692
 20
1389.2062493429
 30
0.0
 11
1100.1100483888
 21
1379.5573126896
 31
0.0
  0
LINE
  5
A4
330
1F
100
AcDbEntity
  8
0
  6
Continuous
 62
     7
370
    15
100
AcDbLine
 10
1109.9398729203
 20
1372.6743954533
 30
0.0
 11
1116.6961311007
 21
1382.3233321067
 31
0.0
  0
ARC
  5
A5
330
1F
100
AcDbEntity
  8
0
  6
Continuous
 62
     7
370
    15
100
AcDbCircle
 10
1008.1677183665
 20
1447.8679245283
 30
0.0
 40
21.02841273414751
100
AcDbArc
 50
324.9999999993
 51
0.0
  0
ARC
  5
A6
330
1F
100
AcDbEntity
  8
0
  6
Continuous
 62
     7
370
    15
100
AcDbCircle
 10
1008.1677183665
 20
1447.8679245283
 30
0.0
 40
33.02841273414746
100
AcDbArc
 50
324.9999999993
 51
0.0
  0
LINE
  5
A7
330
1F
100
AcDbEntity
  8
0
  6
Continuous
 62
     7
370
    15
100
AcDbLine
 10
1029.1961311007
 20
1857.8679245283
 30
0.0
 11
1029.1961311007
 21
1447.8679245283
 31
0.0
  0
LINE
  5
A8
330
1F
100
AcDbEntity
  8
0
  6
Continuous
 62
     7
370
    15
100
AcDbLine
 10
1041.1961311007
 20
1447.8679245283
 30
0.0
 11
1041.1961311007
 21
1857.8679245283
 31
0.0
  0
LINE
  5
A9
330
1F
100
AcDbEntity
  8
0
  6
Continuous
 62
     7
370
    15
100
AcDbLine
 10
972.5765195558
 20
1339.4551445456
 30
0.0
 11
1000.6817649374
 21
1379.5935947154
 31
0.0
  0
LINE
  5
AA
330
1F
100
AcDbEntity
  8
0
  6
Continuous
 62
     7
370
    15
100
AcDbLine
 10
990.8519404061
 20
1386.4765119517
 30
0.0
 11
962.7466950244
 21
1346.3380617819
 31
0.0
  0
LINE
  5
AB
330
1F
100
AcDbEntity
  8
0
  6
Continuous
 62
     7
370
    15
100
AcDbLine
 10
1002.9760706829
 20
1382.8702028925
 30
0.0
 11
1031.0813160645
 21
1423.0086530624
 31
0.0
  0
LINE
  5
AC
330
1F
100
AcDbEntity
  8
0
  6
Continuous
 62
     7
370
    15
100
AcDbLine
 10
1021.2514915332
 20
1429.8915702987
 30
0.0
 11
993.1462461515
 21
1389.7531201289
 31
0.0
  0
ARC
  5
AD
330
1F
100
AcDbEntity
  8
0
  6
Continuous
 62
     7
370
    15
100
AcDbCircle
 10
1062.224543842
 20
1267.8679245283
 30
0.0
 40
21.02841274132879
100
AcDbArc
 50
145.0
 51
180.0
  0
ARC
  5
AE
330
1F
100
AcDbEntity
  8
0
  6
Continuous
 62
     7
370
    15
100
AcDbCircle
 10
1062.224543842
 20
1267.8679245283
 30
0.0
 40
33.02841274132863
100
AcDbArc
 50
145.0
 51
180.0
  0
LINE
  5
AF
330
1F
100
AcDbEntity
  8
0
  6
Continuous
 62
     7
370
    15
100
AcDbLine
 10
1041.1961311007
 20
857.8679245283
 30
0.0
 11
1041.1961311007
 21
1267.8679245283
 31
0.0
  0
LINE
  5
B0
330
1F
100
AcDbEntity
  8
0
  6
Continuous
 62
     7
370
    15
100
AcDbLine
 10
1029.1961311007
 20
1267.8679245283
 30
0.0
 11
1029.1961311007
 21
857.8679245283
 31
0.0
  0
LINE
  5
B1
330
1F
100
AcDbEntity
  8
0
  6
Continuous
 62
     7
370
    15
100
AcDbLine
 10
963.5259556321
 20
1326.5295997183
 30
0.0
 11
970.2822138104
 21
1336.1785363684
 31
0.0
  0
LINE
  5
B2
330
1F
100
AcDbEntity
  8
0
  6
Continuous
 62
     7
370
    15
100
AcDbLine
 10
960.452389279
 20
1343.0614536048
 30
0.0
 11
953.6961311007
 21
1333.4125169546
 31
0.0
  0
LINE
  5
B3
330
1F
100
AcDbEntity
  8
0
  6
Continuous
 62
     7
370
    15
100
AcDbLine
 10
1037.0166403903
 20
1289.4505878179
 30
0.0
 11
1035.1692520253
 21
1286.8122438068
 31
0.0
  0
LINE
  5
B4
330
1F
100
AcDbEntity
  8
0
  6
Continuous
 62
     7
370
    15
100
AcDbLine
 10
1044.9990765568
 20
1279.9293265706
 30
0.0
 11
1046.8464649217
 21
1282.5676705816
 31
0.0
  0
LINE
  5
B5
330
1F
100
AcDbEntity
  8
0
  6
Continuous
 62
     7
370
    15
100
AcDbLine
 10
1067.4161915169
 20
1332.8656461652
 30
0.0
 11
1039.3109461357
 21
1292.7271959951
 31
0.0
  0
LINE
  5
B6
330
1F
100
AcDbEntity
  8
0
  6
Continuous
 62
     7
370
    15
100
AcDbLine
 10
1049.1407706671
 20
1285.8442787588
 30
0.0
 11
1077.2460160483
 21
1325.9827289289
 31
0.0
  0
LINE
  5
B7
330
1F
100
AcDbEntity
  8
0
  6
Continuous
 62
     7
370
    15
100
AcDbLine
 10
995.7668526718
 20
1383.0350533336
 30
0.0
 11
987.5753322289
 21
1388.7708176972
 31
0.0
  0
LINE
  5
B8
330
1F
100
AcDbEntity
  8
0
  6
Continuous
 62
     7
370
    15
100
AcDbLine
 10
987.5753322289
 20
1388.7708176972
 30
0.0
 11
989.8696379744
 21
1392.0474258743
 31
0.0
  0
LINE
  5
B9
330
1F
100
AcDbEntity
  8
0
  6
Continuous
 62
     7
370
    15
100
AcDbLine
 10
989.8696379744
 20
1392.0474258743
 30
0.0
 11
998.0611584172
 21
1386.3116615107
 31
0.0
  0
LINE
  5
BA
330
1F
100
AcDbEntity
  8
0
  6
Continuous
 62
     7
370
    15
100
AcDbLine
 10
998.0611584172
 20
1386.3116615107
 30
0.0
 11
995.7668526718
 21
1383.0350533336
 31
0.0
  0
LINE
  5
BB
330
1F
100
AcDbEntity
  8
0
  6
Continuous
 62
     7
370
    15
100
AcDbLine
 10
1041.9260530512
 20
1286.0129800645
 30
0.0
 11
1044.2203587966
 21
1289.2895882417
 31
0.0
  0
LINE
  5
BC
330
1F
100
AcDbEntity
  8
0
  6
Continuous
 62
     7
370
    15
100
AcDbLine
 10
965.3673015447
 20
1339.6199949866
 30
0.0
 11
1041.9260530512
 21
1286.0129800645
 31
0.0
  0
LINE
  5
BD
330
1F
100
AcDbEntity
  8
0
  6
Continuous
 62
     7
370
    15
100
AcDbLine
 10
967.6616072901
 20
1342.8966031637
 30
0.0
 11
965.3673015447
 21
1339.6199949866
 31
0.0
  0
LINE
  5
BE
330
1F
100
AcDbEntity
  8
0
  6
Continuous
 62
     7
370
    15
100
AcDbLine
 10
1044.2203587966
 20
1289.2895882417
 30
0.0
 11
967.6616072901
 21
1342.8966031637
 31
0.0
  0
LINE
  5
BF
330
1F
100
AcDbEntity
  8
0
  6
Continuous
 62
     7
370
    15
100
AcDbLine
 10
1044.2203587966
 20
1289.2895882417
 30
0.0
 11
1052.4118792394
 21
1283.553823878
 31
0.0
  0
LINE
  5
C0
330
1F
100
AcDbEntity
  8
0
  6
Continuous
 62
     7
370
    15
100
AcDbLine
 10
1052.4118792394
 20
1283.553823878
 30
0.0
 11
1050.117573494
 21
1280.2772157009
 31
0.0
  0
LINE
  5
C1
330
1F
100
AcDbEntity
  8
0
  6
Continuous
 62
     7
370
    15
100
AcDbLine
 10
1050.117573494
 20
1280.2772157009
 30
0.0
 11
1041.9260530512
 21
1286.0129800645
 31
0.0
  0
LINE
  5
C2
330
1F
100
AcDbEntity
  8
0
  6
Continuous
 62
     7
370
    15
100
AcDbLine
 10
1102.7306549092
 20
1372.8392458944
 30
0.0
 11
1105.0249606545
 21
1376.1158540715
 31
0.0
  0
LINE
  5
C3
330
1F
100
AcDbEntity
  8
0
  6
Continuous
 62
     7
370
    15
100
AcDbLine
 10
1028.4117622639
 20
1429.7609931109
 30
0.0
 11
1026.1174565192
 21
1426.4843849347
 31
0.0
  0
LINE
  5
C4
330
1F
100
AcDbEntity
  8
0
  6
Continuous
 62
     7
370
    15
100
AcDbLine
 10
1105.0249606545
 20
1376.1158540715
 30
0.0
 11
1028.4117622639
 21
1429.7609931109
 31
0.0
  0
LINE
  5
C5
330
1F
100
AcDbEntity
  8
0
  6
Continuous
 62
     7
370
    15
100
AcDbLine
 10
1026.1174565192
 20
1426.4843849347
 30
0.0
 11
1102.7306549092
 21
1372.8392458944
 31
0.0
  0
LINE
  5
C6
330
1F
100
AcDbEntity
  8
0
  6
Continuous
 62
     7
370
    15
100
AcDbLine
 10
1074.6199099232
 20
1332.704646589
 30
0.0
 11
1082.811430366
 21
1326.9688822254
 31
0.0
  0
LINE
  5
C7
330
1F
100
AcDbEntity
  8
0
  6
Continuous
 62
     7
370
    15
100
AcDbLine
 10
1082.811430366
 20
1326.9688822254
 30
0.0
 11
1080.5171246206
 21
1323.6922740482
 31
0.0
  0
LINE
  5
C8
330
1F
100
AcDbEntity
  8
0
  6
Continuous
 62
     7
370
    15
100
AcDbLine
 10
1080.5171246206
 20
1323.6922740482
 30
0.0
 11
1072.3256041778
 21
1329.4280384118
 31
0.0
  0
LINE
  5
C9
330
1F
100
AcDbEntity
  8
0
  6
Continuous
 62
     7
370
    15
100
AcDbLine
 10
1072.3256041778
 20
1329.4280384118
 30
0.0
 11
1074.6199099232
 21
1332.704646589
 31
0.0
  0
LINE
  5
CA
330
1F
100
AcDbEntity
  8
0
  6
Continuous
 62
     7
370
    15
100
AcDbLine
 10
1017.9259360764
 20
1432.2201492983
 30
0.0
 11
1020.2202418211
 21
1435.4967574744
 31
0.0
  0
LINE
  5
CB
330
1F
100
AcDbEntity
  8
0
  6
Continuous
 62
     7
370
    15
100
AcDbLine
 10
1020.2202418211
 20
1435.4967574744
 30
0.0
 11
1028.4117622639
 21
1429.7609931109
 31
0.0
  0
LINE
  5
CC
330
1F
100
AcDbEntity
  8
0
  6
Continuous
 62
     7
370
    15
100
AcDbLine
 10
1026.1174565192
 20
1426.4843849347
 30
0.0
 11
1017.9259360764
 21
1432.2201492983
 31
0.0
  0
LINE
  5
CD
330
1F
100
AcDbEntity
  8
0
  6
Continuous
 62
     7
370
    15
100
AcDbLine
 10
995.7668526718
 20
1383.0350533336
 30
0.0
 11
1072.3256041778
 21
1329.4280384118
 31
0.0
  0
LINE
  5
CE
330
1F
100
AcDbEntity
  8
0
  6
Continuous
 62
     7
370
    15
100
AcDbLine
 10
1074.6199099232
 20
1332.704646589
 30
0.0
 11
998.0611584172
 21
1386.3116615107
 31
0.0
  0
LINE
  5
CF
330
1F
100
AcDbEntity
  8
0
  6
Continuous
 62
     7
370
    15
100
AcDbLine
 10
965.3673015447
 20
1339.6199949866
 30
0.0
 11
957.1757811018
 21
1345.3557593502
 31
0.0
  0
LINE
  5
D0
330
1F
100
AcDbEntity
  8
0
  6
Continuous
 62
     7
370
    15
100
AcDbLine
 10
957.1757811018
 20
1345.3557593502
 30
0.0
 11
959.4700868473
 21
1348.6323675273
 31
0.0
  0
LINE
  5
D1
330
1F
100
AcDbEntity
  8
0
  6
Continuous
 62
     7
370
    15
100
AcDbLine
 10
959.4700868473
 20
1348.6323675273
 30
0.0
 11
967.6616072901
 21
1342.8966031637
 31
0.0
  0
LINE
  5
D2
330
1F
100
AcDbEntity
  8
0
  6
Continuous
 62
     7
370
    15
100
AcDbLine
 10
1113.2164810974
 20
1370.3800897079
 30
0.0
 11
1110.922175352
 21
1367.1034815308
 31
0.0
  0
LINE
  5
D3
330
1F
100
AcDbEntity
  8
0
  6
Continuous
 62
     7
370
    15
100
AcDbLine
 10
1105.0249606545
 20
1376.1158540715
 30
0.0
 11
1113.2164810974
 21
1370.3800897079
 31
0.0
  0
LINE
  5
D4
330
1F
100
AcDbEntity
  8
0
  6
Continuous
 62
     7
370
    15
100
AcDbLine
 10
1110.922175352
 20
1367.1034815308
 30
0.0
 11
1102.7306549092
 21
1372.8392458944
 31
0.0
  0
LINE
  5
D5
330
1F
100
AcDbEntity
  8
0
  6
Continuous
 62
     7
370
    15
100
AcDbLine
 10
1111.7812188349
 20
1385.7647907248
 30
0.0
 11
1116.6961311007
 21
1382.3233321067
 31
0.0
  0
LINE
  5
D6
330
1F
100
AcDbEntity
  8
0
  6
Continuous
 62
     7
370
    15
100
AcDbLine
 10
1106.8663065692
 20
1389.2062493429
 30
0.0
 11
1111.7812188349
 21
1385.7647907248
 31
0.0
  0
LINE
  5
D7
330
1F
100
AcDbEntity
  8
0
  6
Continuous
 62
     7
370
    15
100
AcDbLine
 10
1035.1961311007
 20
1857.8679245283
 30
0.0
 11
1041.1961311007
 21
1857.8679245283
 31
0.0
  0
LINE
  5
D8
330
1F
100
AcDbEntity
  8
0
  6
Continuous
 62
     7
370
    15
100
AcDbLine
 10
1029.1961311007
 20
1857.8679245283
 30
0.0
 11
1035.1961311007
 21
1857.8679245283
 31
0.0
  0
LINE
  5
D9
330
1F
100
AcDbEntity
  8
0
  6
Continuous
 62
     7
370
    15
100
AcDbLine
 10
1035.1961311007
 20
857.8679245283
 30
0.0
 11
1041.1961311007
 21
857.8679245283
 31
0.0
  0
LINE
  5
DA
330
1F
100
AcDbEntity
  8
0
  6
Continuous
 62
     7
370
    15
100
AcDbLine
 10
1029.1961311007
 20
857.8679245283
 30
0.0
 11
1035.1961311007
 21
857.8679245283
 31
0.0
  0
LINE
  5
DB
330
1F
100
AcDbEntity
  8
0
  6
Continuous
 62
     7
370
    15
100
AcDbLine
 10
958.6110433664
 20
1329.9710583365
 30
0.0
 11
963.5259556321
 21
1326.5295997183
 31
0.0
  0
LINE
  5
DC
330
1F
100
AcDbEntity
  8
0
  6
Continuous
 62
     7
370
    15
100
AcDbLine
 10
953.6961311007
 20
1333.4125169546
 30
0.0
 11
958.6110433664
 21
1329.9710583365
 31
0.0
  0
LINE
  5
DD
330
1F
100
AcDbEntity
  8
0
  6
Continuous
 62
     8
370
    15
100
AcDbLine
 10
1030.3080979114
 20
1432.3650638718
 30
0.0
 11
1035.2230101771
 21
1428.9236052536
 31
0.0
  0
LINE
  5
DE
330
1F
100
AcDbEntity
  8
0
  6
Continuous
 62
     8
370
    15
100
AcDbLine
 10
1025.3931856457
 20
1435.8065224899
 30
0.0
 11
1030.3080979114
 21
1432.3650638718
 31
0.0
  0
LINE
  5
DF
330
1F
100
AcDbEntity
  8
0
  6
Continuous
 62
     8
370
    15
100
AcDbLine
 10
1035.1961311007
 20
1447.8679245283
 30
0.0
 11
1041.1961311007
 21
1447.8679245283
 31
0.0
  0
LINE
  5
E0
330
1F
100
AcDbEntity
  8
0
  6
Continuous
 62
     8
370
    15
100
AcDbLine
 10
1029.1961311007
 20
1447.8679245283
 30
0.0
 11
1035.1961311007
 21
1447.8679245283
 31
0.0
  0
LINE
  5
E1
330
1F
100
AcDbEntity
  8
0
  6
Continuous
 62
     8
370
    15
100
AcDbLine
 10
1040.084164291
 20
1283.3707851887
 30
0.0
 11
1044.9990765568
 21
1279.9293265706
 31
0.0
  0
LINE
  5
E2
330
1F
100
AcDbEntity
  8
0
  6
Continuous
 62
     8
370
    15
100
AcDbLine
 10
1035.1692520253
 20
1286.8122438068
 30
0.0
 11
1040.084164291
 21
1283.3707851887
 31
0.0
  0
LINE
  5
E3
330
1F
100
AcDbEntity
  8
0
  6
Continuous
 62
     8
370
    15
100
AcDbLine
 10
1035.1961311007
 20
1267.8679245283
 30
0.0
 11
1041.1961311007
 21
1267.8679245283
 31
0.0
  0
LINE
  5
E4
330
1F
100
AcDbEntity
  8
0
  6
Continuous
 62
     8
370
    15
100
AcDbLine
 10
1029.1961311007
 20
1267.8679245283
 30
0.0
 11
1035.1961311007
 21
1267.8679245283
 31
0.0
  0
LINE
  5
E5
330
1F
100
AcDbEntity
  8
0
  6
Continuous
 62
     7
370
    15
100
AcDbLine
 10
1030.3080979114
 20
522.1698113208
 30
0.0
 11
1035.1961311007
 21
522.1698113208
 31
0.0
  0
LINE
  5
E6
330
1F
100
AcDbEntity
  8
0
  6
Continuous
 62
     7
370
    15
100
AcDbLine
 10
1035.1961311007
 20
534.1698113208
 30
0.0
 11
1030.3080979114
 21
534.1698113208
 31
0.0
  0
LINE
  5
E7
330
1F
100
AcDbEntity
  8
0
  6
Continuous
 62
     7
370
    15
100
AcDbLine
 10
1028.4607095436
 20
522.1698113208
 30
0.0
 11
1030.3080979114
 21
522.1698113208
 31
0.0
  0
LINE
  5
E8
330
1F
100
AcDbEntity
  8
0
  6
Continuous
 62
     7
370
    15
100
AcDbLine
 10
1030.3080979114
 20
534.1698113208
 30
0.0
 11
1028.4607095436
 21
534.1698113208
 31
0.0
  0
LINE
  5
E9
330
1F
100
AcDbEntity
  8
0
  6
Continuous
 62
     7
370
    15
100
AcDbLine
 10
998.0611584172
 20
522.1698113208
 30
0.0
 11
1019.564240165
 21
522.1698113208
 31
0.0
  0
LINE
  5
EA
330
1F
100
AcDbEntity
  8
0
  6
Continuous
 62
     7
370
    15
100
AcDbLine
 10
1019.564240165
 20
534.1698113208
 30
0.0
 11
998.0611584172
 21
534.1698113208
 31
0.0
  0
LINE
  5
EB
330
1F
100
AcDbEntity
  8
0
  6
Continuous
 62
     7
370
    15
100
AcDbLine
 10
1111.7812188349
 20
534.1698113208
 30
0.0
 11
1105.0249606545
 21
534.1698113208
 31
0.0
  0
LINE
  5
EC
330
1F
100
AcDbEntity
  8
0
  6
Continuous
 62
     7
370
    15
100
AcDbLine
 10
1105.0249606545
 20
522.1698113208
 30
0.0
 11
1111.7812188349
 21
522.1698113208
 31
0.0
  0
LINE
  5
ED
330
1F
100
AcDbEntity
  8
0
  6
Continuous
 62
     7
370
    15
100
AcDbLine
 10
967.6616072901
 20
522.1698113208
 30
0.0
 11
989.2136363175
 21
522.1698113208
 31
0.0
  0
LINE
  5
EE
330
1F
100
AcDbEntity
  8
0
  6
Continuous
 62
     7
370
    15
100
AcDbLine
 10
989.2136363175
 20
534.1698113208
 30
0.0
 11
967.6616072901
 21
534.1698113208
 31
0.0
  0
LINE
  5
EF
330
1F
100
AcDbEntity
  8
0
  6
Continuous
 62
     7
370
    15
100
AcDbLine
 10
958.6110433664
 20
522.1698113208
 30
0.0
 11
958.8140851904
 21
522.1698113208
 31
0.0
  0
LINE
  5
F0
330
1F
100
AcDbEntity
  8
0
  6
Continuous
 62
     7
370
    15
100
AcDbLine
 10
958.8140851904
 20
534.1698113208
 30
0.0
 11
958.6110433664
 21
534.1698113208
 31
0.0
  0
CIRCLE
  5
F1
330
1F
100
AcDbEntity
  8
0
  6
Continuous
 62
     7
370
    15
100
AcDbCircle
 10
1035.1961311007
 20
528.1698113208
 30
0.0
 40
6.0
  0
LWPOLYLINE
  5
F2
330
1F
100
AcDbEntity
  8
0
  6
Continuous
 62
     7
370
    15
100
AcDbPolyline
 90
        8
 70
   128
 43
0.0
 10
1023.5457972779
 20
528.1698113208
 10
1023.7002082846
 20
529.6619506437
 10
1024.1537390933
 20
531.0603333654
 10
1024.8778926954
 20
532.2770939563
 10
1025.8271678567
 20
533.2357788738
 10
1026.9419181276
 20
533.8761504185
 10
1028.152099649
 20
534.1579716913
 10
1028.4607095436
 20
534.1698113208
  0
ARC
  5
F3
330
1F
100
AcDbEntity
  8
0
  6
Continuous
 62
     7
370
    15
100
AcDbCircle
 10
1029.0876976136
 20
527.696440095
 30
0.0
 40
5.562080514343934
100
AcDbArc
 50
175.1178300493
 51
263.52754977
  0
LWPOLYLINE
  5
F4
330
1F
100
AcDbEntity
  8
0
  6
Continuous
 62
     7
370
    15
100
AcDbPolyline
 90
        8
 70
   128
 43
0.0
 10
1100.1100483888
 20
528.1698113208
 10
1100.2644593955
 20
529.6619506437
 10
1100.7179902042
 20
531.0603333654
 10
1101.4421438063
 20
532.2770939563
 10
1102.3914189676
 20
533.2357788738
 10
1103.5061692386
 20
533.8761504185
 10
1104.7163507599
 20
534.1579716913
 10
1105.0249606545
 20
534.1698113208
  0
ARC
  5
F5
330
1F
100
AcDbEntity
  8
0
  6
Continuous
 62
     7
370
    15
100
AcDbCircle
 10
1105.6519487245
 20
527.696440095
 30
0.0
 40
5.562080514344247
100
AcDbArc
 50
175.1178300493
 51
263.52754977
  0
ARC
  5
F6
330
1F
100
AcDbEntity
  8
0
  6
Continuous
 62
     7
370
    15
100
AcDbCircle
 10
1104.7490008044
 20
530.3496245967
 30
0.0
 40
7.825054264261194
100
AcDbArc
 50
29.2223013069
 51
87.9789770821
  0
ARC
  5
F7
330
1F
100
AcDbEntity
  8
0
  6
Continuous
 62
     7
370
    15
100
AcDbCircle
 10
1104.7011131206
 20
526.068452633
 30
0.0
 40
7.905277465379431
100
AcDbArc
 50
272.3478354561
 51
330.4508861549
  0
LINE
  5
F8
330
1F
100
AcDbEntity
  8
0
  6
Continuous
 62
     7
370
    15
100
AcDbLine
 10
1105.0249606545
 20
518.1698113208
 30
0.0
 11
1028.4117622639
 21
518.1698113208
 31
0.0
  0
LWPOLYLINE
  5
F9
330
1F
100
AcDbEntity
  8
0
  6
Continuous
 62
     7
370
    15
100
AcDbPolyline
 90
        9
 70
   128
 43
0.0
 10
1020.2202418211
 20
528.1698113208
 10
1020.3776395894
 20
526.2189081006
 10
1020.8437841866
 20
524.3429769971
 10
1021.6007619371
 20
522.6141089906
 10
1022.6194826105
 20
521.0987435089
 10
1023.8607973427
 20
519.8551151977
 10
1025.2770031046
 20
518.9310159956
 10
1026.8136759029
 20
518.3619585167
 10
1028.4117622639
 20
518.1698113208
  0
LWPOLYLINE
  5
FA
330
1F
100
AcDbEntity
  8
0
  6
Continuous
 62
     7
370
    15
100
AcDbPolyline
 90
        9
 70
   128
 43
0.0
 10
1028.4117622639
 20
538.1698113208
 10
1026.8136759029
 20
537.9776641248
 10
1025.2770031046
 20
537.4086066459
 10
1023.8607973427
 20
536.4845074438
 10
1022.6194826105
 20
535.2408791326
 10
1021.6007619371
 20
533.725513651
 10
1020.8437841866
 20
531.9966456444
 10
1020.3776395894
 20
530.1207145409
 10
1020.2202418211
 20
528.1698113208
  0
LINE
  5
FB
330
1F
100
AcDbEntity
  8
0
  6
Continuous
 62
     7
370
    15
100
AcDbLine
 10
1105.0249606545
 20
538.1698113208
 30
0.0
 11
1028.4117622639
 21
538.1698113208
 31
0.0
  0
LINE
  5
FC
330
1F
100
AcDbEntity
  8
0
  6
Continuous
 62
     7
370
    15
100
AcDbLine
 10
1017.9259360764
 20
528.1698113208
 30
0.0
 11
1020.2202418211
 21
528.1698113208
 31
0.0
  0
LWPOLYLINE
  5
FD
330
1F
100
AcDbEntity
  8
0
  6
Continuous
 62
     7
370
    15
100
AcDbPolyline
 90
        9
 70
   128
 43
0.0
 10
1017.9259360764
 20
528.1698113208
 10
1018.0833338448
 20
530.1207145409
 10
1018.5494784419
 20
531.9966456444
 10
1019.3064561925
 20
533.725513651
 10
1020.3251768659
 20
535.2408791326
 10
1021.566491598
 20
536.4845074438
 10
1022.9826973599
 20
537.4086066459
 10
1024.5193701582
 20
537.9776641248
 10
1026.1174565192
 20
538.1698113208
  0
LINE
  5
FE
330
1F
100
AcDbEntity
  8
0
  6
Continuous
 62
     7
370
    15
100
AcDbLine
 10
1026.1174565192
 20
538.1698113208
 30
0.0
 11
1028.4117622639
 21
538.1698113208
 31
0.0
  0
LWPOLYLINE
  5
FF
330
1F
100
AcDbEntity
  8
0
  6
Continuous
 62
     7
370
    15
100
AcDbPolyline
 90
        9
 70
   128
 43
0.0
 10
1026.1174565192
 20
518.1698113208
 10
1024.5193701582
 20
518.3619585167
 10
1022.9826973599
 20
518.9310159956
 10
1021.566491598
 20
519.8551151977
 10
1020.3251768659
 20
521.0987435089
 10
1019.3064561925
 20
522.6141089906
 10
1018.5494784419
 20
524.3429769971
 10
1018.0833338448
 20
526.2189081006
 10
1017.9259360764
 20
528.1698113208
  0
LINE
  5
100
330
1F
100
AcDbEntity
  8
0
  6
Continuous
 62
     7
370
    15
100
AcDbLine
 10
1028.4117622639
 20
518.1698113208
 30
0.0
 11
1026.1174565192
 21
518.1698113208
 31
0.0
  0
LWPOLYLINE
  5
101
330
1F
100
AcDbEntity
  8
0
  6
Continuous
 62
     7
370
    15
100
AcDbPolyline
 90
        8
 70
   128
 43
0.0
 10
993.1462461515
 20
528.1698113208
 10
993.3006571582
 20
526.6776719978
 10
993.7541879669
 20
525.2792892761
 10
994.478341569
 20
524.0625286852
 10
995.4276167303
 20
523.1038437677
 10
996.5423670012
 20
522.463472223
 10
997.7525485226
 20
522.1816509502
 10
998.0611584172
 20
522.1698113208
  0
ARC
  5
102
330
1F
100
AcDbEntity
  8
0
  6
Continuous
 62
     7
370
    15
100
AcDbCircle
 10
998.6881464872
 20
528.6431825465
 30
0.0
 40
5.562080514331639
100
AcDbArc
 50
96.4724502303
 51
184.8821699508
  0
LINE
  5
103
330
1F
100
AcDbEntity
  8
0
  6
Continuous
 62
     7
370
    15
100
AcDbLine
 10
1026.1174565192
 20
518.1698113208
 30
0.0
 11
998.0611584172
 21
518.1698113208
 31
0.0
  0
LWPOLYLINE
  5
104
330
1F
100
AcDbEntity
  8
0
  6
Continuous
 62
     7
370
    15
100
AcDbPolyline
 90
        9
 70
   128
 43
0.0
 10
989.8696379744
 20
528.1698113208
 10
990.0270357428
 20
526.2189081006
 10
990.4931803399
 20
524.3429769971
 10
991.2501580904
 20
522.6141089906
 10
992.2688787638
 20
521.0987435089
 10
993.510193496
 20
519.8551151977
 10
994.9263992578
 20
518.9310159956
 10
996.4630720562
 20
518.3619585167
 10
998.0611584172
 20
518.1698113208
  0
LWPOLYLINE
  5
105
330
1F
100
AcDbEntity
  8
0
  6
Continuous
 62
     7
370
    15
100
AcDbPolyline
 90
        9
 70
   128
 43
0.0
 10
998.0611584172
 20
538.1698113208
 10
996.4630720562
 20
537.9776641248
 10
994.9263992578
 20
537.4086066459
 10
993.510193496
 20
536.4845074438
 10
992.2688787638
 20
535.2408791326
 10
991.2501580904
 20
533.725513651
 10
990.4931803399
 20
531.9966456444
 10
990.0270357428
 20
530.1207145409
 10
989.8696379744
 20
528.1698113208
  0
LINE
  5
106
330
1F
100
AcDbEntity
  8
0
  6
Continuous
 62
     7
370
    15
100
AcDbLine
 10
1026.1174565192
 20
538.1698113208
 30
0.0
 11
998.0611584172
 21
538.1698113208
 31
0.0
  0
LWPOLYLINE
  5
107
330
1F
100
AcDbEntity
  8
0
  6
Continuous
 62
     7
370
    15
100
AcDbPolyline
 90
        9
 70
   128
 43
0.0
 10
995.7668526718
 20
518.1698113208
 10
994.1687663108
 20
518.3619585167
 10
992.6320935124
 20
518.9310159956
 10
991.2158877506
 20
519.8551151977
 10
989.9745730184
 20
521.0987435089
 10
988.955852345
 20
522.6141089906
 10
988.1988745945
 20
524.3429769971
 10
987.7327299973
 20
526.2189081006
 10
987.5753322289
 20
528.1698113208
  0
LINE
  5
108
330
1F
100
AcDbEntity
  8
0
  6
Continuous
 62
     7
370
    15
100
AcDbLine
 10
987.5753322289
 20
528.1698113208
 30
0.0
 11
989.8696379744
 21
528.1698113208
 31
0.0
  0
LINE
  5
109
330
1F
100
AcDbEntity
  8
0
  6
Continuous
 62
     7
370
    15
100
AcDbLine
 10
998.0611584172
 20
518.1698113208
 30
0.0
 11
995.7668526718
 21
518.1698113208
 31
0.0
  0
LWPOLYLINE
  5
10A
330
1F
100
AcDbEntity
  8
0
  6
Continuous
 62
     7
370
    15
100
AcDbPolyline
 90
        9
 70
   128
 43
0.0
 10
987.5753322289
 20
528.1698113208
 10
987.7327299973
 20
530.1207145409
 10
988.1988745945
 20
531.9966456444
 10
988.955852345
 20
533.725513651
 10
989.9745730184
 20
535.2408791326
 10
991.2158877506
 20
536.4845074438
 10
992.6320935124
 20
537.4086066459
 10
994.1687663108
 20
537.9776641248
 10
995.7668526718
 20
538.1698113208
  0
LINE
  5
10B
330
1F
100
AcDbEntity
  8
0
  6
Continuous
 62
     7
370
    15
100
AcDbLine
 10
995.7668526718
 20
538.1698113208
 30
0.0
 11
998.0611584172
 21
538.1698113208
 31
0.0
  0
LWPOLYLINE
  5
10C
330
1F
100
AcDbEntity
  8
0
  6
Continuous
 62
     7
370
    15
100
AcDbPolyline
 90
       26
 70
   128
 43
0.0
 10
1111.7812188349
 20
522.1698113208
 10
1113.0035078117
 20
522.358312354
 10
1114.1489958768
 20
522.9119712405
 10
1115.1457078023
 20
523.7959995562
 10
1115.9310165123
 20
524.9548505509
 10
1116.4555781723
 20
526.3157093545
 10
1116.686432644
 20
527.7930682036
 10
1116.609074492
 20
529.2940992083
 10
1116.2283644135
 20
530.7244870701
 10
1115.5682238228
 20
531.9943552592
 10
1114.670131781
 20
533.023913287
 10
1113.5905187142
 20
533.7484702361
 10
1112.3972206819
 20
534.1224995286
 10
1111.165216988
 20
534.1224995286
 10
1109.9719189556
 20
533.7484702361
 10
1108.8923058888
 20
533.023913287
 10
1107.9942138471
 20
531.9943552592
 10
1107.3340732564
 20
530.7244870701
 10
1106.9533631778
 20
529.2940992083
 10
1106.8760050258
 20
527.7930682036
 10
1107.1068594976
 20
526.3157093545
 10
1107.6314211576
 20
524.9548505509
 10
1108.4167298675
 20
523.7959995562
 10
1109.413441793
 20
522.9119712405
 10
1110.5589298581
 20
522.358312354
 10
1111.7812188349
 20
522.1698113208
  0
LWPOLYLINE
  5
10D
330
1F
100
AcDbEntity
  8
0
  6
Continuous
 62
     7
370
    15
100
AcDbPolyline
 90
        8
 70
   128
 43
0.0
 10
962.7466950244
 20
528.1698113208
 10
962.9011060311
 20
526.6776719978
 10
963.3546368398
 20
525.2792892761
 10
964.0787904419
 20
524.0625286852
 10
965.0280656032
 20
523.1038437677
 10
966.1428158741
 20
522.463472223
 10
967.3529973955
 20
522.1816509502
 10
967.6616072901
 20
522.1698113208
  0
ARC
  5
10E
330
1F
100
AcDbEntity
  8
0
  6
Continuous
 62
     7
370
    15
100
AcDbCircle
 10
968.2885953601
 20
528.6431825465
 30
0.0
 40
5.562080514331429
100
AcDbArc
 50
96.4724502303
 51
184.8821699508
  0
LINE
  5
10F
330
1F
100
AcDbEntity
  8
0
  6
Continuous
 62
     7
370
    15
100
AcDbLine
 10
995.7668526718
 20
518.1698113208
 30
0.0
 11
967.6616072901
 21
518.1698113208
 31
0.0
  0
LWPOLYLINE
  5
110
330
1F
100
AcDbEntity
  8
0
  6
Continuous
 62
     7
370
    15
100
AcDbPolyline
 90
        9
 70
   128
 43
0.0
 10
959.4700868473
 20
528.1698113208
 10
959.6274846157
 20
526.2189081006
 10
960.0936292128
 20
524.3429769971
 10
960.8506069633
 20
522.6141089906
 10
961.8693276368
 20
521.0987435089
 10
963.1106423689
 20
519.8551151977
 10
964.5268481308
 20
518.9310159956
 10
966.0635209291
 20
518.3619585167
 10
967.6616072901
 20
518.1698113208
  0
LWPOLYLINE
  5
111
330
1F
100
AcDbEntity
  8
0
  6
Continuous
 62
     7
370
    15
100
AcDbPolyline
 90
        9
 70
   128
 43
0.0
 10
967.6616072901
 20
538.1698113208
 10
966.0635209291
 20
537.9776641248
 10
964.5268481308
 20
537.4086066459
 10
963.1106423689
 20
536.4845074438
 10
961.8693276368
 20
535.2408791326
 10
960.8506069633
 20
533.725513651
 10
960.0936292128
 20
531.9966456444
 10
959.6274846157
 20
530.1207145409
 10
959.4700868473
 20
528.1698113208
  0
LINE
  5
112
330
1F
100
AcDbEntity
  8
0
  6
Continuous
 62
     7
370
    15
100
AcDbLine
 10
995.7668526718
 20
538.1698113208
 30
0.0
 11
967.6616072901
 21
538.1698113208
 31
0.0
  0
LWPOLYLINE
  5
113
330
1F
100
AcDbEntity
  8
0
  6
Continuous
 62
     7
370
    15
100
AcDbPolyline
 90
        9
 70
   128
 43
0.0
 10
965.3673015447
 20
518.1698113208
 10
963.7692151837
 20
518.3619585167
 10
962.2325423853
 20
518.9310159956
 10
960.8163366235
 20
519.8551151977
 10
959.5750218913
 20
521.0987435089
 10
958.5563012179
 20
522.6141089906
 10
957.7993234674
 20
524.3429769971
 10
957.3331788702
 20
526.2189081006
 10
957.1757811018
 20
528.1698113208
  0
LINE
  5
114
330
1F
100
AcDbEntity
  8
0
  6
Continuous
 62
     7
370
    15
100
AcDbLine
 10
957.1757811018
 20
528.1698113208
 30
0.0
 11
959.4700868473
 21
528.1698113208
 31
0.0
  0
LINE
  5
115
330
1F
100
AcDbEntity
  8
0
  6
Continuous
 62
     7
370
    15
100
AcDbLine
 10
967.6616072901
 20
518.1698113208
 30
0.0
 11
965.3673015447
 21
518.1698113208
 31
0.0
  0
LWPOLYLINE
  5
116
330
1F
100
AcDbEntity
  8
0
  6
Continuous
 62
     7
370
    15
100
AcDbPolyline
 90
        9
 70
   128
 43
0.0
 10
957.1757811018
 20
528.1698113208
 10
957.3331788702
 20
530.1207145409
 10
957.7993234674
 20
531.9966456444
 10
958.5563012179
 20
533.725513651
 10
959.5750218913
 20
535.2408791326
 10
960.8163366235
 20
536.4845074438
 10
962.2325423853
 20
537.4086066459
 10
963.7692151837
 20
537.9776641248
 10
965.3673015447
 20
538.1698113208
  0
LINE
  5
117
330
1F
100
AcDbEntity
  8
0
  6
Continuous
 62
     7
370
    15
100
AcDbLine
 10
965.3673015447
 20
538.1698113208
 30
0.0
 11
967.6616072901
 21
538.1698113208
 31
0.0
  0
LWPOLYLINE
  5
118
330
1F
100
AcDbEntity
  8
0
  6
Continuous
 62
     7
370
    15
100
AcDbPolyline
 90
       15
 70
   128
 43
0.0
 10
958.6110433664
 20
534.1698113208
 10
957.9950415194
 20
534.1224995286
 10
956.8017434871
 20
533.7484702361
 10
955.7221304203
 20
533.023913287
 10
954.8240383786
 20
531.9943552592
 10
954.1638977879
 20
530.7244870701
 10
953.7831877093
 20
529.2940992083
 10
953.7058295573
 20
527.7930682036
 10
953.9366840291
 20
526.3157093545
 10
954.461245689
 20
524.9548505509
 10
955.246554399
 20
523.7959995562
 10
956.2432663245
 20
522.9119712405
 10
957.3887543896
 20
522.358312354
 10
958.6110433664
 20
522.1698113208
 10
958.6110433664
 20
522.1698113208
  0
LWPOLYLINE
  5
119
330
1F
100
AcDbEntity
  8
0
  6
Continuous
 62
     8
370
    15
100
AcDbPolyline
 90
       14
 70
   128
 43
0.0
 10
1030.3080979114
 20
534.1698113208
 10
1029.6920960645
 20
534.1224995286
 10
1028.4987980321
 20
533.7484702361
 10
1027.4191849653
 20
533.023913287
 10
1026.5210929236
 20
531.9943552592
 10
1025.8609523329
 20
530.7244870701
 10
1025.4802422544
 20
529.2940992083
 10
1025.4028841024
 20
527.7930682036
 10
1025.6337385741
 20
526.3157093545
 10
1026.1583002341
 20
524.9548505509
 10
1026.943608944
 20
523.7959995562
 10
1027.9403208695
 20
522.9119712405
 10
1029.0858089346
 20
522.358312354
 10
1030.3080979114
 20
522.1698113208
  0
LINE
  5
11A
330
1F
100
AcDbEntity
  8
0
  6
Continuous
 62
     7
370
    15
100
AcDbLine
 10
1742.8867924528
 20
1385.7647907248
 30
0.0
 11
1742.8867924528
 21
1376.1158540715
 31
0.0
  0
LINE
  5
11B
330
1F
100
AcDbEntity
  8
0
  6
Continuous
 62
     7
370
    15
100
AcDbLine
 10
1754.8867924528
 20
1376.1158540715
 30
0.0
 11
1754.8867924528
 21
1385.7647907248
 31
0.0
  0
LINE
  5
11C
330
1F
100
AcDbEntity
  8
0
  6
Continuous
 62
     7
370
    15
100
AcDbLine
 10
1742.8867924528
 20
1368.2506344035
 30
0.0
 11
1742.8867924528
 21
1332.7007957242
 31
0.0
  0
LINE
  5
11D
330
1F
100
AcDbEntity
  8
0
  6
Continuous
 62
     7
370
    15
100
AcDbLine
 10
1754.8867924528
 20
1332.7007957242
 30
0.0
 11
1754.8867924528
 21
1368.2506344035
 31
0.0
  0
LINE
  5
11E
330
1F
100
AcDbEntity
  8
0
  6
Continuous
 62
     7
370
    15
100
AcDbLine
 10
1742.8867924528
 20
1324.8394269209
 30
0.0
 11
1742.8867924528
 21
1289.2857373769
 31
0.0
  0
LINE
  5
11F
330
1F
100
AcDbEntity
  8
0
  6
Continuous
 62
     7
370
    15
100
AcDbLine
 10
1754.8867924528
 20
1289.2857373769
 30
0.0
 11
1754.8867924528
 21
1324.8394269209
 31
0.0
  0
LINE
  5
120
330
1F
100
AcDbEntity
  8
0
  6
Continuous
 62
     7
370
    15
100
AcDbLine
 10
1742.8867924528
 20
1281.4243685736
 30
0.0
 11
1742.8867924528
 21
1267.8679245283
 31
0.0
  0
LINE
  5
121
330
1F
100
AcDbEntity
  8
0
  6
Continuous
 62
     7
370
    15
100
AcDbLine
 10
1754.8867924528
 20
1267.8679245283
 30
0.0
 11
1754.8867924528
 21
1281.4243685736
 31
0.0
  0
LINE
  5
122
330
1F
100
AcDbEntity
  8
0
  6
Continuous
 62
     7
370
    15
100
AcDbLine
 10
1742.8867924528
 20
1447.8679245283
 30
0.0
 11
1742.8867924528
 21
1432.3650638718
 31
0.0
  0
LINE
  5
123
330
1F
100
AcDbEntity
  8
0
  6
Continuous
 62
     7
370
    15
100
AcDbLine
 10
1754.8867924528
 20
1432.3650638718
 30
0.0
 11
1754.8867924528
 21
1447.8679245283
 31
0.0
  0
LINE
  5
124
330
1F
100
AcDbEntity
  8
0
  6
Continuous
 62
     7
370
    15
100
AcDbLine
 10
1742.8867924528
 20
1857.8679245283
 30
0.0
 11
1742.8867924528
 21
1447.8679245283
 31
0.0
  0
LINE
  5
125
330
1F
100
AcDbEntity
  8
0
  6
Continuous
 62
     7
370
    15
100
AcDbLine
 10
1754.8867924528
 20
1447.8679245283
 30
0.0
 11
1754.8867924528
 21
1857.8679245283
 31
0.0
  0
LINE
  5
126
330
1F
100
AcDbEntity
  8
0
  6
Continuous
 62
     7
370
    15
100
AcDbLine
 10
1754.8867924528
 20
857.8679245283
 30
0.0
 11
1754.8867924528
 21
1267.8679245283
 31
0.0
  0
LINE
  5
127
330
1F
100
AcDbEntity
  8
0
  6
Continuous
 62
     7
370
    15
100
AcDbLine
 10
1742.8867924528
 20
1267.8679245283
 30
0.0
 11
1742.8867924528
 21
857.8679245283
 31
0.0
  0
LINE
  5
128
330
1F
100
AcDbEntity
  8
0
  6
Continuous
 62
     7
370
    15
100
AcDbLine
 10
1754.8867924528
 20
1429.7267198567
 30
0.0
 11
1754.8867924528
 21
1432.3650638718
 31
0.0
  0
LINE
  5
129
330
1F
100
AcDbEntity
  8
0
  6
Continuous
 62
     7
370
    15
100
AcDbLine
 10
1742.8867924528
 20
1432.3650638718
 30
0.0
 11
1742.8867924528
 21
1429.7267198567
 31
0.0
  0
LWPOLYLINE
  5
12A
330
1F
100
AcDbEntity
  8
0
  6
Continuous
 62
     7
370
    15
100
AcDbPolyline
 90
       26
 70
   128
 43
0.0
 10
1742.8867924528
 20
1385.7647907248
 10
1743.0752934861
 20
1384.9089347694
 10
1743.6289523726
 20
1384.1068553913
 10
1744.5129806883
 20
1383.4089501876
 10
1745.671831683
 20
1382.8590711091
 10
1747.0326904866
 20
1382.4917690805
 10
1748.5100493357
 20
1382.3301230392
 10
1750.0110803403
 20
1382.3842898003
 10
1751.4414682022
 20
1382.6508658672
 10
1752.7113363913
 20
1383.1131012851
 10
1753.7408944191
 20
1383.7419521027
 10
1754.4654513682
 20
1384.4979053104
 10
1754.8394806607
 20
1385.333461588
 10
1754.8394806607
 20
1386.1961198616
 10
1754.4654513682
 20
1387.0316761392
 10
1753.7408944191
 20
1387.7876293469
 10
1752.7113363913
 20
1388.4164801645
 10
1751.4414682022
 20
1388.8787155824
 10
1750.0110803403
 20
1389.1452916493
 10
1748.5100493357
 20
1389.1994584105
 10
1747.0326904866
 20
1389.0378123691
 10
1745.671831683
 20
1388.6705103405
 10
1744.5129806883
 20
1388.120631262
 10
1743.6289523726
 20
1387.4227260584
 10
1743.0752934861
 20
1386.6206466802
 10
1742.8867924528
 20
1385.7647907248
  0
LWPOLYLINE
  5
12B
330
1F
100
AcDbEntity
  8
0
  6
Continuous
 62
     7
370
    15
100
AcDbPolyline
 90
       14
 70
   128
 43
0.0
 10
1754.8867924528
 20
1376.1158540715
 10
1754.7805159572
 20
1375.4709890315
 10
1754.3157547676
 20
1374.6505522591
 10
1753.5098719095
 20
1373.9221857885
 10
1752.4135039666
 20
1373.331655564
 10
1751.0955397689
 20
1372.9160667712
 10
1749.6387918542
 20
1372.7015323825
 10
1748.1347930514
 20
1372.7015323825
 10
1746.6780451367
 20
1372.9160667712
 10
1745.3600809391
 20
1373.331655564
 10
1744.2637129962
 20
1373.9221857885
 10
1743.457830138
 20
1374.6505522591
 10
1742.9930689485
 20
1375.4709890315
 10
1742.8867924528
 20
1376.1158540715
  0
LWPOLYLINE
  5
12C
330
1F
100
AcDbEntity
  8
0
  6
Continuous
 62
     7
370
    15
100
AcDbPolyline
 90
        9
 70
   128
 43
0.0
 10
1738.8867924528
 20
1376.1158540715
 10
1739.0789396488
 20
1374.9968619548
 10
1739.6479971277
 20
1373.9208720776
 10
1740.5720963298
 20
1372.9292341275
 10
1741.815724641
 20
1372.0600561947
 10
1743.3310901226
 20
1371.3467402999
 10
1745.0599581292
 20
1370.8166987727
 10
1746.9358892327
 20
1370.4903008119
 10
1748.8867924528
 20
1370.3800897079
  0
LINE
  5
12D
330
1F
100
AcDbEntity
  8
0
  6
Continuous
 62
     7
370
    15
100
AcDbLine
 10
1748.8867924528
 20
1370.3800897079
 30
0.0
 11
1748.8867924528
 21
1367.1034815308
 31
0.0
  0
LWPOLYLINE
  5
12E
330
1F
100
AcDbEntity
  8
0
  6
Continuous
 62
     7
370
    15
100
AcDbPolyline
 90
        9
 70
   128
 43
0.0
 10
1748.8867924528
 20
1367.1034815308
 10
1746.9358892327
 20
1367.2136926347
 10
1745.0599581292
 20
1367.5400905956
 10
1743.3310901226
 20
1368.0701321227
 10
1741.815724641
 20
1368.7834480176
 10
1740.5720963298
 20
1369.6526259504
 10
1739.6479971277
 20
1370.6442639005
 10
1739.0789396488
 20
1371.7202537777
 10
1738.8867924528
 20
1372.8392458944
  0
LINE
  5
12F
330
1F
100
AcDbEntity
  8
0
  6
Continuous
 62
     7
370
    15
100
AcDbLine
 10
1738.8867924528
 20
1372.8392458944
 30
0.0
 11
1738.8867924528
 21
1376.1158540715
 31
0.0
  0
LWPOLYLINE
  5
130
330
1F
100
AcDbEntity
  8
0
  6
Continuous
 62
     7
370
    15
100
AcDbPolyline
 90
        9
 70
   128
 43
0.0
 10
1748.8867924528
 20
1370.3800897079
 10
1750.837695673
 20
1370.4903008119
 10
1752.7136267765
 20
1370.8166987727
 10
1754.442494783
 20
1371.3467402999
 10
1755.9578602647
 20
1372.0600561947
 10
1757.2014885759
 20
1372.9292341275
 10
1758.1255877779
 20
1373.9208720776
 10
1758.6946452569
 20
1374.9968619548
 10
1758.8867924528
 20
1376.1158540715
  0
LINE
  5
131
330
1F
100
AcDbEntity
  8
0
  6
Continuous
 62
     7
370
    15
100
AcDbLine
 10
1758.8867924528
 20
1376.1158540715
 30
0.0
 11
1758.8867924528
 21
1372.8392458944
 31
0.0
  0
LWPOLYLINE
  5
132
330
1F
100
AcDbEntity
  8
0
  6
Continuous
 62
     7
370
    15
100
AcDbPolyline
 90
        9
 70
   128
 43
0.0
 10
1758.8867924528
 20
1372.8392458944
 10
1758.6946452569
 20
1371.7202537777
 10
1758.1255877779
 20
1370.6442639005
 10
1757.2014885759
 20
1369.6526259504
 10
1755.9578602647
 20
1368.7834480176
 10
1754.442494783
 20
1368.0701321227
 10
1752.7136267765
 20
1367.5400905956
 10
1750.837695673
 20
1367.2136926347
 10
1748.8867924528
 20
1367.1034815308
  0
LWPOLYLINE
  5
133
330
1F
100
AcDbEntity
  8
0
  6
Continuous
 62
     7
370
    15
100
AcDbPolyline
 90
       14
 70
   128
 43
0.0
 10
1754.8867924528
 20
1429.7267198567
 10
1754.7805159572
 20
1429.0818548167
 10
1754.3157547676
 20
1428.2614180443
 10
1753.5098719095
 20
1427.5330515738
 10
1752.4135039666
 20
1426.9425213492
 10
1751.0955397689
 20
1426.5269325564
 10
1749.6387918542
 20
1426.3123981677
 10
1748.1347930514
 20
1426.3123981677
 10
1746.6780451367
 20
1426.5269325564
 10
1745.3600809391
 20
1426.9425213492
 10
1744.2637129962
 20
1427.5330515738
 10
1743.457830138
 20
1428.2614180443
 10
1742.9930689485
 20
1429.0818548167
 10
1742.8867924528
 20
1429.7267198567
  0
LINE
  5
134
330
1F
100
AcDbEntity
  8
0
  6
Continuous
 62
     7
370
    15
100
AcDbLine
 10
1738.8867924528
 20
1376.1158540715
 30
0.0
 11
1738.8867924528
 21
1429.7609931109
 31
0.0
  0
ARC
  5
135
330
1F
100
AcDbEntity
  8
0
  6
Continuous
 62
     7
370
    15
100
AcDbCircle
 10
1744.440830627
 20
1428.9571606232
 30
0.0
 40
5.611905800012054
100
AcDbArc
 50
106.0763518223
 51
171.7647995893
  0
LWPOLYLINE
  5
136
330
1F
100
AcDbEntity
  8
0
  6
Continuous
 62
     7
370
    15
100
AcDbPolyline
 90
        6
 70
   128
 43
0.0
 10
1758.8867924528
 20
1429.7609931109
 10
1758.6946452569
 20
1430.8799852276
 10
1758.1255877779
 20
1431.9559751048
 10
1757.2014885759
 20
1432.9476130549
 10
1755.9578602647
 20
1433.8167909876
 10
1754.8867924528
 20
1434.3496046017
  0
LINE
  5
137
330
1F
100
AcDbEntity
  8
0
  6
Continuous
 62
     7
370
    15
100
AcDbLine
 10
1758.8867924528
 20
1376.1158540715
 30
0.0
 11
1758.8867924528
 21
1429.7609931109
 31
0.0
  0
LWPOLYLINE
  5
138
330
1F
100
AcDbEntity
  8
0
  6
Continuous
 62
     7
370
    15
100
AcDbPolyline
 90
       14
 70
   128
 43
0.0
 10
1754.8867924528
 20
1332.7007957242
 10
1754.7805159572
 20
1332.0559306843
 10
1754.3157547676
 20
1331.2354939118
 10
1753.5098719095
 20
1330.5071274413
 10
1752.4135039666
 20
1329.9165972167
 10
1751.0955397689
 20
1329.5010084239
 10
1749.6387918542
 20
1329.2864740352
 10
1748.1347930514
 20
1329.2864740352
 10
1746.6780451367
 20
1329.5010084239
 10
1745.3600809391
 20
1329.9165972167
 10
1744.2637129962
 20
1330.5071274413
 10
1743.457830138
 20
1331.2354939118
 10
1742.9930689485
 20
1332.0559306843
 10
1742.8867924528
 20
1332.7007957242
  0
LWPOLYLINE
  5
139
330
1F
100
AcDbEntity
  8
0
  6
Continuous
 62
     7
370
    15
100
AcDbPolyline
 90
        9
 70
   128
 43
0.0
 10
1738.8867924528
 20
1332.704646589
 10
1739.0789396488
 20
1331.5856544723
 10
1739.6479971277
 20
1330.5096645951
 10
1740.5720963298
 20
1329.5180266449
 10
1741.815724641
 20
1328.6488487122
 10
1743.3310901226
 20
1327.9355328173
 10
1745.0599581292
 20
1327.4054912901
 10
1746.9358892327
 20
1327.0790933293
 10
1748.8867924528
 20
1326.9688822254
  0
LINE
  5
13A
330
1F
100
AcDbEntity
  8
0
  6
Continuous
 62
     7
370
    15
100
AcDbLine
 10
1748.8867924528
 20
1326.9688822254
 30
0.0
 11
1748.8867924528
 21
1323.6922740482
 31
0.0
  0
LWPOLYLINE
  5
13B
330
1F
100
AcDbEntity
  8
0
  6
Continuous
 62
     7
370
    15
100
AcDbPolyline
 90
        9
 70
   128
 43
0.0
 10
1748.8867924528
 20
1323.6922740482
 10
1746.9358892327
 20
1323.8024851521
 10
1745.0599581292
 20
1324.128883113
 10
1743.3310901226
 20
1324.6589246401
 10
1741.815724641
 20
1325.372240535
 10
1740.5720963298
 20
1326.2414184678
 10
1739.6479971277
 20
1327.2330564179
 10
1739.0789396488
 20
1328.3090462951
 10
1738.8867924528
 20
1329.4280384118
  0
LINE
  5
13C
330
1F
100
AcDbEntity
  8
0
  6
Continuous
 62
     7
370
    15
100
AcDbLine
 10
1738.8867924528
 20
1329.4280384118
 30
0.0
 11
1738.8867924528
 21
1332.704646589
 31
0.0
  0
LWPOLYLINE
  5
13D
330
1F
100
AcDbEntity
  8
0
  6
Continuous
 62
     7
370
    15
100
AcDbPolyline
 90
        9
 70
   128
 43
0.0
 10
1748.8867924528
 20
1326.9688822254
 10
1750.837695673
 20
1327.0790933293
 10
1752.7136267765
 20
1327.4054912901
 10
1754.442494783
 20
1327.9355328173
 10
1755.9578602647
 20
1328.6488487122
 10
1757.2014885759
 20
1329.5180266449
 10
1758.1255877779
 20
1330.5096645951
 10
1758.6946452569
 20
1331.5856544723
 10
1758.8867924528
 20
1332.704646589
  0
LINE
  5
13E
330
1F
100
AcDbEntity
  8
0
  6
Continuous
 62
     7
370
    15
100
AcDbLine
 10
1738.8867924528
 20
1332.704646589
 30
0.0
 11
1738.8867924528
 21
1372.8392458944
 31
0.0
  0
LINE
  5
13F
330
1F
100
AcDbEntity
  8
0
  6
Continuous
 62
     7
370
    15
100
AcDbLine
 10
1758.8867924528
 20
1332.704646589
 30
0.0
 11
1758.8867924528
 21
1372.8392458944
 31
0.0
  0
LINE
  5
140
330
1F
100
AcDbEntity
  8
0
  6
Continuous
 62
     7
370
    15
100
AcDbLine
 10
1758.8867924528
 20
1332.704646589
 30
0.0
 11
1758.8867924528
 21
1329.4280384118
 31
0.0
  0
LWPOLYLINE
  5
141
330
1F
100
AcDbEntity
  8
0
  6
Continuous
 62
     7
370
    15
100
AcDbPolyline
 90
        9
 70
   128
 43
0.0
 10
1758.8867924528
 20
1329.4280384118
 10
1758.6946452569
 20
1328.3090462951
 10
1758.1255877779
 20
1327.2330564179
 10
1757.2014885759
 20
1326.2414184678
 10
1755.9578602647
 20
1325.372240535
 10
1754.442494783
 20
1324.6589246401
 10
1752.7136267765
 20
1324.128883113
 10
1750.837695673
 20
1323.8024851521
 10
1748.8867924528
 20
1323.6922740482
  0
LWPOLYLINE
  5
142
330
1F
100
AcDbEntity
  8
0
  6
Continuous
 62
     7
370
    15
100
AcDbPolyline
 90
       14
 70
   128
 43
0.0
 10
1754.8867924528
 20
1289.2857373769
 10
1754.7805159572
 20
1288.640872337
 10
1754.3157547676
 20
1287.8204355645
 10
1753.5098719095
 20
1287.092069094
 10
1752.4135039666
 20
1286.5015388694
 10
1751.0955397689
 20
1286.0859500766
 10
1749.6387918542
 20
1285.8714156879
 10
1748.1347930514
 20
1285.8714156879
 10
1746.6780451367
 20
1286.0859500766
 10
1745.3600809391
 20
1286.5015388694
 10
1744.2637129962
 20
1287.092069094
 10
1743.457830138
 20
1287.8204355645
 10
1742.9930689485
 20
1288.640872337
 10
1742.8867924528
 20
1289.2857373769
  0
LWPOLYLINE
  5
143
330
1F
100
AcDbEntity
  8
0
  6
Continuous
 62
     7
370
    15
100
AcDbPolyline
 90
        9
 70
   128
 43
0.0
 10
1738.8867924528
 20
1289.2895882417
 10
1739.0789396488
 20
1288.1705961249
 10
1739.6479971277
 20
1287.0946062478
 10
1740.5720963298
 20
1286.1029682976
 10
1741.815724641
 20
1285.2337903649
 10
1743.3310901226
 20
1284.52047447
 10
1745.0599581292
 20
1283.9904329428
 10
1746.9358892327
 20
1283.664034982
 10
1748.8867924528
 20
1283.553823878
  0
LINE
  5
144
330
1F
100
AcDbEntity
  8
0
  6
Continuous
 62
     7
370
    15
100
AcDbLine
 10
1748.8867924528
 20
1283.553823878
 30
0.0
 11
1748.8867924528
 21
1280.2772157009
 31
0.0
  0
LWPOLYLINE
  5
145
330
1F
100
AcDbEntity
  8
0
  6
Continuous
 62
     7
370
    15
100
AcDbPolyline
 90
        9
 70
   128
 43
0.0
 10
1748.8867924528
 20
1280.2772157009
 10
1746.9358892327
 20
1280.3874268048
 10
1745.0599581292
 20
1280.7138247657
 10
1743.3310901226
 20
1281.2438662928
 10
1741.815724641
 20
1281.9571821877
 10
1740.5720963298
 20
1282.8263601205
 10
1739.6479971277
 20
1283.8179980706
 10
1739.0789396488
 20
1284.8939879478
 10
1738.8867924528
 20
1286.0129800645
  0
LINE
  5
146
330
1F
100
AcDbEntity
  8
0
  6
Continuous
 62
     7
370
    15
100
AcDbLine
 10
1738.8867924528
 20
1286.0129800645
 30
0.0
 11
1738.8867924528
 21
1289.2895882417
 31
0.0
  0
LWPOLYLINE
  5
147
330
1F
100
AcDbEntity
  8
0
  6
Continuous
 62
     7
370
    15
100
AcDbPolyline
 90
        9
 70
   128
 43
0.0
 10
1748.8867924528
 20
1283.553823878
 10
1750.837695673
 20
1283.664034982
 10
1752.7136267765
 20
1283.9904329428
 10
1754.442494783
 20
1284.52047447
 10
1755.9578602647
 20
1285.2337903649
 10
1757.2014885759
 20
1286.1029682976
 10
1758.1255877779
 20
1287.0946062478
 10
1758.6946452569
 20
1288.1705961249
 10
1758.8867924528
 20
1289.2895882417
  0
LINE
  5
148
330
1F
100
AcDbEntity
  8
0
  6
Continuous
 62
     7
370
    15
100
AcDbLine
 10
1758.8867924528
 20
1289.2895882417
 30
0.0
 11
1758.8867924528
 21
1286.0129800645
 31
0.0
  0
LWPOLYLINE
  5
149
330
1F
100
AcDbEntity
  8
0
  6
Continuous
 62
     7
370
    15
100
AcDbPolyline
 90
        9
 70
   128
 43
0.0
 10
1758.8867924528
 20
1286.0129800645
 10
1758.6946452569
 20
1284.8939879478
 10
1758.1255877779
 20
1283.8179980706
 10
1757.2014885759
 20
1282.8263601205
 10
1755.9578602647
 20
1281.9571821877
 10
1754.442494783
 20
1281.2438662928
 10
1752.7136267765
 20
1280.7138247657
 10
1750.837695673
 20
1280.3874268048
 10
1748.8867924528
 20
1280.2772157009
  0
LINE
  5
14A
330
1F
100
AcDbEntity
  8
0
  6
Continuous
 62
     7
370
    15
100
AcDbLine
 10
1738.8867924528
 20
1289.2895882417
 30
0.0
 11
1738.8867924528
 21
1329.4280384118
 31
0.0
  0
LINE
  5
14B
330
1F
100
AcDbEntity
  8
0
  6
Continuous
 62
     7
370
    15
100
AcDbLine
 10
1758.8867924528
 20
1289.2895882417
 30
0.0
 11
1758.8867924528
 21
1329.4280384118
 31
0.0
  0
LINE
  5
14C
330
1F
100
AcDbEntity
  8
0
  6
Continuous
 62
     7
370
    15
100
AcDbLine
 10
1742.8867924528
 20
1857.8679245283
 30
0.0
 11
1754.8867924528
 21
1857.8679245283
 31
0.0
  0
LINE
  5
14D
330
1F
100
AcDbEntity
  8
0
  6
Continuous
 62
     7
370
    15
100
AcDbLine
 10
1742.8867924528
 20
857.8679245283
 30
0.0
 11
1754.8867924528
 21
857.8679245283
 31
0.0
  0
ARC
  5
14E
330
1F
100
AcDbEntity
  8
0
  6
Continuous
 62
     8
370
    15
100
AcDbCircle
 10
1748.8867924528
 20
1289.300721496
 30
0.0
 40
9.395920330186307
100
AcDbArc
 50
246.1455806226
 51
293.8544193774
  0
LINE
  5
14F
330
1F
100
AcDbEntity
  8
0
  6
Continuous
 62
     8
370
    15
100
AcDbLine
 10
1742.8867924528
 20
1267.8679245283
 30
0.0
 11
1754.8867924528
 21
1267.8679245283
 31
0.0
  0
LWPOLYLINE
  5
150
330
1F
100
AcDbEntity
  8
0
  6
Continuous
 62
     8
370
    15
100
AcDbPolyline
 90
       14
 70
   128
 43
0.0
 10
1742.8867924528
 20
1432.3650638718
 10
1743.0752934861
 20
1431.5092079163
 10
1743.6289523726
 20
1430.7071285382
 10
1744.5129806883
 20
1430.0092233345
 10
1745.671831683
 20
1429.459344256
 10
1747.0326904866
 20
1429.0920422274
 10
1748.5100493357
 20
1428.9303961861
 10
1750.0110803403
 20
1428.9845629472
 10
1751.4414682022
 20
1429.2511390141
 10
1752.7113363913
 20
1429.713374432
 10
1753.7408944191
 20
1430.3422252496
 10
1754.4654513682
 20
1431.0981784574
 10
1754.8394806607
 20
1431.933734735
 10
1754.8867924528
 20
1432.3650638718
  0
LINE
  5
151
330
1F
100
AcDbEntity
  8
0
  6
Continuous
 62
     8
370
    15
100
AcDbLine
 10
1742.8867924528
 20
1447.8679245283
 30
0.0
 11
1754.8867924528
 21
1447.8679245283
 31
0.0
  0
LINE
  5
152
330
1F
100
AcDbEntity
  8
0
  6
Continuous
 62
     7
370
    15
100
AcDbLine
 10
2361.0
 20
1429.8478012945
 30
0.0
 11
2361.0
 21
1078.4092080066
 31
0.0
  0
LINE
  5
153
330
1F
100
AcDbEntity
  8
0
  6
Continuous
 62
     7
370
    15
100
AcDbLine
 10
2373.0
 20
1078.4092080066
 30
0.0
 11
2373.0
 21
1429.8478012945
 31
0.0
  0
SPLINE
  5
154
330
1F
100
AcDbEntity
  8
0
  6
Continuous
 62
     7
370
    15
100
AcDbSpline
210
0.0
220
0.0
230
1.0
 70
     8
 71
     3
 72
    13
 73
     9
 74
     0
 42
0.000000001
 43
0.00000001
 40
0.0
 40
0.0
 40
0.0
 40
0.0
 40
0.0937431059384433
 40
0.2877026825702598
 40
0.4837729122936453
 40
0.6847580345005252
 40
0.892808467797895
 40
1.0
 40
1.0
 40
1.0
 40
1.0
 10
2361.000000000001
 20
1078.409208006588
 30
0.0
 10
2360.994299742562
 20
1078.09114569637
 30
0.0
 10
2360.976805342948
 20
1077.11499519487
 30
0.0
 10
2360.776023197999
 20
1075.575449863
 30
0.0
 10
2360.323874398899
 20
1073.860724876174
 30
0.0
 10
2359.650796477882
 20
1072.303366066506
 30
0.0
 10
2358.923580740997
 20
1071.137750972746
 30
0.0
 10
2358.394740739679
 20
1070.517701007896
 30
0.0
 10
2358.214919598349
 20
1070.306865798603
 30
0.0
  0
SPLINE
  5
155
330
1F
100
AcDbEntity
  8
0
  6
Continuous
 62
     7
370
    15
100
AcDbSpline
210
0.0
220
0.0
230
1.0
 70
     8
 71
     3
 72
    14
 73
    10
 74
     0
 42
0.000000001
 43
0.00000001
 40
0.0
 40
0.0
 40
0.0
 40
0.0
 40
0.0940595205259411
 40
0.2460659328622049
 40
0.3982829559006268
 40
0.5512226200351329
 40
0.7052364822237212
 40
0.860535185838885
 40
1.0
 40
1.0
 40
1.0
 40
1.0
 10
2367.138950137768
 20
1062.284292711899
 30
0.0
 10
2367.489592498327
 20
1062.692294510067
 30
0.0
 10
2368.40689612766
 20
1063.75965422564
 30
0.0
 10
2369.685841481325
 20
1065.659616315548
 30
0.0
 10
2370.906606812994
 20
1068.000412104789
 30
0.0
 10
2371.85920642507
 20
1070.499971221581
 30
0.0
 10
2372.533769759379
 20
1073.135208788828
 30
0.0
 10
2372.931355086548
 20
1075.780772658339
 30
0.0
 10
2372.977952728108
 20
1077.565011024456
 30
0.0
 10
2373.000000000001
 20
1078.409208006588
 30
0.0
  0
LINE
  5
156
330
1F
100
AcDbEntity
  8
0
  6
Continuous
 62
     7
370
    15
100
AcDbLine
 10
2430.2712241727
 20
1010.7792758497
 30
0.0
 11
2424.2958670032
 21
1004.1324969061
 31
0.0
  0
LINE
  5
157
330
1F
100
AcDbEntity
  8
0
  6
Continuous
 62
     7
370
    15
100
AcDbLine
 10
2433.2198975427
 20
996.1099238196
 30
0.0
 11
2439.1952547122
 21
1002.7567027631
 31
0.0
  0
LINE
  5
158
330
1F
100
AcDbEntity
  8
0
  6
Continuous
 62
     7
370
    15
100
AcDbLine
 10
2353.5630891404
 20
1071.204746937
 30
0.0
 11
2351.5339635631
 21
1068.9476184042
 31
0.0
  0
LINE
  5
159
330
1F
100
AcDbEntity
  8
0
  6
Continuous
 62
     7
370
    15
100
AcDbLine
 10
2365.5050863876
 20
1060.4668396521
 30
0.0
 11
2367.1389501378
 21
1062.2842927119
 31
0.0
  0
LINE
  5
15A
330
1F
100
AcDbEntity
  8
0
  6
Continuous
 62
     7
370
    15
100
AcDbLine
 10
2358.2149195983
 20
1070.3068657986
 30
0.0
 11
2356.5810558481
 21
1068.4894127387
 31
0.0
  0
LINE
  5
15B
330
1F
100
AcDbEntity
  8
0
  6
Continuous
 62
     7
370
    15
100
AcDbLine
 10
2418.0194789389
 20
997.1508616926
 30
0.0
 11
2397.4099530961
 21
974.2255438374
 31
0.0
  0
LINE
  5
15C
330
1F
100
AcDbEntity
  8
0
  6
Continuous
 62
     7
370
    15
100
AcDbLine
 10
2406.3339836355
 20
966.2029707507
 30
0.0
 11
2427.7071261459
 21
989.9777091583
 31
0.0
  0
LINE
  5
15D
330
1F
100
AcDbEntity
  8
0
  6
Continuous
 62
     7
370
    15
100
AcDbLine
 10
2434.1654488113
 20
991.1786042572
 30
0.0
 11
2436.1945743892
 21
993.4357327907
 31
0.0
  0
LINE
  5
15E
330
1F
100
AcDbEntity
  8
0
  6
Continuous
 62
     7
370
    15
100
AcDbLine
 10
2338.6191724805
 20
1030.5598865843
 30
0.0
 11
2359.0062187473
 21
1053.2377259167
 31
0.0
  0
LINE
  5
15F
330
1F
100
AcDbEntity
  8
0
  6
Continuous
 62
     7
370
    15
100
AcDbLine
 10
2351.0500446283
 20
1062.3369087346
 30
0.0
 11
2329.695141941
 21
1038.582459671
 31
0.0
  0
LINE
  5
160
330
1F
100
AcDbEntity
  8
0
  6
Continuous
 62
     7
370
    15
100
AcDbLine
 10
2326.7204650946
 20
1041.2566506999
 30
0.0
 11
2324.6913395166
 21
1038.9995221664
 31
0.0
  0
LINE
  5
161
330
1F
100
AcDbEntity
  8
0
  6
Continuous
 62
     7
370
    15
100
AcDbLine
 10
2391.1335650316
 20
967.2439086238
 30
0.0
 11
2370.5240391888
 21
944.3185907685
 31
0.0
  0
LINE
  5
162
330
1F
100
AcDbEntity
  8
0
  6
Continuous
 62
     7
370
    15
100
AcDbLine
 10
2379.4480697283
 20
936.2960176819
 30
0.0
 11
2400.8235291939
 21
960.0733333896
 31
0.0
  0
LINE
  5
163
330
1F
100
AcDbEntity
  8
0
  6
Continuous
 62
     7
370
    15
100
AcDbLine
 10
2407.274670954
 20
961.2762739411
 30
0.0
 11
2409.3037965319
 21
963.5334024746
 31
0.0
  0
LINE
  5
164
330
1F
100
AcDbEntity
  8
0
  6
Continuous
 62
     7
370
    15
100
AcDbLine
 10
2311.7332585728
 20
1000.6529335158
 30
0.0
 11
2332.1203048396
 21
1023.3307728483
 31
0.0
  0
LINE
  5
165
330
1F
100
AcDbEntity
  8
0
  6
Continuous
 62
     7
370
    15
100
AcDbLine
 10
2324.1823705441
 20
1032.4502450097
 30
0.0
 11
2302.8092280334
 21
1008.6755066025
 31
0.0
  0
LINE
  5
166
330
1F
100
AcDbEntity
  8
0
  6
Continuous
 62
     7
370
    15
100
AcDbLine
 10
2299.8345511869
 20
1011.3496976314
 30
0.0
 11
2297.805425609
 21
1009.0925690979
 31
0.0
  0
SPLINE
  5
167
330
1F
100
AcDbEntity
  8
0
  6
Continuous
 62
     7
370
    15
100
AcDbSpline
210
0.0
220
0.0
230
1.0
 70
     8
 71
     3
 72
    11
 73
     7
 74
     0
 42
0.000000001
 43
0.00000001
 40
0.0
 40
0.0
 40
0.0
 40
0.0
 40
0.1375978574507743
 40
0.42229529635973
 40
0.7100907907485414
 40
1.0
 40
1.0
 40
1.0
 40
1.0
 10
2373.000000000001
 20
924.1190938802038
 30
0.0
 10
2373.005644218953
 20
924.4372156164991
 30
0.0
 10
2373.02296663341
 20
925.4135484998463
 30
0.0
 10
2373.22612223699
 20
926.9505768983155
 30
0.0
 10
2373.665489699348
 20
928.6659550846172
 30
0.0
 10
2374.127348960426
 20
929.6532495409679
 30
0.0
 10
2374.359123519852
 20
930.1487029332208
 30
0.0
  0
SPLINE
  5
168
330
1F
100
AcDbEntity
  8
0
  6
Continuous
 62
     7
370
    15
100
AcDbSpline
210
0.0
220
0.0
230
1.0
 70
     8
 71
     3
 72
    13
 73
     9
 74
     0
 42
0.000000001
 43
0.00000001
 40
0.0
 40
0.0
 40
0.0
 40
0.0
 40
0.0216605264082999
 40
0.2191843267852754
 40
0.4176458594390624
 40
0.6175013208251401
 40
0.8190240514583166
 40
1.0
 40
1.0
 40
1.0
 40
1.0
 10
2364.51753261984
 20
937.0804571554005
 30
0.0
 10
2364.463243826479
 20
937.0016312759158
 30
0.0
 10
2363.913891867043
 20
936.2039868880364
 30
0.0
 10
2363.110199535754
 20
934.5157409216379
 30
0.0
 10
2362.1362476742
 20
932.0316167787183
 30
0.0
 10
2361.467461777111
 20
929.3922028551698
 30
0.0
 10
2361.068372421983
 20
926.7477262066382
 30
0.0
 10
2361.021959753491
 20
924.9633541276821
 30
0.0
 10
2361.000000000001
 20
924.1190938802038
 30
0.0
  0
LINE
  5
169
330
1F
100
AcDbEntity
  8
0
  6
Continuous
 62
     7
370
    15
100
AcDbLine
 10
2380.3887570468
 20
931.3693208723
 30
0.0
 11
2382.4178826247
 21
933.6264494058
 31
0.0
  0
LINE
  5
16A
330
1F
100
AcDbEntity
  8
0
  6
Continuous
 62
     7
370
    15
100
AcDbLine
 10
2303.7287758272
 20
991.749026041
 30
0.0
 11
2305.2343909319
 21
993.4238197799
 31
0.0
  0
LINE
  5
16B
330
1F
100
AcDbEntity
  8
0
  6
Continuous
 62
     7
370
    15
100
AcDbLine
 10
2297.2964566365
 20
1002.5432919413
 30
0.0
 11
2294.8047452878
 21
999.7715991277
 31
0.0
  0
LINE
  5
16C
330
1F
100
AcDbEntity
  8
0
  6
Continuous
 62
     7
370
    15
100
AcDbLine
 10
2373.0
 20
572.6805005923
 30
0.0
 11
2373.0
 21
924.1190938802
 31
0.0
  0
LINE
  5
16D
330
1F
100
AcDbEntity
  8
0
  6
Continuous
 62
     7
370
    15
100
AcDbLine
 10
2361.0
 20
924.1190938802
 30
0.0
 11
2361.0
 21
572.6805005923
 31
0.0
  0
LWPOLYLINE
  5
16E
330
1F
100
AcDbEntity
  8
0
  6
Continuous
 62
     7
370
    15
100
AcDbPolyline
 90
       26
 70
   128
 43
0.0
 10
2364.1998276664
 20
1427.1147472536
 10
2365.6074752868
 20
1426.8419517687
 10
2367.1026203562
 20
1426.7580248642
 10
2368.5913174112
 20
1426.8682399762
 10
2369.9800261408
 20
1427.1656718839
 10
2371.1814888683
 20
1427.6316318467
 10
2372.1202132716
 20
1428.2368418864
 10
2372.7372158444
 20
1428.9432744303
 10
2372.9937280456
 20
1429.7065417238
 10
2372.8736322703
 20
1430.4786848756
 10
2372.3844745777
 20
1431.2111872917
 10
2371.5569905448
 20
1431.8580231515
 10
2370.4431740364
 20
1432.3785493789
 10
2369.1130102403
 20
1432.7400593968
 10
2367.6500782396
 20
1432.9198382011
 10
2366.1462994324
 20
1432.9065896283
 10
2364.6961617714
 20
1432.7011461352
 10
2363.3907827393
 20
1432.3164164918
 10
2362.3121841015
 20
1431.7765746766
 10
2361.5281381772
 20
1431.1155409363
 10
2361.0879094552
 20
1430.3748504519
 10
2361.0191591254
 20
1429.6010435306
 10
2361.3262070237
 20
1428.8427413071
 10
2361.9897602014
 20
1428.1475906989
 10
2362.9681251721
 20
1427.5592705754
 10
2364.1998276664
 20
1427.1147472536
  0
LWPOLYLINE
  5
16F
330
1F
100
AcDbEntity
  8
0
  6
Continuous
 62
     7
370
    15
100
AcDbPolyline
 90
       14
 70
   128
 43
0.0
 10
2365.5050863876
 20
1060.4668396521
 10
2365.0046778272
 20
1060.0368770178
 10
2364.0538462016
 20
1059.6308520365
 10
2362.9138365047
 20
1059.5293991176
 10
2361.6562797384
 20
1059.7388929212
 10
2360.3601928192
 20
1060.2461701811
 10
2359.1070136549
 20
1061.0193568014
 10
2357.9754841014
 20
1062.0098706232
 10
2357.0367023219
 20
1063.1554740202
 10
2356.3496554282
 20
1064.3841845178
 10
2355.9575131035
 20
1065.6187977164
 10
2355.8849150922
 20
1066.7817383283
 10
2356.1364229944
 20
1067.7999345178
 10
2356.5810558481
 20
1068.4894127387
  0
LWPOLYLINE
  5
170
330
1F
100
AcDbEntity
  8
0
  6
Continuous
 62
     7
370
    15
100
AcDbPolyline
 90
       14
 70
   128
 43
0.0
 10
2433.2198975427
 20
996.1099238196
 10
2432.7194889823
 20
995.6799611852
 10
2431.7686573568
 20
995.273936204
 10
2430.6286476599
 20
995.1724832851
 10
2429.3710908935
 20
995.3819770887
 10
2428.0750039743
 20
995.8892543486
 10
2426.8218248101
 20
996.6624409689
 10
2425.6902952565
 20
997.6529547907
 10
2424.751513477
 20
998.7985581877
 10
2424.0644665834
 20
1000.0272686852
 10
2423.6723242587
 20
1001.2618818839
 10
2423.5997262474
 20
1002.4248224958
 10
2423.8512341495
 20
1003.4430186852
 10
2424.2958670032
 20
1004.1324969061
  0
ARC
  5
171
330
1F
100
AcDbEntity
  8
0
  6
Continuous
 62
     7
370
    15
100
AcDbCircle
 10
2431.2204075562
 20
997.1434173276
 30
0.0
 40
6.175712661514748
100
AcDbArc
 50
320.7467358037
 51
27.3950989094
  0
LWPOLYLINE
  5
172
330
1F
100
AcDbEntity
  8
0
  6
Continuous
 62
     7
370
    15
100
AcDbPolyline
 90
        9
 70
   128
 43
0.0
 10
2424.0909283837
 20
995.5661202948
 10
2425.5939791317
 20
994.3103561631
 10
2427.2186169031
 20
993.2778998995
 10
2428.9024077795
 20
992.5084282193
 10
2430.5806446216
 20
992.0315114875
 10
2432.188833729
 20
991.8654773467
 10
2433.665173296
 20
992.0167063959
 10
2434.952928421
 20
992.4793869875
 10
2436.0026113967
 20
993.2357385658
  0
LINE
  5
173
330
1F
100
AcDbEntity
  8
0
  6
Continuous
 62
     7
370
    15
100
AcDbLine
 10
2424.0909283837
 20
995.5661202948
 30
0.0
 11
2356.3328273674
 21
1059.9641792968
 31
0.0
  0
LWPOLYLINE
  5
174
330
1F
100
AcDbEntity
  8
0
  6
Continuous
 62
     7
370
    15
100
AcDbPolyline
 90
        9
 70
   128
 43
0.0
 10
2353.7550521329
 20
1071.4047411619
 10
2352.9837800344
 20
1070.3837847638
 10
2352.5205583676
 20
1069.1374583278
 10
2352.3831884811
 20
1067.7136574799
 10
2352.5769494228
 20
1066.1670980881
 10
2353.0943950682
 20
1064.5572135627
 10
2353.9156402715
 20
1062.945870863
 10
2355.00912504
 20
1061.3949929853
 10
2356.3328273674
 20
1059.9641792968
  0
ARC
  5
175
330
1F
100
AcDbEntity
  8
0
  6
Continuous
 62
     7
370
    15
100
AcDbCircle
 10
2357.7201115507
 20
1066.5105855903
 30
0.0
 40
6.298766144672375
100
AcDbArc
 50
71.903675187
 51
129.0130806906
  0
LINE
  5
176
330
1F
100
AcDbEntity
  8
0
  6
Continuous
 62
     7
370
    15
100
AcDbLine
 10
2428.7656090661
 20
1009.1044821087
 30
0.0
 11
2369.4824673791
 21
1065.4478447314
 31
0.0
  0
LINE
  5
177
330
1F
100
AcDbEntity
  8
0
  6
Continuous
 62
     7
370
    15
100
AcDbLine
 10
2422.0618028058
 20
993.3089917614
 30
0.0
 11
2424.0909283837
 21
995.5661202948
 31
0.0
  0
LINE
  5
178
330
1F
100
AcDbEntity
  8
0
  6
Continuous
 62
     7
370
    15
100
AcDbLine
 10
2356.3328273674
 20
1059.9641792968
 30
0.0
 11
2354.3037017901
 21
1057.707050764
 31
0.0
  0
LINE
  5
179
330
1F
100
AcDbEntity
  8
0
  6
Continuous
 62
     7
370
    15
100
AcDbLine
 10
2354.3037017901
 20
1057.707050764
 30
0.0
 11
2422.0618028058
 21
993.3089917614
 31
0.0
  0
LWPOLYLINE
  5
17A
330
1F
100
AcDbEntity
  8
0
  6
Continuous
 62
     7
370
    15
100
AcDbPolyline
 90
       26
 70
   128
 43
0.0
 10
2431.9330671089
 20
1004.0349352656
 10
2433.1020541929
 20
1003.0933908615
 10
2434.3735346452
 20
1002.3827349918
 10
2435.6676166728
 20
1001.9476207787
 10
2436.9029883427
 20
1001.8153880481
 10
2438.0020267094
 20
1001.9943454691
 10
2438.8956751503
 20
1002.4732484885
 10
2439.5277824473
 20
1003.2220058686
 10
2439.8586309743
 20
1004.1935704292
 10
2439.8674323014
 20
1005.3268951959
 10
2439.553633409
 20
1006.5507692056
 10
2438.9369514354
 20
1007.7882919531
 10
2438.0561347772
 20
1008.9617053329
 10
2436.9665283844
 20
1009.9972794668
 10
2435.7365962338
 20
1010.8299454234
 10
2434.443619486
 20
1011.4073837384
 10
2433.1688406252
 20
1011.6933118387
 10
2431.9923586955
 20
1011.6697638103
 10
2430.9880963834
 20
1011.3382192623
 10
2430.2191551834
 20
1010.7195103581
 10
2429.733850499
 20
1009.8525128535
 10
2429.5626758084
 20
1008.7917033903
 10
2429.7163866469
 20
1007.6037365286
 10
2430.1853247973
 20
1006.3632565952
 10
2430.9400251509
 20
1005.1482075066
 10
2431.9330671089
 20
1004.0349352656
  0
LINE
  5
17B
330
1F
100
AcDbEntity
  8
0
  6
Continuous
 62
     7
370
    15
100
AcDbLine
 10
2436.0026113967
 20
993.2357385658
 30
0.0
 11
2433.9734858188
 21
990.9786100324
 31
0.0
  0
LWPOLYLINE
  5
17C
330
1F
100
AcDbEntity
  8
0
  6
Continuous
 62
     7
370
    15
100
AcDbPolyline
 90
        9
 70
   128
 43
0.0
 10
2433.9734858188
 20
990.9786100324
 10
2432.9238028431
 20
990.222258454
 10
2431.6360477181
 20
989.7595778625
 10
2430.1597081511
 20
989.6083488133
 10
2428.5515190438
 20
989.774382954
 10
2426.8732822016
 20
990.2512996858
 10
2425.1894913252
 20
991.0207713661
 10
2423.5648535538
 20
992.0532276297
 10
2422.0618028058
 20
993.3089917614
  0
LWPOLYLINE
  5
17D
330
1F
100
AcDbEntity
  8
0
  6
Continuous
 62
     7
370
    15
100
AcDbPolyline
 90
        9
 70
   128
 43
0.0
 10
2354.3037017901
 20
1057.707050764
 10
2352.9799994627
 20
1059.1378644525
 10
2351.8865146942
 20
1060.6887423302
 10
2351.065269491
 20
1062.3000850299
 10
2350.5478238455
 20
1063.9099695554
 10
2350.3540629038
 20
1065.4565289471
 10
2350.4914327903
 20
1066.880329795
 10
2350.9546544572
 20
1068.126656231
 10
2351.5339635631
 20
1068.9476184042
  0
LWPOLYLINE
  5
17E
330
1F
100
AcDbEntity
  8
0
  6
Continuous
 62
     7
370
    15
100
AcDbPolyline
 90
       14
 70
   128
 43
0.0
 10
2329.695141941
 20
1038.582459671
 10
2329.2505090874
 20
1037.89298145
 10
2328.9990011852
 20
1036.8747852605
 10
2329.0715991965
 20
1035.7118446486
 10
2329.4637415212
 20
1034.47723145
 10
2330.1507884148
 20
1033.2485209524
 10
2331.0895701943
 20
1032.1029175554
 10
2332.2210997478
 20
1031.1124037336
 10
2333.4742789121
 20
1030.3392171133
 10
2334.7703658313
 20
1029.8319398534
 10
2336.0279225976
 20
1029.6224460498
 10
2337.1679322945
 20
1029.7238989687
 10
2338.1187639201
 20
1030.1299239499
 10
2338.6191724805
 20
1030.5598865843
  0
ARC
  5
17F
330
1F
100
AcDbEntity
  8
0
  6
Continuous
 62
     7
370
    15
100
AcDbCircle
 10
2404.3317004047
 20
967.2402307097
 30
0.0
 40
6.173567406177778
100
AcDbArc
 50
320.7407296734
 51
27.34200998
  0
LWPOLYLINE
  5
180
330
1F
100
AcDbEntity
  8
0
  6
Continuous
 62
     7
370
    15
100
AcDbPolyline
 90
        9
 70
   128
 43
0.0
 10
2397.2001505264
 20
965.6637899788
 10
2398.7032012744
 20
964.408025847
 10
2400.3278390458
 20
963.3755695835
 10
2402.0116299221
 20
962.6060979032
 10
2403.6898667643
 20
962.1291811714
 10
2405.2980558716
 20
961.9631470307
 10
2406.7743954386
 20
962.1143760798
 10
2408.0621505636
 20
962.5770566714
 10
2409.1118335394
 20
963.3334082497
  0
LINE
  5
181
330
1F
100
AcDbEntity
  8
0
  6
Continuous
 62
     7
370
    15
100
AcDbLine
 10
2397.2001505264
 20
965.6637899788
 30
0.0
 11
2329.4902033214
 21
1030.0160830596
 31
0.0
  0
LWPOLYLINE
  5
182
330
1F
100
AcDbEntity
  8
0
  6
Continuous
 62
     7
370
    15
100
AcDbPolyline
 90
        9
 70
   128
 43
0.0
 10
2326.912428087
 20
1041.4566449247
 10
2326.1411559886
 20
1040.4356885266
 10
2325.6779343217
 20
1039.1893620906
 10
2325.5405644352
 20
1037.7655612427
 10
2325.7343253769
 20
1036.219001851
 10
2326.2517710223
 20
1034.6091173255
 10
2327.0730162256
 20
1032.9977746258
 10
2328.1665009941
 20
1031.4468967481
 10
2329.4902033214
 20
1030.0160830596
  0
ARC
  5
183
330
1F
100
AcDbEntity
  8
0
  6
Continuous
 62
     7
370
    15
100
AcDbCircle
 10
2330.9234147612
 20
1036.4613929286
 30
0.0
 40
6.406290393442013
100
AcDbArc
 50
69.3868788036
 51
128.7630648786
  0
LINE
  5
184
330
1F
100
AcDbEntity
  8
0
  6
Continuous
 62
     7
370
    15
100
AcDbLine
 10
2401.8796951589
 20
979.19752904
 30
0.0
 11
2342.8664349671
 21
1035.2843932643
 31
0.0
  0
LWPOLYLINE
  5
185
330
1F
100
AcDbEntity
  8
0
  6
Continuous
 62
     7
370
    15
100
AcDbPolyline
 90
       14
 70
   128
 43
0.0
 10
2406.3339836355
 20
966.2029707507
 10
2405.8335750751
 20
965.7730081164
 10
2404.8827434496
 20
965.3669831351
 10
2403.7427337527
 20
965.2655302163
 10
2402.4851769863
 20
965.4750240199
 10
2401.1890900671
 20
965.9823012798
 10
2399.9359109029
 20
966.7554879001
 10
2398.8043813494
 20
967.7460017219
 10
2397.8655995699
 20
968.8916051189
 10
2397.1785526762
 20
970.1203156165
 10
2396.7864103515
 20
971.3549288151
 10
2396.7138123402
 20
972.517869427
 10
2396.9653202424
 20
973.5360656165
 10
2397.4099530961
 20
974.2255438374
  0
LINE
  5
186
330
1F
100
AcDbEntity
  8
0
  6
Continuous
 62
     7
370
    15
100
AcDbLine
 10
2434.1654488113
 20
991.1786042572
 30
0.0
 11
2433.9734858188
 21
990.9786100324
 31
0.0
  0
LINE
  5
187
330
1F
100
AcDbEntity
  8
0
  6
Continuous
 62
     7
370
    15
100
AcDbLine
 10
2395.1710249485
 20
963.4066614453
 30
0.0
 11
2397.2001505264
 21
965.6637899788
 31
0.0
  0
LINE
  5
188
330
1F
100
AcDbEntity
  8
0
  6
Continuous
 62
     7
370
    15
100
AcDbLine
 10
2329.4902033214
 20
1030.0160830596
 30
0.0
 11
2327.4610777435
 21
1027.7589545261
 31
0.0
  0
LINE
  5
189
330
1F
100
AcDbEntity
  8
0
  6
Continuous
 62
     7
370
    15
100
AcDbLine
 10
2327.4610777435
 20
1027.7589545261
 30
0.0
 11
2395.1710249485
 21
963.4066614453
 31
0.0
  0
LINE
  5
18A
330
1F
100
AcDbEntity
  8
0
  6
Continuous
 62
     7
370
    15
100
AcDbLine
 10
2409.1118335394
 20
963.3334082497
 30
0.0
 11
2407.0827079615
 21
961.0762797162
 31
0.0
  0
LWPOLYLINE
  5
18B
330
1F
100
AcDbEntity
  8
0
  6
Continuous
 62
     7
370
    15
100
AcDbPolyline
 90
        9
 70
   128
 43
0.0
 10
2407.0827079615
 20
961.0762797162
 10
2406.0330249857
 20
960.3199281379
 10
2404.7452698607
 20
959.8572475463
 10
2403.2689302937
 20
959.7060184972
 10
2401.6607411864
 20
959.8720526379
 10
2399.9825043442
 20
960.3489693697
 10
2398.2987134679
 20
961.11844105
 10
2396.6740756965
 20
962.1508973136
 10
2395.1710249485
 20
963.4066614453
  0
LWPOLYLINE
  5
18C
330
1F
100
AcDbEntity
  8
0
  6
Continuous
 62
     7
370
    15
100
AcDbPolyline
 90
        9
 70
   128
 43
0.0
 10
2327.4610777435
 20
1027.7589545261
 10
2326.1373754162
 20
1029.1897682146
 10
2325.0438906477
 20
1030.7406460923
 10
2324.2226454444
 20
1032.351988792
 10
2323.705199799
 20
1033.9618733175
 10
2323.5114388573
 20
1035.5084327092
 10
2323.6488087438
 20
1036.9322335572
 10
2324.1120304107
 20
1038.1785599932
 10
2324.6913395166
 20
1038.9995221664
  0
LWPOLYLINE
  5
18D
330
1F
100
AcDbEntity
  8
0
  6
Continuous
 62
     7
370
    15
100
AcDbPolyline
 90
       14
 70
   128
 43
0.0
 10
2302.8092280334
 20
1008.6755066025
 10
2302.3645951797
 20
1007.9860283816
 10
2302.1130872775
 20
1006.9678321921
 10
2302.1856852888
 20
1005.8048915802
 10
2302.5778276135
 20
1004.5702783816
 10
2303.2648745072
 20
1003.341567884
 10
2304.2036562866
 20
1002.195964487
 10
2305.3351858402
 20
1001.2054506652
 10
2306.5883650044
 20
1000.4322640449
 10
2307.8844519236
 20
999.924986785
 10
2309.14200869
 20
999.7154929814
 10
2310.2820183869
 20
999.8169459002
 10
2311.2328500124
 20
1000.2229708815
 10
2311.7332585728
 20
1000.6529335158
  0
ARC
  5
18E
330
1F
100
AcDbEntity
  8
0
  6
Continuous
 62
     7
370
    15
100
AcDbCircle
 10
2377.4457864975
 20
937.3332776408
 30
0.0
 40
6.173567406179341
100
AcDbArc
 50
320.7407296734
 51
27.34200998
  0
LWPOLYLINE
  5
18F
330
1F
100
AcDbEntity
  8
0
  6
Continuous
 62
     7
370
    15
100
AcDbPolyline
 90
        9
 70
   128
 43
0.0
 10
2370.3142366191
 20
935.7568369099
 10
2371.8172873671
 20
934.5010727782
 10
2373.4419251386
 20
933.4686165146
 10
2375.1257160149
 20
932.6991448343
 10
2376.8039528571
 20
932.2222281026
 10
2378.4121419644
 20
932.0561939618
 10
2379.8884815314
 20
932.207423011
 10
2381.1762366564
 20
932.6701036026
 10
2382.2259196322
 20
933.4264551809
  0
LINE
  5
190
330
1F
100
AcDbEntity
  8
0
  6
Continuous
 62
     7
370
    15
100
AcDbLine
 10
2370.3142366191
 20
935.7568369099
 30
0.0
 11
2302.6042894138
 21
1000.1091299911
 31
0.0
  0
LWPOLYLINE
  5
191
330
1F
100
AcDbEntity
  8
0
  6
Continuous
 62
     7
370
    15
100
AcDbPolyline
 90
        9
 70
   128
 43
0.0
 10
2300.0265141794
 20
1011.5496918562
 10
2299.2552420809
 20
1010.5287354582
 10
2298.792020414
 20
1009.2824090222
 10
2298.6546505276
 20
1007.8586081743
 10
2298.8484114692
 20
1006.3120487825
 10
2299.3658571147
 20
1004.702164257
 10
2300.187102318
 20
1003.0908215573
 10
2301.2805870865
 20
1001.5399436796
 10
2302.6042894138
 20
1000.1091299911
  0
ARC
  5
192
330
1F
100
AcDbEntity
  8
0
  6
Continuous
 62
     7
370
    15
100
AcDbCircle
 10
2304.0375008536
 20
1006.5544398602
 30
0.0
 40
6.406290393441105
100
AcDbArc
 50
69.3868788036
 51
128.7630648786
  0
LINE
  5
193
330
1F
100
AcDbEntity
  8
0
  6
Continuous
 62
     7
370
    15
100
AcDbLine
 10
2374.9937812517
 20
949.2905759711
 30
0.0
 11
2315.9805210594
 21
1005.3774401959
 31
0.0
  0
LWPOLYLINE
  5
194
330
1F
100
AcDbEntity
  8
0
  6
Continuous
 62
     7
370
    15
100
AcDbPolyline
 90
       14
 70
   128
 43
0.0
 10
2379.4480697283
 20
936.2960176819
 10
2378.9476611679
 20
935.8660550475
 10
2377.9968295424
 20
935.4600300663
 10
2376.8568198455
 20
935.3585771474
 10
2375.5992630791
 20
935.568070951
 10
2374.3031761599
 20
936.0753482109
 10
2373.0499969957
 20
936.8485348312
 10
2371.9184674421
 20
937.839048653
 10
2370.9796856626
 20
938.98465205
 10
2370.292638769
 20
940.2133625476
 10
2369.9004964443
 20
941.4479757463
 10
2369.827898433
 20
942.6109163581
 10
2370.0794063352
 20
943.6291125476
 10
2370.5240391888
 20
944.3185907685
  0
LINE
  5
195
330
1F
100
AcDbEntity
  8
0
  6
Continuous
 62
     7
370
    15
100
AcDbLine
 10
2407.274670954
 20
961.2762739411
 30
0.0
 11
2407.0827079615
 21
961.0762797162
 31
0.0
  0
LINE
  5
196
330
1F
100
AcDbEntity
  8
0
  6
Continuous
 62
     7
370
    15
100
AcDbLine
 10
2368.2851110412
 20
933.4997083764
 30
0.0
 11
2370.3142366191
 21
935.7568369099
 31
0.0
  0
LINE
  5
197
330
1F
100
AcDbEntity
  8
0
  6
Continuous
 62
     7
370
    15
100
AcDbLine
 10
2302.6042894138
 20
1000.1091299911
 30
0.0
 11
2300.5751638358
 21
997.8520014577
 31
0.0
  0
LINE
  5
198
330
1F
100
AcDbEntity
  8
0
  6
Continuous
 62
     7
370
    15
100
AcDbLine
 10
2300.5751638358
 20
997.8520014577
 30
0.0
 11
2368.2851110412
 21
933.4997083764
 31
0.0
  0
LINE
  5
199
330
1F
100
AcDbEntity
  8
0
  6
Continuous
 62
     7
370
    15
100
AcDbLine
 10
2382.2259196322
 20
933.4264551809
 30
0.0
 11
2380.1967940543
 21
931.1693266474
 31
0.0
  0
LWPOLYLINE
  5
19A
330
1F
100
AcDbEntity
  8
0
  6
Continuous
 62
     7
370
    15
100
AcDbPolyline
 90
        9
 70
   128
 43
0.0
 10
2380.1967940543
 20
931.1693266474
 10
2379.1471110785
 20
930.4129750691
 10
2377.8593559535
 20
929.9502944775
 10
2376.3830163865
 20
929.7990654283
 10
2374.7748272792
 20
929.9650995691
 10
2373.096590437
 20
930.4420163008
 10
2371.4127995607
 20
931.2114879811
 10
2369.7881617893
 20
932.2439442447
 10
2368.2851110412
 20
933.4997083764
  0
LWPOLYLINE
  5
19B
330
1F
100
AcDbEntity
  8
0
  6
Continuous
 62
     7
370
    15
100
AcDbPolyline
 90
        9
 70
   128
 43
0.0
 10
2300.5751638358
 20
997.8520014577
 10
2299.2514615085
 20
999.2828151462
 10
2298.15797674
 20
1000.8336930238
 10
2297.3367315367
 20
1002.4450357236
 10
2296.8192858913
 20
1004.054920249
 10
2296.6255249496
 20
1005.6014796408
 10
2296.7628948361
 20
1007.0252804887
 10
2297.226116503
 20
1008.2716069247
 10
2297.805425609
 20
1009.0925690979
  0
LINE
  5
19C
330
1F
100
AcDbEntity
  8
0
  6
Continuous
 62
     7
370
    15
100
AcDbLine
 10
2380.3887570468
 20
931.3693208723
 30
0.0
 11
2380.1967940543
 21
931.1693266474
 31
0.0
  0
LWPOLYLINE
  5
19D
330
1F
100
AcDbEntity
  8
0
  6
Continuous
 62
     7
370
    15
100
AcDbPolyline
 90
        8
 70
   128
 43
0.0
 10
2296.4665882239
 20
993.0272585436
 10
2297.635575308
 20
992.0857141394
 10
2298.9070557603
 20
991.3750582698
 10
2300.2011377879
 20
990.9399440566
 10
2301.4365094578
 20
990.8077113261
 10
2302.5355478244
 20
990.986668747
 10
2303.4291962653
 20
991.4655717665
 10
2303.7287758272
 20
991.749026041
  0
LWPOLYLINE
  5
19E
330
1F
100
AcDbEntity
  8
0
  6
Continuous
 62
     7
370
    15
100
AcDbPolyline
 90
        8
 70
   128
 43
0.0
 10
2294.8047452878
 20
999.7715991277
 10
2294.7526762985
 20
999.7118336361
 10
2294.2673716141
 20
998.8448361315
 10
2294.0961969235
 20
997.7840266683
 10
2294.249907762
 20
996.5960598066
 10
2294.7188459124
 20
995.3555798732
 10
2295.473546266
 20
994.1405307846
 10
2296.4665882239
 20
993.0272585436
  0
LWPOLYLINE
  5
19F
330
1F
100
AcDbEntity
  8
0
  6
Continuous
 62
     7
370
    15
100
AcDbPolyline
 90
       10
 70
   128
 43
0.0
 10
2364.1998276664
 20
569.9474465515
 10
2365.6074752868
 20
569.6746510666
 10
2367.1026203562
 20
569.5907241621
 10
2368.5913174112
 20
569.7009392741
 10
2369.9800261408
 20
569.9983711818
 10
2371.1814888683
 20
570.4643311446
 10
2372.1202132716
 20
571.0695411842
 10
2372.7372158444
 20
571.7759737282
 10
2372.9937280456
 20
572.5392410216
 10
2373.0
 20
572.6805005923
  0
LWPOLYLINE
  5
1A0
330
1F
100
AcDbEntity
  8
0
  6
Continuous
 62
     7
370
    15
100
AcDbPolyline
 90
        6
 70
   128
 43
0.0
 10
2361.0
 20
572.6805005923
 10
2361.0191591254
 20
572.4337428284
 10
2361.3262070237
 20
571.6754406049
 10
2361.9897602014
 20
570.9802899968
 10
2362.9681251721
 20
570.3919698733
 10
2364.1998276664
 20
569.9474465515
  0
LWPOLYLINE
  5
1A1
330
1F
100
AcDbEntity
  8
0
  6
Continuous
 62
     8
370
    15
100
AcDbPolyline
 90
       10
 70
   128
 43
0.0
 10
2364.1998276664
 20
1075.6761539658
 10
2365.6074752868
 20
1075.4033584808
 10
2367.1026203562
 20
1075.3194315763
 10
2368.5913174112
 20
1075.4296466884
 10
2369.9800261408
 20
1075.7270785961
 10
2371.1814888683
 20
1076.1930385588
 10
2372.1202132716
 20
1076.7982485985
 10
2372.7372158444
 20
1077.5046811424
 10
2372.9937280456
 20
1078.2679484359
 10
2373.0
 20
1078.4092080066
  0
LWPOLYLINE
  5
1A2
330
1F
100
AcDbEntity
  8
0
  6
Continuous
 62
     8
370
    15
100
AcDbPolyline
 90
        6
 70
   128
 43
0.0
 10
2361.0
 20
1078.4092080066
 10
2361.0191591254
 20
1078.1624502427
 10
2361.3262070237
 20
1077.4041480192
 10
2361.9897602014
 20
1076.708997411
 10
2362.9681251721
 20
1076.1206772876
 10
2364.1998276664
 20
1075.6761539658
  0
LWPOLYLINE
  5
1A3
330
1F
100
AcDbEntity
  8
0
  6
Continuous
 62
     8
370
    15
100
AcDbPolyline
 90
        8
 70
   128
 43
0.0
 10
2359.8767625345
 20
1063.5625252144
 10
2361.0457496185
 20
1062.6209808103
 10
2362.3172300708
 20
1061.9103249407
 10
2363.6113120984
 20
1061.4752107275
 10
2364.8466837683
 20
1061.3429779969
 10
2365.945722135
 20
1061.5219354179
 10
2366.8393705759
 20
1062.0008384373
 10
2367.1386072922
 20
1062.2839114196
  0
LWPOLYLINE
  5
1A4
330
1F
100
AcDbEntity
  8
0
  6
Continuous
 62
     8
370
    15
100
AcDbPolyline
 90
        8
 70
   128
 43
0.0
 10
2358.2136758587
 20
1070.3054812883
 10
2358.162850609
 20
1070.2471003069
 10
2357.6775459247
 20
1069.3801028023
 10
2357.5063712341
 20
1068.3192933392
 10
2357.6600820726
 20
1067.1313264774
 10
2358.1290202229
 20
1065.8908465441
 10
2358.8837205765
 20
1064.6757974554
 10
2359.8767625345
 20
1063.5625252144
  0
LWPOLYLINE
  5
1A5
330
1F
100
AcDbEntity
  8
0
  6
Continuous
 62
     8
370
    15
100
AcDbPolyline
 90
       10
 70
   128
 43
0.0
 10
2364.1998276664
 20
921.3860398394
 10
2365.6074752868
 20
921.1132443544
 10
2367.1026203562
 20
921.02931745
 10
2368.5913174112
 20
921.139532562
 10
2369.9800261408
 20
921.4369644697
 10
2371.1814888683
 20
921.9029244324
 10
2372.1202132716
 20
922.5081344721
 10
2372.7372158444
 20
923.2145670161
 10
2372.9937280456
 20
923.9778343095
 10
2372.9999993732
 20
924.1176813576
  0
LWPOLYLINE
  5
1A6
330
1F
100
AcDbEntity
  8
0
  6
Continuous
 62
     8
370
    15
100
AcDbPolyline
 90
        6
 70
   128
 43
0.0
 10
2361.0000000495
 20
924.1186969793
 10
2361.0191591254
 20
923.8723361163
 10
2361.3262070237
 20
923.1140338928
 10
2361.9897602014
 20
922.4188832847
 10
2362.9681251721
 20
921.8305631612
 10
2364.1998276664
 20
921.3860398394
  0
ENDSEC
  0
SECTION
  2
OBJECTS
  0
DICTIONARY
  5
C
330
0
100
AcDbDictionary
281
     1
  3
ACAD_GROUP
350
D
  3
ACAD_LAYOUT
350
1A
  3
ACAD_MLINESTYLE
350
17
  3
ACAD_PLOTSETTINGS
350
19
  3
ACAD_PLOTSTYLENAME
350
E
  3
ACAD_SCALELIST
350
47
  0
DICTIONARY
  5
D
102
{ACAD_REACTORS
330
C
102
}
330
C
100
AcDbDictionary
281
     1
  0
DICTIONARY
  5
1A
102
{ACAD_REACTORS
330
C
102
}
330
C
100
AcDbDictionary
281
     1
  3
Layout1
350
1E
  3
Layout2
350
26
  3
Model
350
22
  0
DICTIONARY
  5
17
102
{ACAD_REACTORS
330
C
102
}
330
C
100
AcDbDictionary
281
     1
  3
Standard
350
18
  0
DICTIONARY
  5
19
102
{ACAD_REACTORS
330
C
102
}
330
C
100
AcDbDictionary
281
     1
  0
ACDBDICTIONARYWDFLT
  5
E
102
{ACAD_REACTORS
330
C
102
}
330
C
100
AcDbDictionary
281
     1
  3
Normal
350
F
100
AcDbDictionaryWithDefault
340
F
  0
DICTIONARY
  5
47
102
{ACAD_REACTORS
330
C
102
}
330
C
100
AcDbDictionary
281
     1
  3
A0
350
48
  3
A1
350
49
  3
A2
350
4A
  3
A3
350
4B
  3
A4
350
4C
  3
A5
350
4D
  3
A6
350
4E
  3
A7
350
4F
  3
A8
350
50
  3
A9
350
51
  3
B0
350
52
  3
B1
350
53
  3
B2
350
54
  3
B3
350
55
  3
B4
350
56
  3
B5
350
57
  3
B6
350
58
  3
B7
350
59
  3
B8
350
5A
  3
B9
350
5B
  3
C0
350
5C
  3
C1
350
5D
  3
C2
350
5E
  3
C3
350
5F
  3
C4
350
60
  3
C5
350
61
  3
C6
350
62
  3
C7
350
63
  3
C8
350
64
  3
C9
350
65
  3
D0
350
66
  3
D1
350
67
  3
D2
350
68
  0
LAYOUT
  5
1E
102
{ACAD_REACTORS
330
1A
102
}
330
1A
100
AcDbPlotSettings
  1

  2
none_device
  4

  6

 40
0.0
 41
0.0
 42
0.0
 43
0.0
 44
0.0
 45
0.0
 46
0.0
 47
0.0
 48
0.0
 49
0.0
140
0.0
141
0.0
142
1.0
143
1.0
 70
   688
 72
     1
 73
     0
 74
     5
  7

 75
    16
147
1.0
148
0.0
149
0.0
100
AcDbLayout
  1
Layout1
 70
     1
 71
     1
 10
0.0
 20
0.0
 11
420.0
 21
297.0
 12
0.0
 22
0.0
 32
0.0
 14
1.0000000000E+20
 24
1.0000000000E+20
 34
1.0000000000E+20
 15
-1.0000000000E+20
 25
-1.0000000000E+20
 35
-1.0000000000E+20
146
0.0
 13
0.0
 23
0.0
 33
0.0
 16
1.0
 26
0.0
 36
0.0
 17
0.0
 27
1.0
 37
0.0
 76
     0
330
1B
  0
LAYOUT
  5
26
102
{ACAD_REACTORS
330
1A
102
}
330
1A
100
AcDbPlotSettings
  1

  2
none_device
  4

  6

 40
0.0
 41
0.0
 42
0.0
 43
0.0
 44
0.0
 45
0.0
 46
0.0
 47
0.0
 48
0.0
 49
0.0
140
0.0
141
0.0
142
1.0
143
1.0
 70
   688
 72
     1
 73
     0
 74
     5
  7

 75
    16
147
1.0
148
0.0
149
0.0
100
AcDbLayout
  1
Layout2
 70
     1
 71
     2
 10
0.0
 20
0.0
 11
0.0
 21
0.0
 12
0.0
 22
0.0
 32
0.0
 14
0.0
 24
0.0
 34
0.0
 15
0.0
 25
0.0
 35
0.0
146
0.0
 13
0.0
 23
0.0
 33
0.0
 16
1.0
 26
0.0
 36
0.0
 17
0.0
 27
1.0
 37
0.0
 76
     0
330
23
  0
LAYOUT
  5
22
102
{ACAD_REACTORS
330
1A
102
}
330
1A
100
AcDbPlotSettings
  1

  2
none_device
  4
Letter_(8.50_x_11.00_Inches)
  6

 40
6.35
 41
6.35
 42
6.35000508
 43
6.35000508
 44
215.9
 45
279.4
 46
0.0
 47
0.0
 48
0.0
 49
0.0
140
0.0
141
0.0
142
1.0
143
1.0
 70
  1712
 72
     1
 73
     0
 74
     0
  7

 75
     0
147
1.0
148
0.0
149
0.0
100
AcDbLayout
  1
Model
 70
     1
 71
     0
 10
0.0
 20
0.0
 11
2970.0
 21
2100.0
 12
0.0
 22
0.0
 32
0.0
 14
0.0
 24
0.0
 34
0.0
 15
2970.0
 25
2100.0
 35
0.0
146
0.0
 13
0.0
 23
0.0
 33
0.0
 16
1.0
 26
0.0
 36
0.0
 17
0.0
 27
1.0
 37
0.0
 76
     0
330
1F
331
29
  0
MLINESTYLE
  5
18
102
{ACAD_REACTORS
330
17
102
}
330
17
100
AcDbMlineStyle
  2
Standard
 70
     0
  3

 62
   256
 51
90.0
 52
90.0
 71
     2
 49
0.5
 62
   256
  6
BYLAYER
 49
-0.5
 62
   256
  6
BYLAYER
  0
ACDBPLACEHOLDER
  5
F
102
{ACAD_REACTORS
330
E
102
}
330
E
  0
SCALE
  5
48
102
{ACAD_REACTORS
330
47
102
}
330
47
100
AcDbScale
 70
     0
300
1:1
140
1.0
141
1.0
290
     1
  0
SCALE
  5
49
102
{ACAD_REACTORS
330
47
102
}
330
47
100
AcDbScale
 70
     0
300
1:2
140
1.0
141
2.0
290
     0
  0
SCALE
  5
4A
102
{ACAD_REACTORS
330
47
102
}
330
47
100
AcDbScale
 70
     0
300
1:4
140
1.0
141
4.0
290
     0
  0
SCALE
  5
4B
102
{ACAD_REACTORS
330
47
102
}
330
47
100
AcDbScale
 70
     0
300
1:5
140
1.0
141
5.0
290
     0
  0
SCALE
  5
4C
102
{ACAD_REACTORS
330
47
102
}
330
47
100
AcDbScale
 70
     0
300
1:8
140
1.0
141
8.0
290
     0
  0
SCALE
  5
4D
102
{ACAD_REACTORS
330
47
102
}
330
47
100
AcDbScale
 70
     0
300
1:10
140
1.0
141
10.0
290
     0
  0
SCALE
  5
4E
102
{ACAD_REACTORS
330
47
102
}
330
47
100
AcDbScale
 70
     0
300
1:16
140
1.0
141
16.0
290
     0
  0
SCALE
  5
4F
102
{ACAD_REACTORS
330
47
102
}
330
47
100
AcDbScale
 70
     0
300
1:20
140
1.0
141
20.0
290
     0
  0
SCALE
  5
50
102
{ACAD_REACTORS
330
47
102
}
330
47
100
AcDbScale
 70
     0
300
1:30
140
1.0
141
30.0
290
     0
  0
SCALE
  5
51
102
{ACAD_REACTORS
330
47
102
}
330
47
100
AcDbScale
 70
     0
300
1:40
140
1.0
141
40.0
290
     0
  0
SCALE
  5
52
102
{ACAD_REACTORS
330
47
102
}
330
47
100
AcDbScale
 70
     0
300
1:50
140
1.0
141
50.0
290
     0
  0
SCALE
  5
53
102
{ACAD_REACTORS
330
47
102
}
330
47
100
AcDbScale
 70
     0
300
1:100
140
1.0
141
100.0
290
     0
  0
SCALE
  5
54
102
{ACAD_REACTORS
330
47
102
}
330
47
100
AcDbScale
 70
     0
300
2:1
140
2.0
141
1.0
290
     0
  0
SCALE
  5
55
102
{ACAD_REACTORS
330
47
102
}
330
47
100
AcDbScale
 70
     0
300
4:1
140
4.0
141
1.0
290
     0
  0
SCALE
  5
56
102
{ACAD_REACTORS
330
47
102
}
330
47
100
AcDbScale
 70
     0
300
8:1
140
8.0
141
1.0
290
     0
  0
SCALE
  5
57
102
{ACAD_REACTORS
330
47
102
}
330
47
100
AcDbScale
 70
     0
300
10:1
140
10.0
141
1.0
290
     0
  0
SCALE
  5
58
102
{ACAD_REACTORS
330
47
102
}
330
47
100
AcDbScale
 70
     0
300
100:1
140
100.0
141
1.0
290
     0
  0
SCALE
  5
59
102
{ACAD_REACTORS
330
47
102
}
330
47
100
AcDbScale
 70
     0
300
1/128" = 1'-0"
140
0.0078125
141
12.0
290
     0
  0
SCALE
  5
5A
102
{ACAD_REACTORS
330
47
102
}
330
47
100
AcDbScale
 70
     0
300
1/64" = 1'-0"
140
0.015625
141
12.0
290
     0
  0
SCALE
  5
5B
102
{ACAD_REACTORS
330
47
102
}
330
47
100
AcDbScale
 70
     0
300
1/32" = 1'-0"
140
0.03125
141
12.0
290
     0
  0
SCALE
  5
5C
102
{ACAD_REACTORS
330
47
102
}
330
47
100
AcDbScale
 70
     0
300
1/16" = 1'-0"
140
0.0625
141
12.0
290
     0
  0
SCALE
  5
5D
102
{ACAD_REACTORS
330
47
102
}
330
47
100
AcDbScale
 70
     0
300
3/32" = 1'-0"
140
0.09375
141
12.0
290
     0
  0
SCALE
  5
5E
102
{ACAD_REACTORS
330
47
102
}
330
47
100
AcDbScale
 70
     0
300
1/8" = 1'-0"
140
0.125
141
12.0
290
     0
  0
SCALE
  5
5F
102
{ACAD_REACTORS
330
47
102
}
330
47
100
AcDbScale
 70
     0
300
3/16" = 1'-0"
140
0.1875
141
12.0
290
     0
  0
SCALE
  5
60
102
{ACAD_REACTORS
330
47
102
}
330
47
100
AcDbScale
 70
     0
300
1/4" = 1'-0"
140
0.25
141
12.0
290
     0
  0
SCALE
  5
61
102
{ACAD_REACTORS
330
47
102
}
330
47
100
AcDbScale
 70
     0
300
3/8" = 1'-0"
140
0.375
141
12.0
290
     0
  0
SCALE
  5
62
102
{ACAD_REACTORS
330
47
102
}
330
47
100
AcDbScale
 70
     0
300
1/2" = 1'-0"
140
0.5
141
12.0
290
     0
  0
SCALE
  5
63
102
{ACAD_REACTORS
330
47
102
}
330
47
100
AcDbScale
 70
     0
300
3/4" = 1'-0"
140
0.75
141
12.0
290
     0
  0
SCALE
  5
64
102
{ACAD_REACTORS
330
47
102
}
330
47
100
AcDbScale
 70
     0
300
1" = 1'-0"
140
1.0
141
12.0
290
     0
  0
SCALE
  5
65
102
{ACAD_REACTORS
330
47
102
}
330
47
100
AcDbScale
 70
     0
300
1-1/2" = 1'-0"
140
1.5
141
12.0
290
     0
  0
SCALE
  5
66
102
{ACAD_REACTORS
330
47
102
}
330
47
100
AcDbScale
 70
     0
300
3" = 1'-0"
140
3.0
141
12.0
290
     0
  0
SCALE
  5
67
102
{ACAD_REACTORS
330
47
102
}
330
47
100
AcDbScale
 70
     0
300
6" = 1'-0"
140
6.0
141
12.0
290
     0
  0
SCALE
  5
68
102
{ACAD_REACTORS
330
47
102
}
330
47
100
AcDbScale
 70
     0
300
1'-0" = 1'-0"
140
12.0
141
12.0
290
     0
  0
ENDSEC
  0
EOF
