  0
SECTION
  2
HEADER
  9
$ACADVER
  1
AC1015
  9
$ACADMAINTVER
 70
     6
  9
$DWGCODEPAGE
  3
ANSI_1252
  9
$INSBASE
 10
0.0
 20
0.0
 30
0.0
  9
$EXTMIN
 10
0.0
 20
0.0
 30
0.0
  9
$EXTMAX
 10
2970.0
 20
2100.0
 30
0.0
  9
$LIMMIN
 10
0.0
 20
0.0
  9
$LIMMAX
 10
2970.0
 20
2100.0
  9
$ORTHOMODE
 70
     0
  9
$REGENMODE
 70
     1
  9
$FILLMODE
 70
     1
  9
$QTEXTMODE
 70
     0
  9
$MIRRTEXT
 70
     1
  9
$LTSCALE
 40
10.0
  9
$ATTMODE
 70
     1
  9
$TEXTSIZE
 40
35.0
  9
$TRACEWID
 40
1.0
  9
$TEXTSTYLE
  7
Standard
  9
$CLAYER
  8
0
  9
$CELTYPE
  6
ByLayer
  9
$CECOLOR
 62
   256
  9
$CELTSCALE
 40
1.0
  9
$DISPSILH
 70
     0
  9
$DIMSCALE
 40
1.0
  9
$DIMASZ
 40
33.02
  9
$DIMEXO
 40
10.0
  9
$DIMDLI
 40
3.75
  9
$DIMRND
 40
0.0
  9
$DIMDLE
 40
0.0
  9
$DIMEXE
 40
10.0
  9
$DIMTP
 40
0.0
  9
$DIMTM
 40
0.0
  9
$DIMTXT
 40
35.0
  9
$DIMCEN
 40
2.5
  9
$DIMTSZ
 40
0.0
  9
$DIMTOL
 70
     0
  9
$DIMLIM
 70
     0
  9
$DIMTIH
 70
     1
  9
$DIMTOH
 70
     1
  9
$DIMSE1
 70
     0
  9
$DIMSE2
 70
     0
  9
$DIMTAD
 70
     1
  9
$DIMZIN
 70
     0
  9
$DIMBLK
  1

  9
$DIMASO
 70
     1
  9
$DIMSHO
 70
     1
  9
$DIMPOST
  1

  9
$DIMAPOST
  1

  9
$DIMALT
 70
     0
  9
$DIMALTD
 70
     3
  9
$DIMALTF
 40
0.0393700787
  9
$DIMLFAC
 40
1.0
  9
$DIMTOFL
 70
     1
  9
$DIMTVP
 40
0.0
  9
$DIMTIX
 70
     0
  9
$DIMSOXD
 70
     0
  9
$DIMSAH
 70
     0
  9
$DIMBLK1
  1

  9
$DIMBLK2
  1

  9
$DIMSTYLE
  2
ISO-25
  9
$DIMCLRD
 70
     0
  9
$DIMCLRE
 70
     0
  9
$DIMCLRT
 70
     0
  9
$DIMTFAC
 40
1.0
  9
$DIMGAP
 40
15.24
  9
$DIMJUST
 70
     0
  9
$DIMSD1
 70
     0
  9
$DIMSD2
 70
     0
  9
$DIMTOLJ
 70
     0
  9
$DIMTZIN
 70
     0
  9
$DIMALTZ
 70
     0
  9
$DIMALTTZ
 70
     0
  9
$DIMUPT
 70
     0
  9
$DIMDEC
 70
     2
  9
$DIMTDEC
 70
     2
  9
$DIMALTU
 70
     2
  9
$DIMALTTD
 70
     3
  9
$DIMTXSTY
  7
Standard
  9
$DIMAUNIT
 70
     0
  9
$DIMADEC
 70
     2
  9
$DIMALTRND
 40
0.0
  9
$DIMAZIN
 70
     0
  9
$DIMDSEP
 70
    44
  9
$DIMATFIT
 70
     3
  9
$DIMFRAC
 70
     0
  9
$DIMLDRBLK
  1

  9
$DIMLUNIT
 70
     2
  9
$DIMLWD
 70
    -2
  9
$DIMLWE
 70
    -2
  9
$DIMTMOVE
 70
     0
  9
$LUNITS
 70
     2
  9
$LUPREC
 70
     2
  9
$SKETCHINC
 40
1.0
  9
$FILLETRAD
 40
10.0
  9
$AUNITS
 70
     0
  9
$AUPREC
 70
     2
  9
$MENU
  1
.
  9
$ELEVATION
 40
0.0
  9
$PELEVATION
 40
0.0
  9
$THICKNESS
 40
0.0
  9
$LIMCHECK
 70
     0
  9
$CHAMFERA
 40
0.0
  9
$CHAMFERB
 40
0.0
  9
$CHAMFERC
 40
0.0
  9
$CHAMFERD
 40
0.0
  9
$SKPOLY
 70
     0
  9
$TDCREATE
 40
2456899.485961968
  9
$TDUCREATE
 40
2456899.402628634
  9
$TDUPDATE
 40
2456899.485962974
  9
$TDUUPDATE
 40
2456899.402629641
  9
$TDINDWG
 40
0.0000000116
  9
$TDUSRTIMER
 40
0.0000000116
  9
$USRTIMER
 70
     1
  9
$ANGBASE
 50
0.0
  9
$ANGDIR
 70
     0
  9
$PDMODE
 70
     0
  9
$PDSIZE
 40
-1.0
  9
$PLINEWID
 40
0.0
  9
$SPLFRAME
 70
     0
  9
$SPLINETYPE
 70
     6
  9
$SPLINESEGS
 70
     8
  9
$HANDSEED
  5
215
  9
$SURFTAB1
 70
     6
  9
$SURFTAB2
 70
     6
  9
$SURFTYPE
 70
     6
  9
$SURFU
 70
     6
  9
$SURFV
 70
     6
  9
$UCSBASE
  2

  9
$UCSNAME
  2

  9
$UCSORG
 10
0.0
 20
0.0
 30
0.0
  9
$UCSXDIR
 10
1.0
 20
0.0
 30
0.0
  9
$UCSYDIR
 10
0.0
 20
1.0
 30
0.0
  9
$UCSORTHOREF
  2

  9
$UCSORTHOVIEW
 70
     0
  9
$UCSORGTOP
 10
0.0
 20
0.0
 30
0.0
  9
$UCSORGBOTTOM
 10
0.0
 20
0.0
 30
0.0
  9
$UCSORGLEFT
 10
0.0
 20
0.0
 30
0.0
  9
$UCSORGRIGHT
 10
0.0
 20
0.0
 30
0.0
  9
$UCSORGFRONT
 10
0.0
 20
0.0
 30
0.0
  9
$UCSORGBACK
 10
0.0
 20
0.0
 30
0.0
  9
$PUCSBASE
  2

  9
$PUCSNAME
  2

  9
$PUCSORG
 10
0.0
 20
0.0
 30
0.0
  9
$PUCSXDIR
 10
1.0
 20
0.0
 30
0.0
  9
$PUCSYDIR
 10
0.0
 20
1.0
 30
0.0
  9
$PUCSORTHOREF
  2

  9
$PUCSORTHOVIEW
 70
     0
  9
$PUCSORGTOP
 10
0.0
 20
0.0
 30
0.0
  9
$PUCSORGBOTTOM
 10
0.0
 20
0.0
 30
0.0
  9
$PUCSORGLEFT
 10
0.0
 20
0.0
 30
0.0
  9
$PUCSORGRIGHT
 10
0.0
 20
0.0
 30
0.0
  9
$PUCSORGFRONT
 10
0.0
 20
0.0
 30
0.0
  9
$PUCSORGBACK
 10
0.0
 20
0.0
 30
0.0
  9
$USERI1
 70
     0
  9
$USERI2
 70
     0
  9
$USERI3
 70
     0
  9
$USERI4
 70
     0
  9
$USERI5
 70
     0
  9
$USERR1
 40
0.0
  9
$USERR2
 40
0.0
  9
$USERR3
 40
0.0
  9
$USERR4
 40
0.0
  9
$USERR5
 40
0.0
  9
$WORLDVIEW
 70
     1
  9
$SHADEDGE
 70
     3
  9
$SHADEDIF
 70
    70
  9
$TILEMODE
 70
     1
  9
$MAXACTVP
 70
    64
  9
$PINSBASE
 10
0.0
 20
0.0
 30
0.0
  9
$PLIMCHECK
 70
     0
  9
$PEXTMIN
 10
1.0000000000E+20
 20
1.0000000000E+20
 30
1.0000000000E+20
  9
$PEXTMAX
 10
-1.0000000000E+20
 20
-1.0000000000E+20
 30
-1.0000000000E+20
  9
$PLIMMIN
 10
0.0
 20
0.0
  9
$PLIMMAX
 10
420.0
 20
297.0
  9
$UNITMODE
 70
     0
  9
$VISRETAIN
 70
     1
  9
$PLINEGEN
 70
     0
  9
$PSLTSCALE
 70
     1
  9
$TREEDEPTH
 70
  3020
  9
$CMLSTYLE
  2
Standard
  9
$CMLJUST
 70
     0
  9
$CMLSCALE
 40
20.0
  9
$PROXYGRAPHICS
 70
     1
  9
$MEASUREMENT
 70
     1
  9
$CELWEIGHT
370
    -1
  9
$ENDCAPS
280
     0
  9
$JOINSTYLE
280
     0
  9
$LWDISPLAY
290
     1
  9
$INSUNITS
 70
     4
  9
$HYPERLINKBASE
  1

  9
$STYLESHEET
  1

  9
$XEDIT
290
     1
  9
$CEPSNTYPE
380
     0
  9
$PSTYLEMODE
290
     1
  9
$FINGERPRINTGUID
  2
{DEF5D2B8-A87B-4629-A1B4-ABCF9820D886}
  9
$VERSIONGUID
  2
{FAEB1C32-E019-11D5-929B-00C0DF256EC4}
  9
$EXTNAMES
290
     1
  9
$PSVPSCALE
 40
0.0
  9
$OLESTARTUP
290
     0
  0
ENDSEC
  0
SECTION
  2
CLASSES
  0
CLASS
  1
ACDBDICTIONARYWDFLT
  2
AcDbDictionaryWithDefault
  3
ObjectDBX Classes
 90
        0
280
     0
281
     0
  0
CLASS
  1
VISUALSTYLE
  2
AcDbVisualStyle
  3
ObjectDBX Classes
 90
     4095
280
     0
281
     0
  0
CLASS
  1
MATERIAL
  2
AcDbMaterial
  3
ObjectDBX Classes
 90
     1153
280
     0
281
     0
  0
CLASS
  1
SCALE
  2
AcDbScale
  3
ObjectDBX Classes
 90
     1153
280
     0
281
     0
  0
CLASS
  1
SUN
  2
AcDbSun
  3
SCENEOE
 90
     1153
280
     0
281
     0
  0
CLASS
  1
ACDBPLACEHOLDER
  2
AcDbPlaceHolder
  3
ObjectDBX Classes
 90
        0
280
     0
281
     0
  0
CLASS
  1
LAYOUT
  2
AcDbLayout
  3
ObjectDBX Classes
 90
        0
280
     0
281
     0
  0
ENDSEC
  0
SECTION
  2
TABLES
  0
TABLE
  2
VPORT
  5
8
330
0
100
AcDbSymbolTable
 70
     1
  0
VPORT
  5
29
330
8
100
AcDbSymbolTableRecord
100
AcDbViewportTableRecord
  2
*Active
 70
     0
 10
0.0
 20
0.0
 11
1.0
 21
1.0
 12
1485.0
 22
1050.0
 13
0.0
 23
0.0
 14
10.0
 24
10.0
 15
10.0
 25
10.0
 16
0.0
 26
0.0
 36
1.0
 17
0.0
 27
0.0
 37
0.0
 40
2100.0
 41
1.4142857143
 42
50.0
 43
0.0
 44
0.0
 50
0.0
 51
0.0
 71
     0
 72
  2000
 73
     1
 74
     3
 75
     0
 76
     0
 77
     0
 78
     0
281
     0
 65
     1
110
0.0
120
0.0
130
0.0
111
1.0
121
0.0
131
0.0
112
0.0
122
1.0
132
0.0
 79
     0
146
0.0
  0
ENDTAB
  0
TABLE
  2
LTYPE
  5
5
330
0
100
AcDbSymbolTable
 70
     6
  0
LTYPE
  5
14
330
5
100
AcDbSymbolTableRecord
100
AcDbLinetypeTableRecord
  2
ByBlock
 70
     0
  3

 72
    65
 73
     0
 40
0.0
  0
LTYPE
  5
15
330
5
100
AcDbSymbolTableRecord
100
AcDbLinetypeTableRecord
  2
ByLayer
 70
     0
  3

 72
    65
 73
     0
 40
0.0
  0
LTYPE
  5
16
330
5
100
AcDbSymbolTableRecord
100
AcDbLinetypeTableRecord
  2
Continuous
 70
     0
  3
Solid line
 72
    65
 73
     0
 40
0.0
  0
LTYPE
  5
6A
330
5
100
AcDbSymbolTableRecord
100
AcDbLinetypeTableRecord
  2
HIDDEN
 70
     0
  3
Hidden __ __ __ __ __ __ __ __ __ __ __ __ __ __
 72
    65
 73
     2
 40
1.905
 49
1.27
 74
     0
 49
-0.635
 74
     0
  0
LTYPE
  5
6B
330
5
100
AcDbSymbolTableRecord
100
AcDbLinetypeTableRecord
  2
PHANTOM
 70
     0
  3
Phantom ______  __  __  ______  __  __  ______
 72
    65
 73
     6
 40
12.7
 49
6.35
 74
     0
 49
-1.27
 74
     0
 49
1.27
 74
     0
 49
-1.27
 74
     0
 49
1.27
 74
     0
 49
-1.27
 74
     0
  0
LTYPE
  5
6C
330
5
100
AcDbSymbolTableRecord
100
AcDbLinetypeTableRecord
  2
CENTER
 70
     0
  3
Center ____ _ ____ _ ____ _ ____ _ ____ _ ____
 72
    65
 73
     4
 40
10.16
 49
6.35
 74
     0
 49
-1.27
 74
     0
 49
1.27
 74
     0
 49
-1.27
 74
     0
  0
LTYPE
  5
6D
330
5
100
AcDbSymbolTableRecord
100
AcDbLinetypeTableRecord
  2
CENTERX2
 70
     0
  3
Center (2x) ________  __  ________  __  _____
 72
    65
 73
     4
 40
20.32
 49
12.7
 74
     0
 49
-2.54
 74
     0
 49
2.54
 74
     0
 49
-2.54
 74
     0
  0
LTYPE
  5
6E
330
5
100
AcDbSymbolTableRecord
100
AcDbLinetypeTableRecord
  2
DOT2
 70
     0
  3
Dot (.5x) ........................................
 72
    65
 73
     2
 40
0.635
 49
0.0
 74
     0
 49
-0.635
 74
     0
  0
ENDTAB
  0
TABLE
  2
LAYER
  5
2
330
0
100
AcDbSymbolTable
 70
     2
  0
LAYER
  5
10
330
2
100
AcDbSymbolTableRecord
100
AcDbLayerTableRecord
  2
0
 70
     0
 62
     7
  6
Continuous
370
    -3
390
F
  0
LAYER
  5
6F
330
2
100
AcDbSymbolTableRecord
100
AcDbLayerTableRecord
  2
FORMAT
 70
     0
 62
     7
  6
Continuous
370
    -3
390
F
  0
ENDTAB
  0
TABLE
  2
STYLE
  5
3
330
0
100
AcDbSymbolTable
 70
     3
  0
STYLE
  5
11
330
3
100
AcDbSymbolTableRecord
100
AcDbTextStyleTableRecord
  2
Standard
 70
     0
 40
0.0
 41
1.0
 50
0.0
 71
     0
 42
35.0
  3
txt
  4

  0
STYLE
  5
8C
330
3
100
AcDbSymbolTableRecord
100
AcDbTextStyleTableRecord
  2
SLDTEXTSTYLE0
 70
     0
 40
0.0
 41
0.75
 50
0.0
 71
     0
 42
35.0
  3
TXT
  4

  0
STYLE
  5
94
330
3
100
AcDbSymbolTableRecord
100
AcDbTextStyleTableRecord
  2
SLDTEXTSTYLE1
 70
     0
 40
0.0
 41
0.6923076923
 50
0.0
 71
     0
 42
35.0
  3
TXT
  4

  0
ENDTAB
  0
TABLE
  2
VIEW
  5
6
330
0
100
AcDbSymbolTable
 70
     0
  0
ENDTAB
  0
TABLE
  2
UCS
  5
7
330
0
100
AcDbSymbolTable
 70
     0
  0
ENDTAB
  0
TABLE
  2
APPID
  5
9
330
0
100
AcDbSymbolTable
 70
     1
  0
APPID
  5
12
330
9
100
AcDbSymbolTableRecord
100
AcDbRegAppTableRecord
  2
ACAD
 70
     0
  0
ENDTAB
  0
TABLE
  2
DIMSTYLE
  5
A
330
0
100
AcDbSymbolTable
 70
     1
100
AcDbDimStyleTable
  0
DIMSTYLE
105
27
330
A
100
AcDbSymbolTableRecord
100
AcDbDimStyleTableRecord
  2
ISO-25
 70
     0
 41
2.5
 42
0.625
 43
3.75
 44
1.25
 73
     0
 74
     0
 77
     1
 78
     8
140
2.5
141
2.5
143
0.0393700787
147
0.625
171
     3
172
     1
178
     0
271
     2
272
     2
274
     3
278
    44
283
     0
284
     8
340
11
  0
ENDTAB
  0
TABLE
  2
BLOCK_RECORD
  5
1
330
0
100
AcDbSymbolTable
 70
     3
  0
BLOCK_RECORD
  5
1F
330
1
100
AcDbSymbolTableRecord
100
AcDbBlockTableRecord
  2
*Model_Space
340
22
  0
BLOCK_RECORD
  5
1B
330
1
100
AcDbSymbolTableRecord
100
AcDbBlockTableRecord
  2
*Paper_Space
340
1E
  0
BLOCK_RECORD
  5
23
330
1
100
AcDbSymbolTableRecord
100
AcDbBlockTableRecord
  2
*Paper_Space0
340
26
  0
BLOCK_RECORD
  5
1B8
330
1
100
AcDbSymbolTableRecord
100
AcDbBlockTableRecord
  2
SW_CENTERMARKSYMBOL_0
340
0
102
{BLKREFS
331
1C3
102
}
  0
BLOCK_RECORD
  5
1E7
330
1
100
AcDbSymbolTableRecord
100
AcDbBlockTableRecord
  2
SW_CENTERMARKSYMBOL_1
340
0
102
{BLKREFS
331
1F2
102
}
  0
ENDTAB
  0
ENDSEC
  0
SECTION
  2
BLOCKS
  0
BLOCK
  5
20
330
1F
100
AcDbEntity
  8
0
100
AcDbBlockBegin
  2
*Model_Space
 70
     0
 10
0.0
 20
0.0
 30
0.0
  3
*Model_Space
  1
*Model_Space
  0
ENDBLK
  5
21
330
1F
100
AcDbEntity
  8
0
100
AcDbBlockEnd
  0
BLOCK
  5
1C
330
1B
100
AcDbEntity
 67
     1
  8
0
100
AcDbBlockBegin
  2
*Paper_Space
 70
     0
 10
0.0
 20
0.0
 30
0.0
  3
*Paper_Space
  1
*Paper_Space
  0
ENDBLK
  5
1D
330
1B
100
AcDbEntity
 67
     1
  8
0
100
AcDbBlockEnd
  0
BLOCK
  5
24
330
23
100
AcDbEntity
  8
0
100
AcDbBlockBegin
  2
*Paper_Space0
 70
     0
 10
0.0
 20
0.0
 30
0.0
  3
*Paper_Space0
  1
*Paper_Space0
  0
ENDBLK
  5
25
330
23
100
AcDbEntity
  8
0
100
AcDbBlockEnd
  0
BLOCK
  5
1B9
330
1B8
100
AcDbEntity
  8
0
100
AcDbBlockBegin
  2
SW_CENTERMARKSYMBOL_0
 70
     0
 10
0.0
 20
0.0
 30
0.0
  3
SW_CENTERMARKSYMBOL_0
  1
SW_CENTERMARKSYMBOL_0
  0
LINE
  5
1BB
330
1B8
100
AcDbEntity
  8
0
  6
Continuous
 62
     0
370
     0
100
AcDbLine
 10
0.0
 20
0.0
 30
0.0
 11
0.0
 21
2.5
 31
0.0
  0
LINE
  5
1BC
330
1B8
100
AcDbEntity
  8
0
  6
Continuous
 62
     0
370
     0
100
AcDbLine
 10
0.0
 20
0.0
 30
0.0
 11
-2.5
 21
0.0
 31
0.0
  0
LINE
  5
1BD
330
1B8
100
AcDbEntity
  8
0
  6
Continuous
 62
     0
370
     0
100
AcDbLine
 10
0.0
 20
0.0
 30
0.0
 11
0.0
 21
-2.5
 31
0.0
  0
LINE
  5
1BE
330
1B8
100
AcDbEntity
  8
0
  6
Continuous
 62
     0
370
     0
100
AcDbLine
 10
0.0
 20
0.0
 30
0.0
 11
2.5
 21
0.0
 31
0.0
  0
LINE
  5
1BF
330
1B8
100
AcDbEntity
  8
0
  6
Continuous
 62
     0
370
     0
100
AcDbLine
 10
0.0
 20
5.0
 30
0.0
 11
0.0
 21
8.5
 31
0.0
  0
LINE
  5
1C0
330
1B8
100
AcDbEntity
  8
0
  6
Continuous
 62
     0
370
     0
100
AcDbLine
 10
-5.0
 20
0.0
 30
0.0
 11
-8.5
 21
0.0
 31
0.0
  0
LINE
  5
1C1
330
1B8
100
AcDbEntity
  8
0
  6
Continuous
 62
     0
370
     0
100
AcDbLine
 10
0.0
 20
-5.0
 30
0.0
 11
0.0
 21
-8.5
 31
0.0
  0
LINE
  5
1C2
330
1B8
100
AcDbEntity
  8
0
  6
Continuous
 62
     0
370
     0
100
AcDbLine
 10
5.0
 20
0.0
 30
0.0
 11
8.5
 21
0.0
 31
0.0
  0
ENDBLK
  5
1BA
330
1B8
100
AcDbEntity
  8
0
100
AcDbBlockEnd
  0
BLOCK
  5
1E8
330
1E7
100
AcDbEntity
  8
0
100
AcDbBlockBegin
  2
SW_CENTERMARKSYMBOL_1
 70
     0
 10
0.0
 20
0.0
 30
0.0
  3
SW_CENTERMARKSYMBOL_1
  1
SW_CENTERMARKSYMBOL_1
  0
LINE
  5
1EA
330
1E7
100
AcDbEntity
  8
0
  6
Continuous
 62
     0
370
     0
100
AcDbLine
 10
0.0
 20
0.0
 30
0.0
 11
0.0
 21
2.5
 31
0.0
  0
LINE
  5
1EB
330
1E7
100
AcDbEntity
  8
0
  6
Continuous
 62
     0
370
     0
100
AcDbLine
 10
0.0
 20
0.0
 30
0.0
 11
-2.5
 21
0.0
 31
0.0
  0
LINE
  5
1EC
330
1E7
100
AcDbEntity
  8
0
  6
Continuous
 62
     0
370
     0
100
AcDbLine
 10
0.0
 20
0.0
 30
0.0
 11
0.0
 21
-2.5
 31
0.0
  0
LINE
  5
1ED
330
1E7
100
AcDbEntity
  8
0
  6
Continuous
 62
     0
370
     0
100
AcDbLine
 10
0.0
 20
0.0
 30
0.0
 11
2.5
 21
0.0
 31
0.0
  0
LINE
  5
1EE
330
1E7
100
AcDbEntity
  8
0
  6
Continuous
 62
     0
370
     0
100
AcDbLine
 10
0.0
 20
5.0
 30
0.0
 11
0.0
 21
8.5
 31
0.0
  0
LINE
  5
1EF
330
1E7
100
AcDbEntity
  8
0
  6
Continuous
 62
     0
370
     0
100
AcDbLine
 10
-5.0
 20
0.0
 30
0.0
 11
-8.5
 21
0.0
 31
0.0
  0
LINE
  5
1F0
330
1E7
100
AcDbEntity
  8
0
  6
Continuous
 62
     0
370
     0
100
AcDbLine
 10
0.0
 20
-5.0
 30
0.0
 11
0.0
 21
-8.5
 31
0.0
  0
LINE
  5
1F1
330
1E7
100
AcDbEntity
  8
0
  6
Continuous
 62
     0
370
     0
100
AcDbLine
 10
5.0
 20
0.0
 30
0.0
 11
8.5
 21
0.0
 31
0.0
  0
ENDBLK
  5
1E9
330
1E7
100
AcDbEntity
  8
0
100
AcDbBlockEnd
  0
ENDSEC
  0
SECTION
  2
ENTITIES
  0
LINE
  5
70
330
1F
100
AcDbEntity
  8
0
  6
Continuous
 62
     7
370
     0
100
AcDbLine
 10
2920.0
 20
2050.0
 30
0.0
 11
2920.0
 21
50.0
 31
0.0
  0
LINE
  5
71
330
1F
100
AcDbEntity
  8
0
  6
Continuous
 62
     7
370
     0
100
AcDbLine
 10
1594.0
 20
347.5
 30
0.0
 11
1741.3
 21
347.5
 31
0.0
  0
LINE
  5
72
330
1F
100
AcDbEntity
  8
0
  6
Continuous
 62
     7
370
     0
100
AcDbLine
 10
2036.0
 20
347.5
 30
0.0
 11
2920.0
 21
347.5
 31
0.0
  0
LINE
  5
73
330
1F
100
AcDbEntity
  8
0
  6
Continuous
 62
     7
370
     0
100
AcDbLine
 10
1594.0
 20
92.5
 30
0.0
 11
2920.0
 21
92.5
 31
0.0
  0
LINE
  5
74
330
1F
100
AcDbEntity
  8
0
  6
Continuous
 62
     7
370
     0
100
AcDbLine
 10
1594.0
 20
347.5
 30
0.0
 11
1594.0
 21
283.75
 31
0.0
  0
LINE
  5
75
330
1F
100
AcDbEntity
  8
0
  6
Continuous
 62
     7
370
     0
100
AcDbLine
 10
2920.0
 20
220.0
 30
0.0
 11
2790.0
 21
220.0
 31
0.0
  0
LINE
  5
76
330
1F
100
AcDbEntity
  8
0
  6
Continuous
 62
     7
370
     0
100
AcDbLine
 10
1888.6
 20
220.0
 30
0.0
 11
2036.0
 21
220.0
 31
0.0
  0
LINE
  5
77
330
1F
100
AcDbEntity
  8
0
  6
Continuous
 62
     7
370
     0
100
AcDbLine
 10
2036.0
 20
347.5
 30
0.0
 11
2036.0
 21
50.0
 31
0.0
  0
LINE
  5
78
330
1F
100
AcDbEntity
  8
0
  6
Continuous
 62
     7
370
     0
100
AcDbLine
 10
2478.0
 20
50.0
 30
0.0
 11
2478.0
 21
92.5
 31
0.0
  0
LINE
  5
79
330
1F
100
AcDbEntity
  8
0
  6
Continuous
 62
     7
370
     0
100
AcDbLine
 10
1741.3
 20
347.5
 30
0.0
 11
1888.6
 21
347.5
 31
0.0
  0
LINE
  5
7A
330
1F
100
AcDbEntity
  8
0
  6
Continuous
 62
     7
370
     0
100
AcDbLine
 10
2790.0
 20
92.5
 30
0.0
 11
2790.0
 21
154.9496936018
 31
0.0
  0
LINE
  5
7B
330
1F
100
AcDbEntity
  8
0
  6
Continuous
 62
     7
370
     0
100
AcDbLine
 10
1888.6
 20
347.5
 30
0.0
 11
2036.0
 21
347.5
 31
0.0
  0
LINE
  5
7C
330
1F
100
AcDbEntity
  8
0
  6
Continuous
 62
     7
370
     0
100
AcDbLine
 10
2920.0
 20
154.9496936018
 30
0.0
 11
2790.0
 21
154.9496936018
 31
0.0
  0
LINE
  5
7D
330
1F
100
AcDbEntity
  8
0
  6
Continuous
 62
     7
370
     0
100
AcDbLine
 10
2036.0
 20
220.0
 30
0.0
 11
2790.0
 21
220.0
 31
0.0
  0
LINE
  5
7E
330
1F
100
AcDbEntity
  8
0
  6
Continuous
 62
     7
370
     0
100
AcDbLine
 10
1888.6
 20
347.5
 30
0.0
 11
1888.6
 21
220.0
 31
0.0
  0
LINE
  5
7F
330
1F
100
AcDbEntity
  8
0
  6
Continuous
 62
     7
370
     0
100
AcDbLine
 10
1888.6
 20
220.0
 30
0.0
 11
1741.3
 21
220.0
 31
0.0
  0
LINE
  5
80
330
1F
100
AcDbEntity
  8
0
  6
Continuous
 62
     7
370
     0
100
AcDbLine
 10
2920.0
 20
2050.0
 30
0.0
 11
50.0
 21
2050.0
 31
0.0
  0
LINE
  5
81
330
1F
100
AcDbEntity
  8
0
  6
Continuous
 62
     7
370
     0
100
AcDbLine
 10
50.0
 20
2050.0
 30
0.0
 11
50.0
 21
50.0
 31
0.0
  0
LINE
  5
82
330
1F
100
AcDbEntity
  8
0
  6
Continuous
 62
     7
370
     0
100
AcDbLine
 10
50.0
 20
50.0
 30
0.0
 11
2920.0
 21
50.0
 31
0.0
  0
LINE
  5
83
330
1F
100
AcDbEntity
  8
0
  6
Continuous
 62
     7
370
     0
100
AcDbLine
 10
1741.3
 20
220.0
 30
0.0
 11
1741.3
 21
347.5
 31
0.0
  0
LINE
  5
84
330
1F
100
AcDbEntity
  8
0
  6
Continuous
 62
     7
370
     0
100
AcDbLine
 10
1741.3
 20
220.0
 30
0.0
 11
1594.0
 21
220.0
 31
0.0
  0
LINE
  5
85
330
1F
100
AcDbEntity
  8
0
  6
Continuous
 62
     7
370
     0
100
AcDbLine
 10
2790.0
 20
154.9496936018
 30
0.0
 11
2790.0
 21
220.0
 31
0.0
  0
LINE
  5
86
330
1F
100
AcDbEntity
  8
0
  6
Continuous
 62
     7
370
     0
100
AcDbLine
 10
1594.0
 20
283.75
 30
0.0
 11
1741.3
 21
283.75
 31
0.0
  0
LINE
  5
87
330
1F
100
AcDbEntity
  8
0
  6
Continuous
 62
     7
370
     0
100
AcDbLine
 10
1741.3
 20
283.75
 30
0.0
 11
1888.6
 21
283.75
 31
0.0
  0
LINE
  5
88
330
1F
100
AcDbEntity
  8
0
  6
Continuous
 62
     7
370
     0
100
AcDbLine
 10
1888.6
 20
283.75
 30
0.0
 11
2036.0
 21
283.75
 31
0.0
  0
LINE
  5
89
330
1F
100
AcDbEntity
  8
0
  6
Continuous
 62
     7
370
     0
100
AcDbLine
 10
1594.0
 20
220.0
 30
0.0
 11
1594.0
 21
283.75
 31
0.0
  0
LINE
  5
8A
330
1F
100
AcDbEntity
  8
0
  6
Continuous
 62
     7
370
     0
100
AcDbLine
 10
1594.0
 20
220.0
 30
0.0
 11
1594.0
 21
92.5
 31
0.0
  0
LINE
  5
8B
330
1F
100
AcDbEntity
  8
0
  6
Continuous
 62
     7
370
     0
100
AcDbLine
 10
1594.0
 20
50.0
 30
0.0
 11
1594.0
 21
92.5
 31
0.0
  0
MTEXT
  5
8D
330
1F
100
AcDbEntity
  8
0
  6
Continuous
 62
     7
370
     0
100
AcDbMText
 10
2802.7693727994
 20
194.3244494768
 30
0.0
 40
15.0
 41
0.0
 71
     1
 72
     1
  1
Blattformat
  7
SLDTEXTSTYLE0
 73
     1
 44
1.0
  0
MTEXT
  5
8E
330
1F
100
AcDbEntity
  8
0
  6
Continuous
 62
     7
370
     0
100
AcDbMText
 10
1623.642408927
 20
258.7493046935
 30
0.0
 40
15.0
 41
0.0
 71
     1
 72
     1
  1
Ch. Höfig
  7
SLDTEXTSTYLE0
 73
     1
 44
1.0
  0
MTEXT
  5
8F
330
1F
100
AcDbEntity
  8
0
  6
Continuous
 62
     7
370
     0
100
AcDbMText
 10
1667.7619782589
 20
322.0356581583
 30
0.0
 40
15.0
 41
0.0
 71
     2
 72
     1
  1
Name
  7
SLDTEXTSTYLE0
 73
     1
 44
1.0
  0
MTEXT
  5
90
330
1F
100
AcDbEntity
  8
0
  6
Continuous
 62
     7
370
     0
100
AcDbMText
 10
1604.4586230876
 20
209.8605628925
 30
0.0
 40
15.0
 41
0.0
 71
     1
 72
     1
  1
Werkstoff:
  7
SLDTEXTSTYLE0
 73
     1
 44
1.0
  0
MTEXT
  5
91
330
1F
100
AcDbEntity
  8
0
  6
Continuous
 62
     7
370
     0
100
AcDbMText
 10
2048.6498590342
 20
322.4610146297
 30
0.0
 40
15.0
 41
0.0
 71
     1
 72
     1
  1
Artikelnummer
  7
SLDTEXTSTYLE0
 73
     1
 44
1.0
  0
MTEXT
  5
92
330
1F
100
AcDbEntity
  8
0
  6
Continuous
 62
     7
370
     0
100
AcDbMText
 10
2048.7396611749
 20
198.6863782703
 30
0.0
 40
15.0
 41
0.0
 71
     1
 72
     1
  1
Hersteller
  7
SLDTEXTSTYLE0
 73
     1
 44
1.0
  0
MTEXT
  5
93
330
1F
100
AcDbEntity
  8
0
  6
Continuous
 62
     7
370
     0
100
AcDbMText
 10
2048.7396611749
 20
79.0008727453
 30
0.0
 40
15.0
 41
0.0
 71
     1
 72
     1
  1
Massstab: 1:10
  7
SLDTEXTSTYLE0
 73
     1
 44
1.0
  0
MTEXT
  5
95
330
1F
100
AcDbEntity
  8
0
  6
Continuous
 62
     7
370
     0
100
AcDbMText
 10
2492.7829442782
 20
79.0008727453
 30
0.0
 40
15.0
 41
0.0
 71
     1
 72
     1
  1
Blatt 1 von 1
  7
SLDTEXTSTYLE1
 73
     1
 44
1.0
  0
MTEXT
  5
96
330
1F
100
AcDbEntity
  8
0
  6
Continuous
 62
     7
370
     0
100
AcDbMText
 10
2830.1820125196
 20
142.1449358799
 30
0.0
 40
29.1041666667
 41
0.0
 71
     1
 72
     1
  1
A4
  7
SLDTEXTSTYLE0
 73
     1
 44
1.0
  0
MTEXT
  5
97
330
1F
100
AcDbEntity
  8
0
  6
Continuous
 62
     7
370
     0
100
AcDbMText
 10
2447.8572108176
 20
182.8771937365
 30
0.0
 40
52.9166666667
 41
0.0
 71
     2
 72
     1
  1
Feldmann GmbH
  7
SLDTEXTSTYLE0
 73
     1
 44
1.0
  0
MTEXT
  5
98
330
1F
100
AcDbEntity
  8
0
  6
Continuous
 62
     7
370
     0
100
AcDbMText
 10
1962.5434899658
 20
322.0356581583
 30
0.0
 40
15.0
 41
0.0
 71
     2
 72
     1
  1
Datum
  7
SLDTEXTSTYLE0
 73
     1
 44
1.0
  0
MTEXT
  5
99
330
1F
100
AcDbEntity
  8
0
  6
Continuous
 62
     7
370
     0
100
AcDbMText
 10
1800.2675095033
 20
258.7493046935
 30
0.0
 40
15.0
 41
0.0
 71
     1
 72
     1
  1
CH
  7
SLDTEXTSTYLE0
 73
     1
 44
1.0
  0
MTEXT
  5
9A
330
1F
100
AcDbEntity
  8
0
  6
Continuous
 62
     7
370
     0
100
AcDbMText
 10
1913.972993064
 20
258.7696708294
 30
0.0
 40
15.0
 41
0.0
 71
     1
 72
     1
  1
29.08.2014
  7
SLDTEXTSTYLE0
 73
     1
 44
1.0
  0
MTEXT
  5
9B
330
1F
100
AcDbEntity
  8
0
  6
Continuous
 62
     7
370
     0
100
AcDbMText
 10
1816.140359766
 20
79.1243636943
 30
0.0
 40
15.0
 41
0.0
 71
     2
 72
     1
  1
Gewicht 1.233 kg
  7
SLDTEXTSTYLE0
 73
     1
 44
1.0
  0
MTEXT
  5
9C
330
1F
100
AcDbEntity
  8
0
  6
Continuous
 62
     7
370
     0
100
AcDbMText
 10
1817.3958841428
 20
155.9772018443
 30
0.0
 40
23.8125
 41
0.0
 71
     2
 72
     1
  1
1.4301 (X5CrNi18-10)
  7
SLDTEXTSTYLE0
 73
     1
 44
1.0
  0
MTEXT
  5
9D
330
1F
100
AcDbEntity
  8
0
  6
Continuous
 62
     7
370
     0
100
AcDbMText
 10
2304.4345150607
 20
293.7621961947
 30
0.0
 40
42.3333333333
 41
0.0
 71
     2
 72
     1
  1
56304-240
  7
SLDTEXTSTYLE0
 73
     1
 44
1.0
  0
MTEXT
  5
9E
330
1F
100
AcDbEntity
  8
0
  6
Continuous
 62
     7
370
     0
100
AcDbMText
 10
1817.5300178247
 20
320.5903900996
 30
0.0
 40
15.0
 41
0.0
 71
     2
 72
     1
  1
Signatur
  7
SLDTEXTSTYLE0
 73
     1
 44
1.0
  0
LINE
  5
9F
330
1F
100
AcDbEntity
  8
0
  6
Continuous
 62
     7
370
    15
100
AcDbLine
 10
858.7857747934
 20
1268.3654573549
 30
0.0
 11
835.4512529931
 21
1245.0309243787
 31
0.0
  0
LINE
  5
A0
330
1F
100
AcDbEntity
  8
0
  6
Continuous
 62
     7
370
    15
100
AcDbLine
 10
843.9365348331
 20
1236.5456369508
 30
0.0
 11
867.271058496
 21
1259.880169927
 31
0.0
  0
LINE
  5
A1
330
1F
100
AcDbEntity
  8
0
  6
Continuous
 62
     7
370
    15
100
AcDbLine
 10
833.2653560228
 20
815.0754716981
 30
0.0
 11
833.2653560228
 21
1220.0754728902
 31
0.0
  0
LINE
  5
A2
330
1F
100
AcDbEntity
  8
0
  6
Continuous
 62
     7
370
    15
100
AcDbLine
 10
821.2653559185
 20
1220.0754728902
 30
0.0
 11
821.2653559185
 21
815.0754716981
 31
0.0
  0
LINE
  5
A3
330
1F
100
AcDbEntity
  8
0
  6
Continuous
 62
     7
370
    15
100
AcDbLine
 10
832.6228254027
 20
1242.2025051702
 30
0.0
 11
828.8805796783
 21
1238.4602573503
 31
0.0
  0
LINE
  5
A4
330
1F
100
AcDbEntity
  8
0
  6
Continuous
 62
     7
370
    15
100
AcDbLine
 10
837.3658612854
 20
1229.9749699224
 30
0.0
 11
841.1081072426
 21
1233.7172177423
 31
0.0
  0
ARC
  5
A5
330
1F
100
AcDbEntity
  8
0
  6
Continuous
 62
     7
370
    15
100
AcDbCircle
 10
847.2653559706
 20
1220.0754716981
 30
0.0
 40
14.00000000000011
100
AcDbArc
 50
135.0
 51
180.0
  0
ARC
  5
A6
330
1F
100
AcDbEntity
  8
0
  6
Continuous
 62
     7
370
    15
100
AcDbCircle
 10
847.2653559706
 20
1220.0754716981
 30
0.0
 40
26.00000000000005
100
AcDbArc
 50
135.0
 51
180.0
  0
ARC
  5
A7
330
1F
100
AcDbEntity
  8
0
  6
Continuous
 62
     7
370
    15
100
AcDbCircle
 10
847.2653559706
 20
1410.0754716981
 30
0.0
 40
14.0
100
AcDbArc
 50
180.0
 51
225.0
  0
ARC
  5
A8
330
1F
100
AcDbEntity
  8
0
  6
Continuous
 62
     7
370
    15
100
AcDbCircle
 10
847.2653559706
 20
1410.0754716981
 30
0.0
 40
26.0
100
AcDbArc
 50
180.0
 51
225.0
  0
LINE
  5
A9
330
1F
100
AcDbEntity
  8
0
  6
Continuous
 62
     7
370
    15
100
AcDbLine
 10
884.9487269781
 20
1294.5284095395
 30
0.0
 11
861.6142051778
 21
1271.1938765634
 31
0.0
  0
LINE
  5
AA
330
1F
100
AcDbEntity
  8
0
  6
Continuous
 62
     7
370
    15
100
AcDbLine
 10
870.0994851551
 20
1262.7085891355
 30
0.0
 11
893.4340069554
 21
1286.0431221116
 31
0.0
  0
LINE
  5
AB
330
1F
100
AcDbEntity
  8
0
  6
Continuous
 62
     7
370
    15
100
AcDbLine
 10
893.7333936355
 20
1303.3130612958
 30
0.0
 11
887.7771536372
 21
1297.3568287481
 31
0.0
  0
LINE
  5
AC
330
1F
100
AcDbEntity
  8
0
  6
Continuous
 62
     7
370
    15
100
AcDbLine
 10
896.2624336145
 20
1288.8715413202
 30
0.0
 11
902.2186736128
 21
1294.8277738679
 31
0.0
  0
LINE
  5
AD
330
1F
100
AcDbEntity
  8
0
  6
Continuous
 62
     7
370
    15
100
AcDbLine
 10
841.1031572632
 20
1396.4386728395
 30
0.0
 11
837.3658612854
 21
1400.1760032762
 31
0.0
  0
LINE
  5
AE
330
1F
100
AcDbEntity
  8
0
  6
Continuous
 62
     7
370
    15
100
AcDbLine
 10
828.8805796783
 20
1391.690686046
 30
0.0
 11
832.6178763545
 21
1387.9534152139
 31
0.0
  0
LINE
  5
AF
330
1F
100
AcDbEntity
  8
0
  6
Continuous
 62
     7
370
    15
100
AcDbLine
 10
902.2186736128
 20
1335.3231695283
 30
0.0
 11
896.257486429
 21
1341.2843492616
 31
0.0
  0
LINE
  5
B0
330
1F
100
AcDbEntity
  8
0
  6
Continuous
 62
     7
370
    15
100
AcDbLine
 10
887.7722064517
 20
1332.799091636
 30
0.0
 11
893.7333936355
 21
1326.8378522981
 31
0.0
  0
LINE
  5
B1
330
1F
100
AcDbEntity
  8
0
  6
Continuous
 62
     7
370
    15
100
AcDbLine
 10
893.4290597699
 20
1344.1127684701
 30
0.0
 11
870.0945342443
 21
1367.4473312486
 31
0.0
  0
LINE
  5
B2
330
1F
100
AcDbEntity
  8
0
  6
Continuous
 62
     7
370
    15
100
AcDbLine
 10
861.609254267
 20
1358.9620140184
 30
0.0
 11
884.9437797925
 21
1335.6275108445
 31
0.0
  0
LINE
  5
B3
330
1F
100
AcDbEntity
  8
0
  6
Continuous
 62
     7
370
    15
100
AcDbLine
 10
867.2661075852
 20
1370.2757504571
 30
0.0
 11
843.9315839223
 21
1393.6102536309
 31
0.0
  0
LINE
  5
B4
330
1F
100
AcDbEntity
  8
0
  6
Continuous
 62
     7
370
    15
100
AcDbLine
 10
835.4463030136
 20
1385.1249960054
 30
0.0
 11
858.7808276079
 21
1361.7904332269
 31
0.0
  0
LINE
  5
B5
330
1F
100
AcDbEntity
  8
0
  6
Continuous
 62
     7
370
    15
100
AcDbLine
 10
821.2653559185
 20
1815.0754716981
 30
0.0
 11
821.2653559185
 21
1410.0755003083
 31
0.0
  0
LINE
  5
B6
330
1F
100
AcDbEntity
  8
0
  6
Continuous
 62
     7
370
    15
100
AcDbLine
 10
833.2653560228
 20
1410.0755003083
 30
0.0
 11
833.2653560228
 21
1815.0754716981
 31
0.0
  0
LINE
  5
B7
330
1F
100
AcDbEntity
  8
0
  6
Continuous
 62
     7
370
    15
100
AcDbLine
 10
879.9417282007
 20
1377.2944954026
 30
0.0
 11
877.1133015416
 21
1380.1229146112
 31
0.0
  0
ARC
  5
B8
330
1F
100
AcDbEntity
  8
0
  6
Continuous
 62
     7
370
    15
100
AcDbCircle
 10
821.7915168957
 20
1315.0804210642
 30
0.0
 40
2.990000426875995
100
AcDbArc
 50
118.9591637646
 51
241.0408362354
  0
LINE
  5
B9
330
1F
100
AcDbEntity
  8
0
  6
Continuous
 62
     7
370
    15
100
AcDbLine
 10
879.9417282007
 20
1252.8663423646
 30
0.0
 11
820.3438001237
 21
1312.4642816175
 31
0.0
  0
LINE
  5
BA
330
1F
100
AcDbEntity
  8
0
  6
Continuous
 62
     7
370
    15
100
AcDbLine
 10
879.9417282007
 20
1252.8663423646
 30
0.0
 11
877.1133015416
 21
1250.0379231561
 31
0.0
  0
LINE
  5
BB
330
1F
100
AcDbEntity
  8
0
  6
Continuous
 62
     7
370
    15
100
AcDbLine
 10
877.1133015416
 20
1250.0379231561
 30
0.0
 11
816.8082658685
 21
1310.3429523099
 31
0.0
  0
ARC
  5
BC
330
1F
100
AcDbEntity
  8
0
  6
Continuous
 62
     7
370
    15
100
AcDbCircle
 10
820.4447965687
 20
1315.0804210642
 30
0.0
 40
5.972264070634302
100
AcDbArc
 50
127.5102347388
 51
232.4897652612
  0
LINE
  5
BD
330
1F
100
AcDbEntity
  8
0
  6
Continuous
 62
     7
370
    15
100
AcDbLine
 10
879.9417282007
 20
1377.2944954026
 30
0.0
 11
820.3438001237
 21
1317.6965859521
 31
0.0
  0
LINE
  5
BE
330
1F
100
AcDbEntity
  8
0
  6
Continuous
 62
     7
370
    15
100
AcDbLine
 10
877.1133015416
 20
1380.1229146112
 30
0.0
 11
816.8082658685
 21
1319.8179152597
 31
0.0
  0
LINE
  5
BF
330
1F
100
AcDbEntity
  8
0
  6
Continuous
 62
     7
370
    15
100
AcDbLine
 10
906.1046803853
 20
1279.0292945493
 30
0.0
 11
903.2762537262
 21
1276.2008753408
 31
0.0
  0
ARC
  5
C0
330
1F
100
AcDbEntity
  8
0
  6
Continuous
 62
     7
370
    15
100
AcDbCircle
 10
872.8819832975
 20
1315.0804210642
 30
0.0
 40
6.000000000000049
100
AcDbArc
 50
135.0
 51
225.0
  0
LINE
  5
C1
330
1F
100
AcDbEntity
  8
0
  6
Continuous
 62
     7
370
    15
100
AcDbLine
 10
906.1046803853
 20
1279.0292945493
 30
0.0
 11
872.174877908
 21
1312.9590895761
 31
0.0
  0
ARC
  5
C2
330
1F
100
AcDbEntity
  8
0
  6
Continuous
 62
     7
370
    15
100
AcDbCircle
 10
874.2961968598
 20
1315.0804210642
 30
0.0
 40
3.000000000000024
100
AcDbArc
 50
135.0
 51
225.0
  0
LINE
  5
C3
330
1F
100
AcDbEntity
  8
0
  6
Continuous
 62
     7
370
    15
100
AcDbLine
 10
906.1046803853
 20
1351.1315730203
 30
0.0
 11
903.2762537262
 21
1353.9599922288
 31
0.0
  0
LINE
  5
C4
330
1F
100
AcDbEntity
  8
0
  6
Continuous
 62
     7
370
    15
100
AcDbLine
 10
906.1046803853
 20
1351.1315730203
 30
0.0
 11
872.174877908
 21
1317.2017481912
 31
0.0
  0
LINE
  5
C5
330
1F
100
AcDbEntity
  8
0
  6
Continuous
 62
     7
370
    15
100
AcDbLine
 10
903.2762537262
 20
1353.9599922288
 30
0.0
 11
868.6393427215
 21
1319.3230774987
 31
0.0
  0
LINE
  5
C6
330
1F
100
AcDbEntity
  8
0
  6
Continuous
 62
     7
370
    15
100
AcDbLine
 10
903.2762537262
 20
1276.2008753408
 30
0.0
 11
868.6393427215
 21
1310.8377900708
 31
0.0
  0
ARC
  5
C7
330
1F
100
AcDbEntity
  8
0
  6
Continuous
 62
     7
370
    15
100
AcDbCircle
 10
768.190938847
 20
1315.0804210642
 30
0.0
 40
5.972264070634114
100
AcDbArc
 50
134.887409335
 51
225.112590665
  0
LINE
  5
C8
330
1F
100
AcDbEntity
  8
0
  6
Continuous
 62
     7
370
    15
100
AcDbLine
 10
853.7787778786
 20
1226.7033901799
 30
0.0
 11
850.9503512195
 21
1223.8749709714
 31
0.0
  0
LINE
  5
C9
330
1F
100
AcDbEntity
  8
0
  6
Continuous
 62
     7
370
    15
100
AcDbLine
 10
853.7787778786
 20
1226.7033901799
 30
0.0
 11
767.5117517374
 21
1312.9704144586
 31
0.0
  0
ARC
  5
CA
330
1F
100
AcDbEntity
  8
0
  6
Continuous
 62
     7
370
    15
100
AcDbCircle
 10
769.6302431819
 20
1315.0804210642
 30
0.0
 40
2.990000426875789
100
AcDbArc
 50
135.1150879146
 51
224.8849120854
  0
LINE
  5
CB
330
1F
100
AcDbEntity
  8
0
  6
Continuous
 62
     7
370
    15
100
AcDbLine
 10
853.7787778786
 20
1403.457417785
 30
0.0
 11
850.9503512195
 21
1406.2858965982
 31
0.0
  0
LINE
  5
CC
330
1F
100
AcDbEntity
  8
0
  6
Continuous
 62
     7
370
    15
100
AcDbLine
 10
850.9503512195
 20
1223.8749709714
 30
0.0
 11
763.9762202761
 21
1310.8491149533
 31
0.0
  0
LINE
  5
CD
330
1F
100
AcDbEntity
  8
0
  6
Continuous
 62
     7
370
    15
100
AcDbLine
 10
853.7787778786
 20
1403.457417785
 30
0.0
 11
767.5117517374
 21
1317.1904233087
 31
0.0
  0
LINE
  5
CE
330
1F
100
AcDbEntity
  8
0
  6
Continuous
 62
     7
370
    15
100
AcDbLine
 10
850.9503512195
 20
1406.2858965982
 30
0.0
 11
763.9762202761
 21
1319.3117526162
 31
0.0
  0
LINE
  5
CF
330
1F
100
AcDbEntity
  8
0
  6
Continuous
 62
     7
370
    15
100
AcDbLine
 10
827.2653559706
 20
815.0754716981
 30
0.0
 11
833.2653560228
 21
815.0754716981
 31
0.0
  0
LINE
  5
D0
330
1F
100
AcDbEntity
  8
0
  6
Continuous
 62
     7
370
    15
100
AcDbLine
 10
821.2653559185
 20
815.0754716981
 30
0.0
 11
827.2653559706
 21
815.0754716981
 31
0.0
  0
LWPOLYLINE
  5
D1
330
1F
100
AcDbEntity
  8
0
  6
Continuous
 62
     7
370
    15
100
AcDbPolyline
 90
        8
 70
   128
 43
0.0
 10
897.9760373495
 20
1299.070432483
 10
899.0311364195
 20
1298.0153110612
 10
900.0199402235
 20
1297.0264998067
 10
900.8803183696
 20
1296.1661365617
 10
901.5582168958
 20
1295.4882529367
 10
902.0110259316
 20
1295.0354364503
 10
902.2103066108
 20
1294.8361483205
 10
902.2186736128
 20
1294.8277738679
  0
LWPOLYLINE
  5
D2
330
1F
100
AcDbEntity
  8
0
  6
Continuous
 62
     7
370
    15
100
AcDbPolyline
 90
        8
 70
   128
 43
0.0
 10
893.7333936355
 20
1303.3130612958
 10
893.7417680881
 20
1303.3046868432
 10
893.9410413167
 20
1303.1053987134
 10
894.3938578031
 20
1302.6526120294
 10
895.0717488787
 20
1301.974698602
 10
895.9321270249
 20
1301.114335357
 10
896.9209308288
 20
1300.1255241025
 10
897.9760373495
 20
1299.070432483
  0
LWPOLYLINE
  5
D3
330
1F
100
AcDbEntity
  8
0
  6
Continuous
 62
     7
370
    15
100
AcDbPolyline
 90
        8
 70
   128
 43
0.0
 10
897.9760373495
 20
1331.0805109132
 10
899.0311364195
 20
1332.135632335
 10
900.0199402235
 20
1333.1244137872
 10
900.8803183696
 20
1333.9848068345
 10
901.5582168958
 20
1334.6626904596
 10
902.0110259316
 20
1335.1155069459
 10
902.2103066108
 20
1335.3147652734
 10
902.2186736128
 20
1335.3231695283
  0
LWPOLYLINE
  5
D4
330
1F
100
AcDbEntity
  8
0
  6
Continuous
 62
     7
370
    15
100
AcDbPolyline
 90
        8
 70
   128
 43
0.0
 10
893.7333936355
 20
1326.8378522981
 10
893.7417680881
 20
1326.846256553
 10
893.9410413167
 20
1327.0455148805
 10
894.3938578031
 20
1327.4983313668
 10
895.0717488787
 20
1328.1762149919
 10
895.9321270249
 20
1329.0366080392
 10
896.9209308288
 20
1330.025449096
 10
897.9760373495
 20
1331.0805109132
  0
LINE
  5
D5
330
1F
100
AcDbEntity
  8
0
  6
Continuous
 62
     7
370
    15
100
AcDbLine
 10
827.2653559706
 20
1815.0754716981
 30
0.0
 11
833.2653560228
 21
1815.0754716981
 31
0.0
  0
LINE
  5
D6
330
1F
100
AcDbEntity
  8
0
  6
Continuous
 62
     7
370
    15
100
AcDbLine
 10
821.2653559185
 20
1815.0754716981
 30
0.0
 11
827.2653559706
 21
1815.0754716981
 31
0.0
  0
LINE
  5
D7
330
1F
100
AcDbEntity
  8
0
  6
Continuous
 62
     8
370
    15
100
AcDbLine
 10
827.2653559706
 20
1220.0754728902
 30
0.0
 11
833.2653560228
 21
1220.0754728902
 31
0.0
  0
LINE
  5
D8
330
1F
100
AcDbEntity
  8
0
  6
Continuous
 62
     8
370
    15
100
AcDbLine
 10
821.2653559185
 20
1220.0754728902
 30
0.0
 11
827.2653559706
 21
1220.0754728902
 31
0.0
  0
LWPOLYLINE
  5
D9
330
1F
100
AcDbEntity
  8
0
  6
Continuous
 62
     8
370
    15
100
AcDbPolyline
 90
        8
 70
   128
 43
0.0
 10
833.1232203654
 20
1234.2175987352
 10
834.1783222294
 20
1233.1625071157
 10
835.167127896
 20
1232.1736958612
 10
836.0275079048
 20
1231.3133326162
 10
836.7053999118
 20
1230.6354191888
 10
837.1582117415
 20
1230.1826027024
 10
837.3574886954
 20
1229.983344375
 10
837.3658612854
 20
1229.9749699224
  0
LWPOLYLINE
  5
DA
330
1F
100
AcDbEntity
  8
0
  6
Continuous
 62
     8
370
    15
100
AcDbPolyline
 90
        8
 70
   128
 43
0.0
 10
828.8805796783
 20
1238.4602573503
 10
828.8889515697
 20
1238.4518828977
 10
829.0882292221
 20
1238.2525947679
 10
829.5410403534
 20
1237.7997782815
 10
830.2189330588
 20
1237.1218946565
 10
831.079312602
 20
1236.2615016092
 10
832.0681185014
 20
1235.272720157
 10
833.1232203654
 20
1234.2175987352
  0
LWPOLYLINE
  5
DB
330
1F
100
AcDbEntity
  8
0
  6
Continuous
 62
     8
370
    15
100
AcDbPolyline
 90
        8
 70
   128
 43
0.0
 10
833.1232203654
 20
1395.9333446611
 10
834.1783222294
 20
1396.9884660829
 10
835.167127896
 20
1397.9772475351
 10
836.0275079048
 20
1398.8376405824
 10
836.7053999118
 20
1399.5155242074
 10
837.1582117415
 20
1399.9683406938
 10
837.3574886954
 20
1400.1675990213
 10
837.3658612854
 20
1400.1760032762
  0
LWPOLYLINE
  5
DC
330
1F
100
AcDbEntity
  8
0
  6
Continuous
 62
     8
370
    15
100
AcDbPolyline
 90
        8
 70
   128
 43
0.0
 10
828.8805796783
 20
1391.690686046
 10
828.8889515697
 20
1391.6990903009
 10
829.0882292221
 20
1391.8983486284
 10
829.5410403534
 20
1392.3511651147
 10
830.2189330588
 20
1393.0290487397
 10
831.079312602
 20
1393.8894417871
 10
832.0681185014
 20
1394.8782232393
 10
833.1232203654
 20
1395.9333446611
  0
LINE
  5
DD
330
1F
100
AcDbEntity
  8
0
  6
Continuous
 62
     8
370
    15
100
AcDbLine
 10
827.2653559706
 20
1410.0755003083
 30
0.0
 11
833.2653560228
 21
1410.0755003083
 31
0.0
  0
LINE
  5
DE
330
1F
100
AcDbEntity
  8
0
  6
Continuous
 62
     8
370
    15
100
AcDbLine
 10
821.2653559185
 20
1410.0755003083
 30
0.0
 11
827.2653559706
 21
1410.0755003083
 31
0.0
  0
LINE
  5
DF
330
1F
100
AcDbEntity
  8
0
  6
CENTERX2
 62
     7
370
     0
100
AcDbLine
 10
902.2186747764
 20
1294.8277803771
 30
0.0
 11
902.2186747764
 21
1300.7608183663
 31
0.0
  0
LINE
  5
E0
330
1F
100
AcDbEntity
  8
0
  6
CENTERX2
 62
     7
370
     0
100
AcDbLine
 10
762.2186747764
 20
1315.0804210642
 30
0.0
 11
762.2186747764
 21
1312.1439412168
 31
0.0
  0
LINE
  5
E1
330
1F
100
AcDbEntity
  8
0
  6
Continuous
 62
     7
370
    15
100
AcDbLine
 10
2319.4031922794
 20
1430.6837806298
 30
0.0
 11
2319.4031922794
 21
1083.5310483692
 31
0.0
  0
LINE
  5
E2
330
1F
100
AcDbEntity
  8
0
  6
Continuous
 62
     7
370
    15
100
AcDbLine
 10
2331.4031925931
 20
1083.5310483935
 30
0.0
 11
2331.4031925931
 21
1430.6837806541
 31
0.0
  0
LINE
  5
E3
330
1F
100
AcDbEntity
  8
0
  6
Continuous
 62
     7
370
    15
100
AcDbLine
 10
2361.7002271777
 20
1040.9490300969
 30
0.0
 11
2341.9948789658
 21
1065.4027008471
 31
0.0
  0
LINE
  5
E4
330
1F
100
AcDbEntity
  8
0
  6
Continuous
 62
     7
370
    15
100
AcDbLine
 10
2332.1284506887
 20
1058.5217504584
 30
0.0
 11
2352.3564015326
 21
1033.4195809164
 31
0.0
  0
LINE
  5
E5
330
1F
100
AcDbEntity
  8
0
  6
Continuous
 62
     7
370
    15
100
AcDbLine
 10
2384.8392129117
 20
1012.234348026
 30
0.0
 11
2365.1338663472
 21
1036.6880183284
 31
0.0
  0
LINE
  5
E6
330
1F
100
AcDbEntity
  8
0
  6
Continuous
 62
     7
370
    15
100
AcDbLine
 10
2355.2674397174
 20
1029.807067492
 30
0.0
 11
2375.4953905613
 21
1004.7048468588
 31
0.0
  0
SPLINE
  5
E7
330
1F
100
AcDbEntity
  8
0
  6
Continuous
 62
     7
370
    15
100
AcDbSpline
210
0.0
220
0.0
230
1.0
 70
     8
 71
     3
 72
    15
 73
    11
 74
     0
 42
0.000000001
 43
0.00000001
 40
0.0
 40
0.0
 40
0.0
 40
0.0
 40
0.0858140200880633
 40
0.230657647780589
 40
0.3761733611518212
 40
0.5225924310134388
 40
0.6696070305639592
 40
0.8169886887418872
 40
0.9572653641673805
 40
1.0
 40
1.0
 40
1.0
 40
1.0
 10
2319.403192279403
 20
1083.53104836918
 30
0.0
 10
2319.413605180192
 20
1083.017680113431
 30
0.0
 10
2319.44159379091
 20
1081.637808686889
 30
0.0
 10
2319.730850966082
 20
1079.365910902806
 30
0.0
 10
2320.33622798029
 20
1076.737528110591
 30
0.0
 10
2321.226268501924
 20
1074.130628443324
 30
0.0
 10
2322.384567224657
 20
1071.575972632473
 30
0.0
 10
2323.776396393128
 20
1069.148691715866
 30
0.0
 10
2325.000029799837
 20
1067.386875066275
 30
0.0
 10
2325.739426824464
 20
1066.453945893795
 30
0.0
 10
2325.912082068372
 20
1066.236099312787
 30
0.0
  0
SPLINE
  5
E8
330
1F
100
AcDbEntity
  8
0
  6
Continuous
 62
     7
370
    15
100
AcDbSpline
210
0.0
220
0.0
230
1.0
 70
     8
 71
     3
 72
    14
 73
    10
 74
     0
 42
0.000000001
 43
0.00000001
 40
0.0
 40
0.0
 40
0.0
 40
0.0
 40
0.0850080487638376
 40
0.2575252987872587
 40
0.4296006477499312
 40
0.6011311943973021
 40
0.772327532137683
 40
0.9436011106714914
 40
1.0
 40
1.0
 40
1.0
 40
1.0
 10
2335.255905860196
 20
1073.765548996988
 30
0.0
 10
2335.048453551846
 20
1074.031196058113
 30
0.0
 10
2334.419992853491
 20
1074.835953252084
 30
0.0
 10
2333.510045057572
 20
1076.250784737462
 30
0.0
 10
2332.624141433339
 20
1077.995371605738
 30
0.0
 10
2331.972307793966
 20
1079.74281322202
 30
0.0
 10
2331.559681319078
 20
1081.442797447595
 30
0.0
 10
2331.41505914428
 20
1082.696411455243
 30
0.0
 10
2331.405548551516
 20
1083.365341450099
 30
0.0
 10
2331.403192593092
 20
1083.531048393511
 30
0.0
  0
LINE
  5
E9
330
1F
100
AcDbEntity
  8
0
  6
Continuous
 62
     7
370
    15
100
AcDbLine
 10
2338.561238149
 20
1069.6637641545
 30
0.0
 11
2335.2559058602
 21
1073.765548997
 31
0.0
  0
LINE
  5
EA
330
1F
100
AcDbEntity
  8
0
  6
Continuous
 62
     7
370
    15
100
AcDbLine
 10
2325.9120820684
 20
1066.2360993128
 30
0.0
 11
2329.2174149749
 21
1062.1342632112
 31
0.0
  0
LINE
  5
EB
330
1F
100
AcDbEntity
  8
0
  6
Continuous
 62
     7
370
    15
100
AcDbLine
 10
2392.612906677
 20
1002.5874167403
 30
0.0
 11
2388.2728520812
 21
1007.9732851663
 31
0.0
  0
LINE
  5
EC
330
1F
100
AcDbEntity
  8
0
  6
Continuous
 62
     7
370
    15
100
AcDbLine
 10
2378.4064254514
 20
1001.092385421
 30
0.0
 11
2383.2690876213
 21
995.0579657689
 31
0.0
  0
LINE
  5
ED
330
1F
100
AcDbEntity
  8
0
  6
Continuous
 62
     7
370
    15
100
AcDbLine
 10
2384.5087855615
 20
976.3060627431
 30
0.0
 11
2379.2409789699
 21
972.632251924
 31
0.0
  0
LINE
  5
EE
330
1F
100
AcDbEntity
  8
0
  6
Continuous
 62
     7
370
    15
100
AcDbLine
 10
2386.1054021452
 20
962.7894983549
 30
0.0
 11
2391.3732087368
 21
966.463309174
 31
0.0
  0
LINE
  5
EF
330
1F
100
AcDbEntity
  8
0
  6
Continuous
 62
     7
370
    15
100
AcDbLine
 10
2366.2234476248
 20
999.9885446556
 30
0.0
 11
2356.8895400548
 21
990.8783647232
 31
0.0
  0
LINE
  5
F0
330
1F
100
AcDbEntity
  8
0
  6
Continuous
 62
     7
370
    15
100
AcDbLine
 10
2371.0601046495
 20
966.9268278628
 30
0.0
 11
2356.1019932359
 21
956.4949053354
 31
0.0
  0
LINE
  5
F1
330
1F
100
AcDbEntity
  8
0
  6
Continuous
 62
     7
370
    15
100
AcDbLine
 10
2362.9664164112
 20
946.6521517663
 30
0.0
 11
2378.6076934136
 21
957.5605203156
 31
0.0
  0
LINE
  5
F2
330
1F
100
AcDbEntity
  8
0
  6
Continuous
 62
     7
370
    15
100
AcDbLine
 10
2319.8664236068
 20
1012.5728294944
 30
0.0
 11
2310.5325160369
 21
1003.4626495619
 31
0.0
  0
LINE
  5
F3
330
1F
100
AcDbEntity
  8
0
  6
Continuous
 62
     7
370
    15
100
AcDbLine
 10
2347.9211172682
 20
950.789481722
 30
0.0
 11
2332.9630042072
 21
940.3575596423
 31
0.0
  0
LINE
  5
F4
330
1F
100
AcDbEntity
  8
0
  6
Continuous
 62
     7
370
    15
100
AcDbLine
 10
2339.8274273825
 20
930.5148060732
 30
0.0
 11
2355.4687043849
 21
941.4231746225
 31
0.0
  0
LINE
  5
F5
330
1F
100
AcDbEntity
  8
0
  6
Continuous
 62
     7
370
    15
100
AcDbLine
 10
2273.6521644993
 20
1025.132874868
 30
0.0
 11
2264.3182569293
 21
1016.0226949356
 31
0.0
  0
SPLINE
  5
F6
330
1F
100
AcDbEntity
  8
0
  6
Continuous
 62
     7
370
    15
100
AcDbSpline
210
0.0
220
0.0
230
1.0
 70
     8
 71
     3
 72
    11
 73
     7
 74
     0
 42
0.000000001
 43
0.00000001
 40
0.0
 40
0.0
 40
0.0
 40
0.0
 40
0.1321591289137814
 40
0.4128189507923475
 40
0.6994212229475778
 40
1.0
 40
1.0
 40
1.0
 40
1.0
 10
2331.403192593092
 20
920.669237758175
 30
0.0
 10
2331.408128057773
 20
920.9064762661098
 30
0.0
 10
2331.4235447253
 20
921.6475264889597
 30
0.0
 10
2331.602936774897
 20
922.7797327071264
 30
0.0
 10
2331.986340659944
 20
924.0013942658231
 30
0.0
 10
2332.373095356033
 20
924.6528447716726
 30
0.0
 10
2332.571075610549
 20
924.9863231709204
 30
0.0
  0
SPLINE
  5
F7
330
1F
100
AcDbEntity
  8
0
  6
Continuous
 62
     7
370
    15
100
AcDbSpline
210
0.0
220
0.0
230
1.0
 70
     8
 71
     3
 72
    14
 73
    10
 74
     0
 42
0.000000001
 43
0.00000001
 40
0.0
 40
0.0
 40
0.0
 40
0.0
 40
0.0660214591669665
 40
0.2225481969108908
 40
0.378874475923798
 40
0.5356957487145745
 40
0.6936210081982231
 40
0.8530963108608771
 40
1.0
 40
1.0
 40
1.0
 40
1.0
 10
2324.955006435757
 20
934.4376087039504
 30
0.0
 10
2324.712221808426
 20
934.2134879361247
 30
0.0
 10
2323.893832125256
 20
933.4580112562807
 30
0.0
 10
2322.739017900858
 20
931.9392662941808
 30
0.0
 10
2321.510739636105
 20
929.9224450370873
 30
0.0
 10
2320.558268681161
 20
927.7322866351794
 30
0.0
 10
2319.879428647293
 20
925.4077046980888
 30
0.0
 10
2319.47416445029
 20
923.043039178161
 30
0.0
 10
2319.426193541459
 20
921.4385594046614
 30
0.0
 10
2319.403192279403
 20
920.6692377338444
 30
0.0
  0
LINE
  5
F8
330
1F
100
AcDbEntity
  8
0
  6
Continuous
 62
     7
370
    15
100
AcDbLine
 10
2331.4031925931
 20
573.516479952
 30
0.0
 11
2331.4031925931
 21
920.6692377582
 31
0.0
  0
LINE
  5
F9
330
1F
100
AcDbEntity
  8
0
  6
Continuous
 62
     7
370
    15
100
AcDbLine
 10
2319.4031922794
 20
920.6692377338
 30
0.0
 11
2319.4031922794
 21
573.5164799277
 31
0.0
  0
LWPOLYLINE
  5
FA
330
1F
100
AcDbEntity
  8
0
  6
Continuous
 62
     7
370
    15
100
AcDbPolyline
 90
       26
 70
   128
 43
0.0
 10
2322.6030200783
 20
1427.9507265774
 10
2324.0106677041
 20
1427.6779311217
 10
2325.5058127767
 20
1427.5940041065
 10
2326.9945097779
 20
1427.7042194087
 10
2328.3832184184
 20
1428.001651324
 10
2329.5846813239
 20
1428.467611163
 10
2330.5234055104
 20
1429.0728212865
 10
2331.1404083192
 20
1429.7792537391
 10
2331.3969205878
 20
1430.5425210702
 10
2331.2768248824
 20
1431.3146641566
 10
2330.7876671808
 20
1432.0471667028
 10
2329.9601829244
 20
1432.6940025691
 10
2328.8463665446
 20
1433.2145288186
 10
2327.5162027837
 20
1433.5760388268
 10
2326.0532708201
 20
1433.755817564
 10
2324.5494918764
 20
1433.7425690826
 10
2323.0993540018
 20
1433.5371255199
 10
2321.7939751141
 20
1433.1523958837
 10
2320.715376454
 20
1432.6125540187
 10
2319.9313308092
 20
1431.9515202296
 10
2319.4911018305
 20
1431.21082979
 10
2319.4223517995
 20
1430.4370228629
 10
2319.7293996355
 20
1429.678720673
 10
2320.3929524779
 20
1428.9835699803
 10
2321.3713176279
 20
1428.395249918
 10
2322.6030200783
 20
1427.9507265774
  0
LINE
  5
FB
330
1F
100
AcDbEntity
  8
0
  6
Continuous
 62
     7
370
    15
100
AcDbLine
 10
2344.1851894544
 20
1066.9302321047
 30
0.0
 11
2341.6836776612
 21
1070.0345689585
 31
0.0
  0
LINE
  5
FC
330
1F
100
AcDbEntity
  8
0
  6
Continuous
 62
     7
370
    15
100
AcDbLine
 10
2344.1851894544
 20
1066.9302321047
 30
0.0
 11
2267.8890682318
 21
1013.7206362299
 31
0.0
  0
ARC
  5
FD
330
1F
100
AcDbEntity
  8
0
  6
Continuous
 62
     7
370
    15
100
AcDbCircle
 10
2269.6061702049
 20
1011.9120094324
 30
0.0
 40
2.493906589751671
100
AcDbArc
 50
133.5129858118
 51
226.4870141882
  0
LINE
  5
FE
330
1F
100
AcDbEntity
  8
0
  6
Continuous
 62
     7
370
    15
100
AcDbLine
 10
2344.1851894544
 20
915.4224593742
 30
0.0
 11
2267.8890682318
 21
1010.1033826349
 31
0.0
  0
LINE
  5
FF
330
1F
100
AcDbEntity
  8
0
  6
Continuous
 62
     7
370
    15
100
AcDbLine
 10
2344.1851894544
 20
915.4224593742
 30
0.0
 11
2341.6836776612
 21
913.6778882205
 31
0.0
  0
LINE
  5
100
330
1F
100
AcDbEntity
  8
0
  6
Continuous
 62
     7
370
    15
100
AcDbLine
 10
2341.6836776612
 20
913.6778882205
 30
0.0
 11
2264.7621801377
 21
1009.1348952469
 31
0.0
  0
LWPOLYLINE
  5
101
330
1F
100
AcDbEntity
  8
0
  6
Continuous
 62
     7
370
    15
100
AcDbPolyline
 90
        9
 70
   128
 43
0.0
 10
2264.7621801377
 20
1016.3887915292
 10
2264.1022818209
 20
1015.7915522343
 10
2263.6118306579
 20
1015.0381594002
 10
2263.3097712556
 20
1014.1577464519
 10
2263.2077734919
 20
1013.1842850347
 10
2263.3097712556
 20
1012.1553820043
 10
2263.6118306579
 20
1011.1107825097
 10
2264.1022818209
 20
1010.0908269871
 10
2264.7621801377
 20
1009.1348952469
  0
LINE
  5
102
330
1F
100
AcDbEntity
  8
0
  6
Continuous
 62
     7
370
    15
100
AcDbLine
 10
2341.6836776612
 20
1070.0345689585
 30
0.0
 11
2264.7621801377
 21
1016.3887915292
 31
0.0
  0
LINE
  5
103
330
1F
100
AcDbEntity
  8
0
  6
Continuous
 62
     7
370
    15
100
AcDbLine
 10
2353.5190970244
 20
1076.0404120372
 30
0.0
 11
2351.0175852312
 21
1079.144748891
 31
0.0
  0
LINE
  5
104
330
1F
100
AcDbEntity
  8
0
  6
Continuous
 62
     7
370
    15
100
AcDbLine
 10
2353.5190970244
 20
1076.0404120372
 30
0.0
 11
2344.1851894544
 21
1066.9302321047
 31
0.0
  0
LINE
  5
105
330
1F
100
AcDbEntity
  8
0
  6
Continuous
 62
     7
370
    15
100
AcDbLine
 10
2351.0175852312
 20
1079.144748891
 30
0.0
 11
2341.6836776612
 21
1070.0345689585
 31
0.0
  0
LWPOLYLINE
  5
106
330
1F
100
AcDbEntity
  8
0
  6
Continuous
 62
     7
370
    15
100
AcDbPolyline
 90
       15
 70
   128
 43
0.0
 10
2338.561238149
 20
1069.6637641545
 10
2338.5708754134
 20
1069.6225478434
 10
2338.4089095552
 20
1069.3382338706
 10
2337.9629619497
 20
1068.8377918662
 10
2337.2610526621
 20
1068.1527068835
 10
2336.3472852857
 20
1067.3260253816
 10
2335.2790753264
 20
1066.4096500437
 10
2334.1235424615
 20
1065.4612053288
 10
2332.9532926658
 20
1064.540262692
 10
2331.8418577342
 20
1063.704708942
 10
2330.8590727575
 20
1063.0070338497
 10
2330.0666894331
 20
1062.4910806846
 10
2329.514496958
 20
1062.1892065962
 10
2329.237190988
 20
1062.1205094008
 10
2329.2174149749
 20
1062.1342632112
  0
LINE
  5
107
330
1F
100
AcDbEntity
  8
0
  6
Continuous
 62
     7
370
    15
100
AcDbLine
 10
2351.0175852312
 20
1079.144748891
 30
0.0
 11
2338.1517145594
 21
1070.1719569117
 31
0.0
  0
LINE
  5
108
330
1F
100
AcDbEntity
  8
0
  6
Continuous
 62
     7
370
    15
100
AcDbLine
 10
2328.285286463
 20
1063.2910161952
 30
0.0
 11
2274.0960877077
 21
1025.4989714617
 31
0.0
  0
LINE
  5
109
330
1F
100
AcDbEntity
  8
0
  6
Continuous
 62
     7
370
    15
100
AcDbLine
 10
2274.0960877077
 20
1025.4989714617
 30
0.0
 11
2264.7621801377
 21
1016.3887915292
 31
0.0
  0
LINE
  5
10A
330
1F
100
AcDbEntity
  8
0
  6
Continuous
 62
     7
370
    15
100
AcDbLine
 10
2367.3241768357
 20
1038.215549586
 30
0.0
 11
2364.8226650426
 21
1041.3198353487
 31
0.0
  0
LINE
  5
10B
330
1F
100
AcDbEntity
  8
0
  6
Continuous
 62
     7
370
    15
100
AcDbLine
 10
2367.3241768357
 20
1038.215549586
 30
0.0
 11
2314.61468923
 21
1001.4554797183
 31
0.0
  0
LWPOLYLINE
  5
10C
330
1F
100
AcDbEntity
  8
0
  6
Continuous
 62
     7
370
    15
100
AcDbPolyline
 90
        9
 70
   128
 43
0.0
 10
2314.61468923
 20
1001.4554797183
 10
2314.0508446006
 20
1001.2030057651
 10
2313.6170530503
 20
1000.7857211913
 10
2313.3439064129
 20
1000.2329148803
 10
2313.2506659997
 20
999.5836991406
 10
2313.3439064129
 20
998.8837763625
 10
2313.6170530503
 20
998.1825503362
 10
2314.0508446006
 20
997.5294497201
 10
2314.61468923
 20
996.9705195354
  0
LINE
  5
10D
330
1F
100
AcDbEntity
  8
0
  6
Continuous
 62
     7
370
    15
100
AcDbLine
 10
2367.3241768357
 20
931.5598055151
 30
0.0
 11
2314.61468923
 21
996.9705195354
 31
0.0
  0
LINE
  5
10E
330
1F
100
AcDbEntity
  8
0
  6
Continuous
 62
     7
370
    15
100
AcDbLine
 10
2367.3241768357
 20
931.5598055151
 30
0.0
 11
2364.8226650426
 21
929.8152343613
 31
0.0
  0
LINE
  5
10F
330
1F
100
AcDbEntity
  8
0
  6
Continuous
 62
     7
370
    15
100
AcDbLine
 10
2364.8226650426
 20
929.8152343613
 30
0.0
 11
2311.4877986649
 21
996.0020072733
 31
0.0
  0
LWPOLYLINE
  5
110
330
1F
100
AcDbEntity
  8
0
  6
Continuous
 62
     7
370
    15
100
AcDbPolyline
 90
        9
 70
   128
 43
0.0
 10
2311.4877986649
 20
1004.1236356892
 10
2310.6205384464
 20
1003.5456096481
 10
2309.9665409628
 20
1002.740000739
 10
2309.559961693
 20
1001.7489750253
 10
2309.4220334231
 20
1000.6242394372
 10
2309.559961693
 20
999.4245319525
 10
2309.9665409628
 20
998.2124816261
 10
2310.6205384464
 20
997.051438803
 10
2311.4877986649
 20
996.0020072733
  0
LINE
  5
111
330
1F
100
AcDbEntity
  8
0
  6
Continuous
 62
     7
370
    15
100
AcDbLine
 10
2364.8226650426
 20
1041.3198353487
 30
0.0
 11
2311.4877986649
 21
1004.1236356892
 31
0.0
  0
LINE
  5
112
330
1F
100
AcDbEntity
  8
0
  6
Continuous
 62
     7
370
    15
100
AcDbLine
 10
2376.6580844057
 20
1047.3257295185
 30
0.0
 11
2374.1565726126
 21
1050.4300152812
 31
0.0
  0
LINE
  5
113
330
1F
100
AcDbEntity
  8
0
  6
Continuous
 62
     7
370
    15
100
AcDbLine
 10
2376.6580844057
 20
1047.3257295185
 30
0.0
 11
2367.3241768357
 21
1038.215549586
 31
0.0
  0
LINE
  5
114
330
1F
100
AcDbEntity
  8
0
  6
Continuous
 62
     7
370
    15
100
AcDbLine
 10
2374.1565726126
 20
1050.4300152812
 30
0.0
 11
2364.8226650426
 21
1041.3198353487
 31
0.0
  0
LWPOLYLINE
  5
115
330
1F
100
AcDbEntity
  8
0
  6
Continuous
 62
     7
370
    15
100
AcDbPolyline
 90
       15
 70
   128
 43
0.0
 10
2361.7002271777
 20
1040.9490300969
 10
2361.7098619711
 20
1040.9078655486
 10
2361.5478961129
 20
1040.6235004846
 10
2361.1019501547
 20
1040.1230580325
 10
2360.4000408671
 20
1039.4379730498
 10
2359.4862718434
 20
1038.6112919956
 10
2358.4180618841
 20
1037.6949677489
 10
2357.2625290192
 20
1036.746523034
 10
2356.0922825182
 20
1035.8255795017
 10
2354.9808459392
 20
1034.9900261995
 10
2353.9980593152
 20
1034.2923515549
 10
2353.2056768145
 20
1033.7763470748
 10
2352.6534843393
 20
1033.4745240775
 10
2352.3761796049
 20
1033.4057754551
 10
2352.3564015326
 20
1033.4195809164
  0
LINE
  5
116
330
1F
100
AcDbEntity
  8
0
  6
Continuous
 62
     7
370
    15
100
AcDbLine
 10
2374.1565726126
 20
1050.4300152812
 30
0.0
 11
2361.2907035882
 21
1041.4572228541
 31
0.0
  0
LINE
  5
117
330
1F
100
AcDbEntity
  8
0
  6
Continuous
 62
     7
370
    15
100
AcDbLine
 10
2351.4242748739
 20
1034.5762823055
 30
0.0
 11
2320.8217062349
 21
1013.2338156217
 31
0.0
  0
LINE
  5
118
330
1F
100
AcDbEntity
  8
0
  6
Continuous
 62
     7
370
    15
100
AcDbLine
 10
2320.8217062349
 20
1013.2338156217
 30
0.0
 11
2311.4877986649
 21
1004.1236356892
 31
0.0
  0
LINE
  5
119
330
1F
100
AcDbEntity
  8
0
  6
Continuous
 62
     7
370
    15
100
AcDbLine
 10
2390.4631658645
 20
1009.5008666196
 30
0.0
 11
2387.9616540713
 21
1012.6051523823
 31
0.0
  0
LINE
  5
11A
330
1F
100
AcDbEntity
  8
0
  6
Continuous
 62
     7
370
    15
100
AcDbLine
 10
2390.4631658645
 20
1009.5008666196
 30
0.0
 11
2360.4550336885
 21
988.5728975865
 31
0.0
  0
ARC
  5
11B
330
1F
100
AcDbEntity
  8
0
  6
Continuous
 62
     7
370
    15
100
AcDbCircle
 10
2362.1741365486
 20
986.75456347
 30
0.0
 40
2.502329635068062
100
AcDbArc
 50
133.3931751679
 51
226.6068248322
  0
LINE
  5
11C
330
1F
100
AcDbEntity
  8
0
  6
Continuous
 62
     7
370
    15
100
AcDbLine
 10
2390.4631658645
 20
947.6971512082
 30
0.0
 11
2360.4550336885
 21
984.9362293536
 31
0.0
  0
LINE
  5
11D
330
1F
100
AcDbEntity
  8
0
  6
Continuous
 62
     7
370
    15
100
AcDbLine
 10
2390.4631658645
 20
947.6971512082
 30
0.0
 11
2387.9616540713
 21
945.9525800544
 31
0.0
  0
LINE
  5
11E
330
1F
100
AcDbEntity
  8
0
  6
Continuous
 62
     7
370
    15
100
AcDbLine
 10
2387.9616540713
 20
945.9525800544
 30
0.0
 11
2357.3281422997
 21
983.967742861
 31
0.0
  0
LWPOLYLINE
  5
11F
330
1F
100
AcDbEntity
  8
0
  6
Continuous
 62
     7
370
    15
100
AcDbPolyline
 90
        9
 70
   128
 43
0.0
 10
2357.3281422997
 20
991.2410537812
 10
2356.6682110358
 20
990.6410645184
 10
2356.1778356512
 20
989.8851476228
 10
2355.8758652062
 20
989.002411396
 10
2355.7739003896
 20
988.0267951961
 10
2355.8758652062
 20
986.995729746
 10
2356.1778356512
 20
985.9488808718
 10
2356.6682110358
 20
984.9264424777
 10
2357.3281422997
 20
983.967742861
  0
LINE
  5
120
330
1F
100
AcDbEntity
  8
0
  6
Continuous
 62
     7
370
    15
100
AcDbLine
 10
2387.9616540713
 20
1012.6051523823
 30
0.0
 11
2357.3281422997
 21
991.2410537812
 31
0.0
  0
LINE
  5
121
330
1F
100
AcDbEntity
  8
0
  6
Continuous
 62
     7
370
    15
100
AcDbLine
 10
2399.7970734344
 20
1018.6110465521
 30
0.0
 11
2397.2955616413
 21
1021.7153323148
 31
0.0
  0
LINE
  5
122
330
1F
100
AcDbEntity
  8
0
  6
Continuous
 62
     7
370
    15
100
AcDbLine
 10
2399.7970734344
 20
1018.6110465521
 30
0.0
 11
2390.4631658645
 21
1009.5008666196
 31
0.0
  0
LINE
  5
123
330
1F
100
AcDbEntity
  8
0
  6
Continuous
 62
     7
370
    15
100
AcDbLine
 10
2397.2955616413
 20
1021.7153323148
 30
0.0
 11
2387.9616540713
 21
1012.6051523823
 31
0.0
  0
LWPOLYLINE
  5
124
330
1F
100
AcDbEntity
  8
0
  6
Continuous
 62
     7
370
    15
100
AcDbPolyline
 90
       15
 70
   128
 43
0.0
 10
2384.8392129117
 20
1012.234348026
 10
2384.8488509998
 20
1012.1931314911
 10
2384.6868851416
 20
1011.9088175182
 10
2384.2409391835
 20
1011.4083750661
 10
2383.5390298958
 20
1010.7232900834
 10
2382.6252608721
 20
1009.8966090292
 10
2381.5570509128
 20
1008.9802336914
 10
2380.4015213426
 20
1008.031788081
 10
2379.2312682522
 20
1007.1108463396
 10
2378.1198316732
 20
1006.2752930373
 10
2377.1370483439
 20
1005.5776174973
 10
2376.3446658432
 20
1005.0616641084
 10
2375.792473368
 20
1004.7597900199
 10
2375.5151653388
 20
1004.6910933842
 10
2375.4953905613
 20
1004.7048468588
  0
LINE
  5
125
330
1F
100
AcDbEntity
  8
0
  6
Continuous
 62
     7
370
    15
100
AcDbLine
 10
2397.2955616413
 20
1021.7153323148
 30
0.0
 11
2384.4296893221
 21
1012.7425407832
 31
0.0
  0
LINE
  5
126
330
1F
100
AcDbEntity
  8
0
  6
Continuous
 62
     7
370
    15
100
AcDbLine
 10
2374.5632622553
 20
1005.8615997868
 30
0.0
 11
2366.6620498697
 21
1000.3512337137
 31
0.0
  0
LINE
  5
127
330
1F
100
AcDbEntity
  8
0
  6
Continuous
 62
     7
370
    15
100
AcDbLine
 10
2366.6620498697
 20
1000.3512337137
 30
0.0
 11
2357.3281422997
 21
991.2410537812
 31
0.0
  0
LWPOLYLINE
  5
128
330
1F
100
AcDbEntity
  8
0
  6
Continuous
 62
     7
370
    15
100
AcDbPolyline
 90
       11
 70
   128
 43
0.0
 10
2385.1408280859
 20
996.0896362946
 10
2386.1619494114
 20
996.8263059862
 10
2387.2948553756
 20
997.6883789271
 10
2388.468361479
 20
998.6217571476
 10
2389.6087376225
 20
999.5677401914
 10
2390.6443166076
 20
1000.4669232108
 10
2391.5100406342
 20
1001.2627709363
 10
2392.1515038134
 20
1001.9053334936
 10
2392.5284061761
 20
1002.3542158532
 10
2392.6170685076
 20
1002.5811404695
 10
2392.612906677
 20
1002.5874167403
  0
ARC
  5
129
330
1F
100
AcDbEntity
  8
0
  6
Continuous
 62
     7
370
    15
100
AcDbCircle
 10
2382.446869075
 20
998.7634684939
 30
0.0
 40
3.795628246135598
100
AcDbArc
 50
282.5107342674
 51
315.2148324913
  0
LINE
  5
12A
330
1F
100
AcDbEntity
  8
0
  6
Continuous
 62
     7
370
    15
100
AcDbLine
 10
2399.7970734344
 20
956.8073311406
 30
0.0
 11
2390.4631658645
 21
947.6971512082
 31
0.0
  0
LINE
  5
12B
330
1F
100
AcDbEntity
  8
0
  6
Continuous
 62
     7
370
    15
100
AcDbLine
 10
2369.7889412585
 20
994.046409286
 30
0.0
 11
2360.4550336885
 21
984.9362293536
 31
0.0
  0
LINE
  5
12C
330
1F
100
AcDbEntity
  8
0
  6
Continuous
 62
     7
370
    15
100
AcDbLine
 10
2378.9209228678
 20
972.3673165562
 30
0.0
 11
2379.2409789699
 21
972.632251924
 31
0.0
  0
LWPOLYLINE
  5
12D
330
1F
100
AcDbEntity
  8
0
  6
Continuous
 62
     7
370
    15
100
AcDbPolyline
 90
       14
 70
   128
 43
0.0
 10
2386.1054021452
 20
962.7894983549
 10
2386.0449170695
 20
962.7486198993
 10
2385.1311480458
 20
962.3753217322
 10
2384.0629380864
 20
962.337279942
 10
2382.9074085163
 20
962.6368890042
 10
2381.7371554259
 20
963.2553236868
 10
2380.6257254363
 20
964.1537001262
 10
2379.6429355176
 20
965.2755866812
 10
2378.8505563116
 20
966.5505050188
 10
2378.2983638364
 20
967.8983131525
 10
2378.0210558072
 20
969.234367754
 10
2378.0360592109
 20
970.4746851366
 10
2378.3424332121
 20
971.5413297193
 10
2378.9209228678
 20
972.3673165562
  0
LINE
  5
12E
330
1F
100
AcDbEntity
  8
0
  6
Continuous
 62
     7
370
    15
100
AcDbLine
 10
2399.7970734344
 20
956.8073311406
 30
0.0
 11
2391.7535491616
 21
966.7890810948
 31
0.0
  0
LINE
  5
12F
330
1F
100
AcDbEntity
  8
0
  6
Continuous
 62
     7
370
    15
100
AcDbLine
 10
2384.2371791686
 20
976.1166502865
 30
0.0
 11
2369.7889412585
 21
994.046409286
 31
0.0
  0
LWPOLYLINE
  5
130
330
1F
100
AcDbEntity
  8
0
  6
Continuous
 62
     7
370
    15
100
AcDbPolyline
 90
       26
 70
   128
 43
0.0
 10
2385.1408280859
 20
968.6516437713
 10
2386.1619494114
 20
967.5794823008
 10
2387.2948553756
 20
966.7464274394
 10
2388.468361479
 20
966.2048296337
 10
2389.6087376225
 20
965.9886933234
 10
2390.6443166076
 20
966.1115973722
 10
2391.5100406342
 20
966.5658241066
 10
2392.1515038134
 20
967.3228563911
 10
2392.5284061761
 20
968.3350953434
 10
2392.6170685076
 20
969.5389594317
 10
2392.4119153801
 20
970.8587926948
 10
2391.9258372391
 20
972.2116774088
 10
2391.1893735941
 20
973.5125790221
 10
2390.2488051599
 20
974.6797992566
 10
2389.1632325206
 20
975.6399771122
 10
2388.0008596923
 20
976.332751933
 10
2386.8347198024
 20
976.714640878
 10
2385.7380989515
 20
976.7616322438
 10
2384.7798903855
 20
976.4707619999
 10
2384.0203117006
 20
975.8603262517
 10
2383.5070759726
 20
974.968654214
 10
2383.2724486107
 20
973.8518152513
 10
2383.3311573602
 20
972.5799210813
 10
2383.6795193048
 20
971.2329572806
 10
2384.2956453465
 20
969.8955093721
 10
2385.1408280859
 20
968.6516437713
  0
LINE
  5
131
330
1F
100
AcDbEntity
  8
0
  6
Continuous
 62
     7
370
    15
100
AcDbLine
 10
2376.6580844057
 20
940.6699854475
 30
0.0
 11
2367.3241768357
 21
931.5598055151
 31
0.0
  0
LINE
  5
132
330
1F
100
AcDbEntity
  8
0
  6
Continuous
 62
     7
370
    15
100
AcDbLine
 10
2323.9485968
 20
1006.0806994678
 30
0.0
 11
2314.61468923
 21
996.9705195354
 31
0.0
  0
LINE
  5
133
330
1F
100
AcDbEntity
  8
0
  6
Continuous
 62
     7
370
    15
100
AcDbLine
 10
2355.7819371338
 20
956.2299699677
 30
0.0
 11
2356.1019932359
 21
956.4949053354
 31
0.0
  0
LWPOLYLINE
  5
134
330
1F
100
AcDbEntity
  8
0
  6
Continuous
 62
     7
370
    15
100
AcDbPolyline
 90
       14
 70
   128
 43
0.0
 10
2362.9664164112
 20
946.6521517663
 10
2362.9059313355
 20
946.6112733108
 10
2361.9921623118
 20
946.2379751436
 10
2360.9239523525
 20
946.1999333535
 10
2359.7684194876
 20
946.4995433111
 10
2358.5981696919
 20
947.1179770982
 10
2357.4867364076
 20
948.0163544331
 10
2356.5039497836
 20
949.1382400927
 10
2355.7115672829
 20
950.4131593257
 10
2355.1593748077
 20
951.7609674594
 10
2354.8820667785
 20
953.0970220609
 10
2354.8970734769
 20
954.3373385481
 10
2355.2034441834
 20
955.4039840262
 10
2355.7819371338
 20
956.2299699677
  0
LINE
  5
135
330
1F
100
AcDbEntity
  8
0
  6
Continuous
 62
     7
370
    15
100
AcDbLine
 10
2376.6580844057
 20
940.6699854475
 30
0.0
 11
2368.6457775504
 21
950.6130052142
 31
0.0
  0
LINE
  5
136
330
1F
100
AcDbEntity
  8
0
  6
Continuous
 62
     7
370
    15
100
AcDbLine
 10
2361.0981901399
 20
959.9793045934
 30
0.0
 11
2323.9485968
 21
1006.0806994678
 31
0.0
  0
LWPOLYLINE
  5
137
330
1F
100
AcDbEntity
  8
0
  6
Continuous
 62
     7
370
    15
100
AcDbPolyline
 90
        3
 70
   128
 43
0.0
 10
2369.3322016117
 20
994.7639139801
 10
2369.4589723318
 20
994.5257855354
 10
2369.7889412585
 20
994.046409286
  0
LINE
  5
138
330
1F
100
AcDbEntity
  8
0
  6
Continuous
 62
     7
370
    15
100
AcDbLine
 10
2366.6620498697
 20
1000.3512337137
 30
0.0
 11
2366.2234476248
 21
999.9885446556
 31
0.0
  0
LINE
  5
139
330
1F
100
AcDbEntity
  8
0
  6
Continuous
 62
     7
370
    15
100
AcDbLine
 10
2353.5190970244
 20
924.5326393067
 30
0.0
 11
2344.1851894544
 21
915.4224593742
 31
0.0
  0
LINE
  5
13A
330
1F
100
AcDbEntity
  8
0
  6
Continuous
 62
     7
370
    15
100
AcDbLine
 10
2277.2229758018
 20
1019.2135625674
 30
0.0
 11
2267.8890682318
 21
1010.1033826349
 31
0.0
  0
LINE
  5
13B
330
1F
100
AcDbEntity
  8
0
  6
Continuous
 62
     7
370
    15
100
AcDbLine
 10
2332.6429481051
 20
940.0926242746
 30
0.0
 11
2332.9630042072
 21
940.3575596423
 31
0.0
  0
LWPOLYLINE
  5
13C
330
1F
100
AcDbEntity
  8
0
  6
Continuous
 62
     7
370
    15
100
AcDbPolyline
 90
       14
 70
   128
 43
0.0
 10
2339.8274273825
 20
930.5148060732
 10
2339.7669423068
 20
930.4739276177
 10
2338.8531749305
 20
930.1006290028
 10
2337.7849649711
 20
930.0625872127
 10
2336.6294321062
 20
930.3621971703
 10
2335.4591823105
 20
930.9806309574
 10
2334.3477473789
 20
931.87900874
 10
2333.3649624022
 20
933.0008939519
 10
2332.5725790778
 20
934.2758134088
 10
2332.0203866027
 20
935.6236215425
 10
2331.7430802209
 20
936.9596756962
 10
2331.7580852718
 20
938.1999926311
 10
2332.0644576257
 20
939.2666376616
 10
2332.6429481051
 20
940.0926242746
  0
LINE
  5
13D
330
1F
100
AcDbEntity
  8
0
  6
Continuous
 62
     7
370
    15
100
AcDbLine
 10
2353.5190970244
 20
924.5326393067
 30
0.0
 11
2345.5067901691
 21
934.4756590734
 31
0.0
  0
LINE
  5
13E
330
1F
100
AcDbEntity
  8
0
  6
Continuous
 62
     7
370
    15
100
AcDbLine
 10
2337.9592019349
 20
943.8419586765
 30
0.0
 11
2277.2229758018
 21
1019.2135625674
 31
0.0
  0
LWPOLYLINE
  5
13F
330
1F
100
AcDbEntity
  8
0
  6
Continuous
 62
     7
370
    15
100
AcDbPolyline
 90
        3
 70
   128
 43
0.0
 10
2322.9599873136
 20
1007.2755627549
 10
2323.3847521705
 20
1006.6396296526
 10
2323.9485968
 20
1006.0806994678
  0
LWPOLYLINE
  5
140
330
1F
100
AcDbEntity
  8
0
  6
Continuous
 62
     7
370
    15
100
AcDbPolyline
 90
        3
 70
   128
 43
0.0
 10
2320.8217062349
 20
1013.2338156217
 10
2319.9544460164
 20
1012.6557895805
 10
2319.8664236068
 20
1012.5728294944
  0
LWPOLYLINE
  5
141
330
1F
100
AcDbEntity
  8
0
  6
Continuous
 62
     7
370
    15
100
AcDbPolyline
 90
        3
 70
   128
 43
0.0
 10
2276.774664034
 20
1019.917536691
 10
2276.8956492359
 20
1019.6904835805
 10
2277.2229758018
 20
1019.2135625674
  0
LINE
  5
142
330
1F
100
AcDbEntity
  8
0
  6
Continuous
 62
     7
370
    15
100
AcDbLine
 10
2274.0960877077
 20
1025.4989714617
 30
0.0
 11
2273.6521644993
 21
1025.132874868
 31
0.0
  0
LWPOLYLINE
  5
143
330
1F
100
AcDbEntity
  8
0
  6
Continuous
 62
     7
370
    15
100
AcDbPolyline
 90
       10
 70
   128
 43
0.0
 10
2322.6030200783
 20
570.7834258752
 10
2324.0106677041
 20
570.5106304196
 10
2325.5058127767
 20
570.4267034043
 10
2326.9945097779
 20
570.5369187066
 10
2328.3832184184
 20
570.8343506218
 10
2329.5846813239
 20
571.3003104608
 10
2330.5234055104
 20
571.9055205843
 10
2331.1404083192
 20
572.611953037
 10
2331.3969205878
 20
573.3752203681
 10
2331.4031925931
 20
573.516479952
  0
LWPOLYLINE
  5
144
330
1F
100
AcDbEntity
  8
0
  6
Continuous
 62
     7
370
    15
100
AcDbPolyline
 90
        6
 70
   128
 43
0.0
 10
2319.4031922794
 20
573.5164799277
 10
2319.4223517995
 20
573.2697221607
 10
2319.7293996355
 20
572.5114199708
 10
2320.3929524779
 20
571.8162692782
 10
2321.3713176279
 20
571.2279492159
 10
2322.6030200783
 20
570.7834258752
  0
LWPOLYLINE
  5
145
330
1F
100
AcDbEntity
  8
0
  6
Continuous
 62
     8
370
    15
100
AcDbPolyline
 90
       10
 70
   128
 43
0.0
 10
2322.6030200783
 20
1080.7979943168
 10
2324.0106677041
 20
1080.5251988611
 10
2325.5058127767
 20
1080.4412718458
 10
2326.9945097779
 20
1080.5514871481
 10
2328.3832184184
 20
1080.8489190634
 10
2329.5846813239
 20
1081.3148789023
 10
2330.5234055104
 20
1081.9200890259
 10
2331.1404083192
 20
1082.6265214785
 10
2331.3969205878
 20
1083.3897888096
 10
2331.4031925931
 20
1083.5310483935
  0
LWPOLYLINE
  5
146
330
1F
100
AcDbEntity
  8
0
  6
Continuous
 62
     8
370
    15
100
AcDbPolyline
 90
        6
 70
   128
 43
0.0
 10
2319.4031922794
 20
1083.5310483692
 10
2319.4223517995
 20
1083.2842906022
 10
2319.7293996355
 20
1082.5259884123
 10
2320.3929524779
 20
1081.8308377197
 10
2321.3713176279
 20
1081.2425176574
 10
2322.6030200783
 20
1080.7979943168
  0
LWPOLYLINE
  5
147
330
1F
100
AcDbEntity
  8
0
  6
Continuous
 62
     8
370
    15
100
AcDbPolyline
 90
       11
 70
   128
 43
0.0
 10
2327.7838215034
 20
1067.2677701183
 10
2328.8049452999
 20
1068.0044391383
 10
2329.9378529115
 20
1068.8665116315
 10
2331.1113606622
 20
1069.7998894043
 10
2332.2517310399
 20
1070.7458740151
 10
2333.2873124961
 20
1071.6450563629
 10
2334.153033228
 20
1072.4409049839
 10
2334.7944988782
 20
1073.0834668696
 10
2335.1714028883
 20
1073.5322976903
 10
2335.2600635724
 20
1073.7592738455
 10
2335.2561244462
 20
1073.7652632623
  0
ARC
  5
148
330
1F
100
AcDbEntity
  8
0
  6
Continuous
 62
     8
370
    15
100
AcDbCircle
 10
2325.0900281705
 20
1069.9411982044
 30
0.0
 40
3.795225981727028
100
AcDbArc
 50
282.5098427106
 51
315.2174005878
  0
ARC
  5
149
330
1F
100
AcDbEntity
  8
0
  6
Continuous
 62
     8
370
    15
100
AcDbCircle
 10
2333.2933647565
 20
932.7048682811
 30
0.0
 40
6.84064492060238
100
AcDbArc
 50
216.3498556241
 51
256.6587025799
  0
ARC
  5
14A
330
1F
100
AcDbEntity
  8
0
  6
Continuous
 62
     8
370
    15
100
AcDbCircle
 10
2333.9336146125
 20
933.8420219617
 30
0.0
 40
8.048212053352055
100
AcDbArc
 50
184.1716120971
 51
220.1713070444
  0
LWPOLYLINE
  5
14B
330
1F
100
AcDbEntity
  8
0
  6
Continuous
 62
     8
370
    15
100
AcDbPolyline
 90
       10
 70
   128
 43
0.0
 10
2322.6030200783
 20
917.9361836814
 10
2324.0106677041
 20
917.6633882258
 10
2325.5058127767
 20
917.5794612105
 10
2326.9945097779
 20
917.6896765128
 10
2328.3832184184
 20
917.987108428
 10
2329.5846813239
 20
918.453068267
 10
2330.5234055104
 20
919.0582783905
 10
2331.1404083192
 20
919.7647108432
 10
2331.3969205878
 20
920.5279781742
 10
2331.4031918091
 20
920.6677574839
  0
LWPOLYLINE
  5
14C
330
1F
100
AcDbEntity
  8
0
  6
Continuous
 62
     8
370
    15
100
AcDbPolyline
 90
        6
 70
   128
 43
0.0
 10
2319.4031925053
 20
920.6688463649
 10
2319.4223517995
 20
920.4224799669
 10
2319.7293996355
 20
919.664177777
 10
2320.3929524779
 20
918.9690270844
 10
2321.3713176279
 20
918.3807070221
 10
2322.6030200783
 20
917.9361836814
  0
LINE
  5
14D
330
1F
100
AcDbEntity
  8
0
  6
Continuous
 62
     7
370
    15
100
AcDbLine
 10
1250.2891694121
 20
1299.0704210642
 30
0.0
 11
1250.2891694121
 21
1293.114182106
 31
0.0
  0
LINE
  5
14E
330
1F
100
AcDbEntity
  8
0
  6
Continuous
 62
     7
370
    15
100
AcDbLine
 10
1262.2891694121
 20
1293.114182106
 30
0.0
 11
1262.2891694121
 21
1299.0704210642
 31
0.0
  0
LINE
  5
14F
330
1F
100
AcDbEntity
  8
0
  6
Continuous
 62
     7
370
    15
100
AcDbLine
 10
1262.2891694121
 20
1331.080522332
 30
0.0
 11
1262.2891694121
 21
1337.0417106564
 31
0.0
  0
LINE
  5
150
330
1F
100
AcDbEntity
  8
0
  6
Continuous
 62
     7
370
    15
100
AcDbLine
 10
1250.2891694121
 20
1337.0417106564
 30
0.0
 11
1250.2891694121
 21
1331.080522332
 31
0.0
  0
LINE
  5
151
330
1F
100
AcDbEntity
  8
0
  6
Continuous
 62
     7
370
    15
100
AcDbLine
 10
1250.2891694121
 20
1276.2008699423
 30
0.0
 11
1250.2891694121
 21
1266.951231202
 31
0.0
  0
LINE
  5
152
330
1F
100
AcDbEntity
  8
0
  6
Continuous
 62
     7
370
    15
100
AcDbLine
 10
1262.2891694121
 20
1266.951231202
 30
0.0
 11
1262.2891694121
 21
1276.2008699423
 31
0.0
  0
LINE
  5
153
330
1F
100
AcDbEntity
  8
0
  6
Continuous
 62
     7
370
    15
100
AcDbLine
 10
1262.2891694121
 20
1353.9599721862
 30
0.0
 11
1262.2891694121
 21
1363.2046615603
 31
0.0
  0
LINE
  5
154
330
1F
100
AcDbEntity
  8
0
  6
Continuous
 62
     7
370
    15
100
AcDbLine
 10
1250.2891694121
 20
1363.2046615603
 30
0.0
 11
1250.2891694121
 21
1353.9599721862
 31
0.0
  0
LINE
  5
155
330
1F
100
AcDbEntity
  8
0
  6
Continuous
 62
     7
370
    15
100
AcDbLine
 10
1250.2891694121
 20
1250.0379190384
 30
0.0
 11
1250.2891694121
 21
1240.7882802981
 31
0.0
  0
LINE
  5
156
330
1F
100
AcDbEntity
  8
0
  6
Continuous
 62
     7
370
    15
100
AcDbLine
 10
1262.2891694121
 20
1240.7882802981
 30
0.0
 11
1262.2891694121
 21
1250.0379190384
 31
0.0
  0
LINE
  5
157
330
1F
100
AcDbEntity
  8
0
  6
Continuous
 62
     7
370
    15
100
AcDbLine
 10
1262.2891694121
 20
1380.1229230901
 30
0.0
 11
1262.2891694121
 21
1389.3676124642
 31
0.0
  0
LINE
  5
158
330
1F
100
AcDbEntity
  8
0
  6
Continuous
 62
     7
370
    15
100
AcDbLine
 10
1250.2891694121
 20
1389.3676124642
 30
0.0
 11
1250.2891694121
 21
1380.1229230901
 31
0.0
  0
LINE
  5
159
330
1F
100
AcDbEntity
  8
0
  6
Continuous
 62
     7
370
    15
100
AcDbLine
 10
1250.2891694121
 20
1223.8749681345
 30
0.0
 11
1250.2891694121
 21
1220.0754716981
 31
0.0
  0
LINE
  5
15A
330
1F
100
AcDbEntity
  8
0
  6
Continuous
 62
     7
370
    15
100
AcDbLine
 10
1262.2891694121
 20
1220.0754716981
 30
0.0
 11
1262.2891694121
 21
1223.8749681345
 31
0.0
  0
LINE
  5
15B
330
1F
100
AcDbEntity
  8
0
  6
Continuous
 62
     7
370
    15
100
AcDbLine
 10
1262.2891694121
 20
1406.285873994
 30
0.0
 11
1262.2891694121
 21
1410.0754716981
 31
0.0
  0
LINE
  5
15C
330
1F
100
AcDbEntity
  8
0
  6
Continuous
 62
     7
370
    15
100
AcDbLine
 10
1250.2891694121
 20
1410.0754716981
 30
0.0
 11
1250.2891694121
 21
1406.285873994
 31
0.0
  0
LINE
  5
15D
330
1F
100
AcDbEntity
  8
0
  6
Continuous
 62
     7
370
    15
100
AcDbLine
 10
1262.2891694121
 20
815.0754716981
 30
0.0
 11
1262.2891694121
 21
1220.0754716981
 31
0.0
  0
LINE
  5
15E
330
1F
100
AcDbEntity
  8
0
  6
Continuous
 62
     7
370
    15
100
AcDbLine
 10
1250.2891694121
 20
1220.0754716981
 30
0.0
 11
1250.2891694121
 21
815.0754716981
 31
0.0
  0
LINE
  5
15F
330
1F
100
AcDbEntity
  8
0
  6
Continuous
 62
     7
370
    15
100
AcDbLine
 10
1250.2891694121
 20
1815.0754716981
 30
0.0
 11
1250.2891694121
 21
1410.0754716981
 31
0.0
  0
LINE
  5
160
330
1F
100
AcDbEntity
  8
0
  6
Continuous
 62
     7
370
    15
100
AcDbLine
 10
1262.2891694121
 20
1410.0754716981
 30
0.0
 11
1262.2891694121
 21
1815.0754716981
 31
0.0
  0
LWPOLYLINE
  5
161
330
1F
100
AcDbEntity
  8
0
  6
Continuous
 62
     7
370
    15
100
AcDbPolyline
 90
       14
 70
   128
 43
0.0
 10
1262.2891694121
 20
1337.0417106564
 10
1262.1828929165
 20
1337.8367022457
 10
1261.7181317269
 20
1338.8481392025
 10
1260.9122488688
 20
1339.7460716102
 10
1259.8158809259
 20
1340.4740790733
 10
1258.4979167282
 20
1340.9864182054
 10
1257.0411688135
 20
1341.2508968545
 10
1255.5371700107
 20
1341.2508968545
 10
1254.080422096
 20
1340.9864182054
 10
1252.7624578983
 20
1340.4740790733
 10
1251.6660899554
 20
1339.7460716102
 10
1250.8602070973
 20
1338.8481392025
 10
1250.3954459077
 20
1337.8367022457
 10
1250.2891694121
 20
1337.0417106564
  0
LINE
  5
162
330
1F
100
AcDbEntity
  8
0
  6
Continuous
 62
     7
370
    15
100
AcDbLine
 10
1266.2891694121
 20
1351.1315450614
 30
0.0
 11
1266.2891694121
 21
1317.2017414078
 31
0.0
  0
LINE
  5
163
330
1F
100
AcDbEntity
  8
0
  6
Continuous
 62
     7
370
    15
100
AcDbLine
 10
1266.2891694121
 20
1317.2017414078
 30
0.0
 11
1246.2891694121
 21
1317.2017414078
 31
0.0
  0
LINE
  5
164
330
1F
100
AcDbEntity
  8
0
  6
Continuous
 62
     7
370
    15
100
AcDbLine
 10
1246.2891694121
 20
1351.1315450614
 30
0.0
 11
1246.2891694121
 21
1317.2017414078
 31
0.0
  0
LINE
  5
165
330
1F
100
AcDbEntity
  8
0
  6
Continuous
 62
     7
370
    15
100
AcDbLine
 10
1266.2891694121
 20
1351.1315450614
 30
0.0
 11
1246.2891694121
 21
1351.1315450614
 31
0.0
  0
LINE
  5
166
330
1F
100
AcDbEntity
  8
0
  6
Continuous
 62
     7
370
    15
100
AcDbLine
 10
1266.2891694121
 20
1351.1315450614
 30
0.0
 11
1266.2891694121
 21
1353.9599721862
 31
0.0
  0
LINE
  5
167
330
1F
100
AcDbEntity
  8
0
  6
Continuous
 62
     7
370
    15
100
AcDbLine
 10
1246.2891694121
 20
1351.1315450614
 30
0.0
 11
1246.2891694121
 21
1353.9599721862
 31
0.0
  0
LINE
  5
168
330
1F
100
AcDbEntity
  8
0
  6
Continuous
 62
     7
370
    15
100
AcDbLine
 10
1266.2891694121
 20
1353.9599721862
 30
0.0
 11
1246.2891694121
 21
1353.9599721862
 31
0.0
  0
LINE
  5
169
330
1F
100
AcDbEntity
  8
0
  6
Continuous
 62
     7
370
    15
100
AcDbLine
 10
1266.2891694121
 20
1276.2008699423
 30
0.0
 11
1246.2891694121
 21
1276.2008699423
 31
0.0
  0
LINE
  5
16A
330
1F
100
AcDbEntity
  8
0
  6
Continuous
 62
     7
370
    15
100
AcDbLine
 10
1266.2891694121
 20
1279.029297067
 30
0.0
 11
1246.2891694121
 21
1279.029297067
 31
0.0
  0
LINE
  5
16B
330
1F
100
AcDbEntity
  8
0
  6
Continuous
 62
     7
370
    15
100
AcDbLine
 10
1266.2891694121
 20
1279.029297067
 30
0.0
 11
1266.2891694121
 21
1276.2008699423
 31
0.0
  0
LINE
  5
16C
330
1F
100
AcDbEntity
  8
0
  6
Continuous
 62
     7
370
    15
100
AcDbLine
 10
1246.2891694121
 20
1279.029297067
 30
0.0
 11
1246.2891694121
 21
1276.2008699423
 31
0.0
  0
LINE
  5
16D
330
1F
100
AcDbEntity
  8
0
  6
Continuous
 62
     7
370
    15
100
AcDbLine
 10
1266.2891694121
 20
1312.9591007207
 30
0.0
 11
1246.2891694121
 21
1312.9591007207
 31
0.0
  0
LWPOLYLINE
  5
16E
330
1F
100
AcDbEntity
  8
0
  6
Continuous
 62
     7
370
    15
100
AcDbPolyline
 90
       14
 70
   128
 43
0.0
 10
1262.2891694121
 20
1293.114182106
 10
1262.1828929165
 20
1292.3191905167
 10
1261.7181317269
 20
1291.3077535598
 10
1260.9122488687
 20
1290.4098211521
 10
1259.8158809259
 20
1289.681813689
 10
1258.4979167282
 20
1289.169474557
 10
1257.0411688135
 20
1288.9049959079
 10
1255.5371700107
 20
1288.9049959079
 10
1254.080422096
 20
1289.169474557
 10
1252.7624578983
 20
1289.681813689
 10
1251.6660899554
 20
1290.4098211521
 10
1250.8602070973
 20
1291.3077535598
 10
1250.3954459077
 20
1292.3191905167
 10
1250.2891694121
 20
1293.114182106
  0
LINE
  5
16F
330
1F
100
AcDbEntity
  8
0
  6
Continuous
 62
     7
370
    15
100
AcDbLine
 10
1266.2891694121
 20
1279.029297067
 30
0.0
 11
1266.2891694121
 21
1312.9591007207
 31
0.0
  0
LINE
  5
170
330
1F
100
AcDbEntity
  8
0
  6
Continuous
 62
     7
370
    15
100
AcDbLine
 10
1246.2891694121
 20
1279.029297067
 30
0.0
 11
1246.2891694121
 21
1312.9591007207
 31
0.0
  0
LWPOLYLINE
  5
171
330
1F
100
AcDbEntity
  8
0
  6
Continuous
 62
     7
370
    15
100
AcDbPolyline
 90
       26
 70
   128
 43
0.0
 10
1250.2891694121
 20
1299.0704210642
 10
1250.4776704453
 20
1298.0153192305
 10
1251.0313293318
 20
1297.0265133253
 10
1251.9153576476
 20
1296.1661336604
 10
1253.0742086422
 20
1295.4882410542
 10
1254.4350674458
 20
1295.0354299924
 10
1255.9124262949
 20
1294.8361522594
 10
1257.4134572996
 20
1294.9029292079
 10
1258.8438451615
 20
1295.2315649966
 10
1260.1137133506
 20
1295.8014102305
 10
1261.1432713783
 20
1296.5766594376
 10
1261.8678283274
 20
1297.5086008591
 10
1262.24185762
 20
1298.5386771881
 10
1262.24185762
 20
1299.6021649404
 10
1261.8678283274
 20
1300.6322412694
 10
1261.1432713783
 20
1301.5641826909
 10
1260.1137133506
 20
1302.339431898
 10
1258.8438451615
 20
1302.9092771318
 10
1257.4134572996
 20
1303.2379129206
 10
1255.9124262949
 20
1303.3046898691
 10
1254.4350674458
 20
1303.105412136
 10
1253.0742086422
 20
1302.6526010742
 10
1251.9153576476
 20
1301.9747084681
 10
1251.0313293318
 20
1301.1143288031
 10
1250.4776704453
 20
1300.125522898
 10
1250.2891694121
 20
1299.0704210642
  0
LWPOLYLINE
  5
172
330
1F
100
AcDbEntity
  8
0
  6
Continuous
 62
     7
370
    15
100
AcDbPolyline
 90
       26
 70
   128
 43
0.0
 10
1250.2891694121
 20
1331.080522332
 10
1250.4776704453
 20
1332.1356241658
 10
1251.0313293318
 20
1333.1244300709
 10
1251.9153576476
 20
1333.9848097359
 10
1253.0742086422
 20
1334.662702342
 10
1254.4350674458
 20
1335.1155134038
 10
1255.9124262949
 20
1335.3147911369
 10
1257.4134572996
 20
1335.2480141884
 10
1258.8438451615
 20
1334.9193783996
 10
1260.1137133506
 20
1334.3495331658
 10
1261.1432713783
 20
1333.5742839587
 10
1261.8678283274
 20
1332.6423425371
 10
1262.24185762
 20
1331.6122662082
 10
1262.24185762
 20
1330.5487784558
 10
1261.8678283274
 20
1329.5187021269
 10
1261.1432713783
 20
1328.5867607053
 10
1260.1137133506
 20
1327.8115114982
 10
1258.8438451615
 20
1327.2416662644
 10
1257.4134572996
 20
1326.9130304756
 10
1255.9124262949
 20
1326.8462535271
 10
1254.4350674458
 20
1327.0455312602
 10
1253.0742086422
 20
1327.498342322
 10
1251.9153576476
 20
1328.1762349281
 10
1251.0313293318
 20
1329.0366145931
 10
1250.4776704453
 20
1330.0254204982
 10
1250.2891694121
 20
1331.080522332
  0
LWPOLYLINE
  5
173
330
1F
100
AcDbEntity
  8
0
  6
Continuous
 62
     7
370
    15
100
AcDbPolyline
 90
       14
 70
   128
 43
0.0
 10
1262.2891694121
 20
1266.951231202
 10
1262.1828929165
 20
1266.1562396128
 10
1261.7181317269
 20
1265.1448026559
 10
1260.9122488687
 20
1264.2468702482
 10
1259.8158809259
 20
1263.5188627851
 10
1258.4979167282
 20
1263.0065236531
 10
1257.0411688135
 20
1262.742045004
 10
1255.5371700107
 20
1262.742045004
 10
1254.080422096
 20
1263.0065236531
 10
1252.7624578983
 20
1263.5188627851
 10
1251.6660899554
 20
1264.2468702482
 10
1250.8602070973
 20
1265.1448026559
 10
1250.3954459077
 20
1266.1562396128
 10
1250.2891694121
 20
1266.951231202
  0
LWPOLYLINE
  5
174
330
1F
100
AcDbEntity
  8
0
  6
Continuous
 62
     7
370
    15
100
AcDbPolyline
 90
       14
 70
   128
 43
0.0
 10
1262.2891694121
 20
1363.2046615603
 10
1262.1828929165
 20
1363.9996531496
 10
1261.7181317269
 20
1365.0110901064
 10
1260.9122488688
 20
1365.9090225141
 10
1259.8158809259
 20
1366.6370299772
 10
1258.4979167282
 20
1367.1493691093
 10
1257.0411688135
 20
1367.4138477584
 10
1255.5371700107
 20
1367.4138477584
 10
1254.080422096
 20
1367.1493691093
 10
1252.7624578983
 20
1366.6370299772
 10
1251.6660899554
 20
1365.9090225141
 10
1250.8602070973
 20
1365.0110901064
 10
1250.3954459077
 20
1363.9996531496
 10
1250.2891694121
 20
1363.2046615603
  0
LINE
  5
175
330
1F
100
AcDbEntity
  8
0
  6
Continuous
 62
     7
370
    15
100
AcDbLine
 10
1266.2891694121
 20
1252.8663461631
 30
0.0
 11
1266.2891694121
 21
1276.2008699423
 31
0.0
  0
LINE
  5
176
330
1F
100
AcDbEntity
  8
0
  6
Continuous
 62
     7
370
    15
100
AcDbLine
 10
1266.2891694121
 20
1252.8663461631
 30
0.0
 11
1246.2891694121
 21
1252.8663461631
 31
0.0
  0
LINE
  5
177
330
1F
100
AcDbEntity
  8
0
  6
Continuous
 62
     7
370
    15
100
AcDbLine
 10
1246.2891694121
 20
1252.8663461631
 30
0.0
 11
1246.2891694121
 21
1276.2008699423
 31
0.0
  0
LINE
  5
178
330
1F
100
AcDbEntity
  8
0
  6
Continuous
 62
     7
370
    15
100
AcDbLine
 10
1266.2891694121
 20
1377.2944959653
 30
0.0
 11
1266.2891694121
 21
1353.9599721862
 31
0.0
  0
LINE
  5
179
330
1F
100
AcDbEntity
  8
0
  6
Continuous
 62
     7
370
    15
100
AcDbLine
 10
1246.2891694121
 20
1377.2944959653
 30
0.0
 11
1246.2891694121
 21
1353.9599721862
 31
0.0
  0
LINE
  5
17A
330
1F
100
AcDbEntity
  8
0
  6
Continuous
 62
     7
370
    15
100
AcDbLine
 10
1266.2891694121
 20
1377.2944959653
 30
0.0
 11
1246.2891694121
 21
1377.2944959653
 31
0.0
  0
LINE
  5
17B
330
1F
100
AcDbEntity
  8
0
  6
Continuous
 62
     7
370
    15
100
AcDbLine
 10
1266.2891694121
 20
1252.8663461631
 30
0.0
 11
1266.2891694121
 21
1250.0379190384
 31
0.0
  0
LINE
  5
17C
330
1F
100
AcDbEntity
  8
0
  6
Continuous
 62
     7
370
    15
100
AcDbLine
 10
1266.2891694121
 20
1250.0379190384
 30
0.0
 11
1246.2891694121
 21
1250.0379190384
 31
0.0
  0
LINE
  5
17D
330
1F
100
AcDbEntity
  8
0
  6
Continuous
 62
     7
370
    15
100
AcDbLine
 10
1246.2891694121
 20
1252.8663461631
 30
0.0
 11
1246.2891694121
 21
1250.0379190384
 31
0.0
  0
LINE
  5
17E
330
1F
100
AcDbEntity
  8
0
  6
Continuous
 62
     7
370
    15
100
AcDbLine
 10
1266.2891694121
 20
1380.1229230901
 30
0.0
 11
1246.2891694121
 21
1380.1229230901
 31
0.0
  0
LINE
  5
17F
330
1F
100
AcDbEntity
  8
0
  6
Continuous
 62
     7
370
    15
100
AcDbLine
 10
1246.2891694121
 20
1377.2944959653
 30
0.0
 11
1246.2891694121
 21
1380.1229230901
 31
0.0
  0
LINE
  5
180
330
1F
100
AcDbEntity
  8
0
  6
Continuous
 62
     7
370
    15
100
AcDbLine
 10
1266.2891694121
 20
1377.2944959653
 30
0.0
 11
1266.2891694121
 21
1380.1229230901
 31
0.0
  0
LINE
  5
181
330
1F
100
AcDbEntity
  8
0
  6
Continuous
 62
     7
370
    15
100
AcDbLine
 10
1266.2891694121
 20
1317.2017414078
 30
0.0
 11
1266.2891694121
 21
1312.9591007207
 31
0.0
  0
LINE
  5
182
330
1F
100
AcDbEntity
  8
0
  6
Continuous
 62
     7
370
    15
100
AcDbLine
 10
1246.2891694121
 20
1317.2017414078
 30
0.0
 11
1246.2891694121
 21
1312.9591007207
 31
0.0
  0
LWPOLYLINE
  5
183
330
1F
100
AcDbEntity
  8
0
  6
Continuous
 62
     7
370
    15
100
AcDbPolyline
 90
       14
 70
   128
 43
0.0
 10
1262.2891694121
 20
1240.7882802981
 10
1262.1828929165
 20
1239.9932887089
 10
1261.7181317269
 20
1238.981851752
 10
1260.9122488687
 20
1238.0839193443
 10
1259.8158809259
 20
1237.3559118812
 10
1258.4979167282
 20
1236.8435727492
 10
1257.0411688135
 20
1236.5790941001
 10
1255.5371700107
 20
1236.5790941001
 10
1254.080422096
 20
1236.8435727492
 10
1252.7624578983
 20
1237.3559118812
 10
1251.6660899554
 20
1238.0839193443
 10
1250.8602070973
 20
1238.981851752
 10
1250.3954459077
 20
1239.9932887089
 10
1250.2891694121
 20
1240.7882802981
  0
LWPOLYLINE
  5
184
330
1F
100
AcDbEntity
  8
0
  6
Continuous
 62
     7
370
    15
100
AcDbPolyline
 90
       14
 70
   128
 43
0.0
 10
1262.2891694121
 20
1389.3676124642
 10
1262.1828929165
 20
1390.1626040535
 10
1261.7181317269
 20
1391.1740410103
 10
1260.9122488688
 20
1392.0719734181
 10
1259.8158809259
 20
1392.7999808811
 10
1258.4979167282
 20
1393.3123200132
 10
1257.0411688135
 20
1393.5767986623
 10
1255.5371700107
 20
1393.5767986623
 10
1254.080422096
 20
1393.3123200132
 10
1252.7624578983
 20
1392.7999808811
 10
1251.6660899554
 20
1392.0719734181
 10
1250.8602070973
 20
1391.1740410103
 10
1250.3954459077
 20
1390.1626040535
 10
1250.2891694121
 20
1389.3676124642
  0
LINE
  5
185
330
1F
100
AcDbEntity
  8
0
  6
Continuous
 62
     7
370
    15
100
AcDbLine
 10
1266.2891694121
 20
1226.7033952592
 30
0.0
 11
1266.2891694121
 21
1223.8749681345
 31
0.0
  0
LINE
  5
186
330
1F
100
AcDbEntity
  8
0
  6
Continuous
 62
     7
370
    15
100
AcDbLine
 10
1266.2891694121
 20
1223.8749681345
 30
0.0
 11
1246.2891694121
 21
1223.8749681345
 31
0.0
  0
LINE
  5
187
330
1F
100
AcDbEntity
  8
0
  6
Continuous
 62
     7
370
    15
100
AcDbLine
 10
1266.2891694121
 20
1226.7033952592
 30
0.0
 11
1246.2891694121
 21
1226.7033952592
 31
0.0
  0
LINE
  5
188
330
1F
100
AcDbEntity
  8
0
  6
Continuous
 62
     7
370
    15
100
AcDbLine
 10
1246.2891694121
 20
1226.7033952592
 30
0.0
 11
1246.2891694121
 21
1223.8749681345
 31
0.0
  0
LINE
  5
189
330
1F
100
AcDbEntity
  8
0
  6
Continuous
 62
     7
370
    15
100
AcDbLine
 10
1266.2891694121
 20
1226.7033952592
 30
0.0
 11
1266.2891694121
 21
1250.0379190384
 31
0.0
  0
LINE
  5
18A
330
1F
100
AcDbEntity
  8
0
  6
Continuous
 62
     7
370
    15
100
AcDbLine
 10
1246.2891694121
 20
1226.7033952592
 30
0.0
 11
1246.2891694121
 21
1250.0379190384
 31
0.0
  0
LINE
  5
18B
330
1F
100
AcDbEntity
  8
0
  6
Continuous
 62
     7
370
    15
100
AcDbLine
 10
1266.2891694121
 20
1403.4574468693
 30
0.0
 11
1246.2891694121
 21
1403.4574468693
 31
0.0
  0
LINE
  5
18C
330
1F
100
AcDbEntity
  8
0
  6
Continuous
 62
     7
370
    15
100
AcDbLine
 10
1266.2891694121
 20
1406.285873994
 30
0.0
 11
1246.2891694121
 21
1406.285873994
 31
0.0
  0
LINE
  5
18D
330
1F
100
AcDbEntity
  8
0
  6
Continuous
 62
     7
370
    15
100
AcDbLine
 10
1266.2891694121
 20
1403.4574468693
 30
0.0
 11
1266.2891694121
 21
1406.285873994
 31
0.0
  0
LINE
  5
18E
330
1F
100
AcDbEntity
  8
0
  6
Continuous
 62
     7
370
    15
100
AcDbLine
 10
1246.2891694121
 20
1403.4574468693
 30
0.0
 11
1246.2891694121
 21
1406.285873994
 31
0.0
  0
LINE
  5
18F
330
1F
100
AcDbEntity
  8
0
  6
Continuous
 62
     7
370
    15
100
AcDbLine
 10
1266.2891694121
 20
1403.4574468693
 30
0.0
 11
1266.2891694121
 21
1380.1229230901
 31
0.0
  0
LINE
  5
190
330
1F
100
AcDbEntity
  8
0
  6
Continuous
 62
     7
370
    15
100
AcDbLine
 10
1246.2891694121
 20
1403.4574468693
 30
0.0
 11
1246.2891694121
 21
1380.1229230901
 31
0.0
  0
LINE
  5
191
330
1F
100
AcDbEntity
  8
0
  6
Continuous
 62
     7
370
    15
100
AcDbLine
 10
1250.2891694121
 20
815.0754716981
 30
0.0
 11
1262.2891694121
 21
815.0754716981
 31
0.0
  0
LINE
  5
192
330
1F
100
AcDbEntity
  8
0
  6
Continuous
 62
     7
370
    15
100
AcDbLine
 10
1250.2891694121
 20
1815.0754716981
 30
0.0
 11
1262.2891694121
 21
1815.0754716981
 31
0.0
  0
LINE
  5
193
330
1F
100
AcDbEntity
  8
0
  6
Continuous
 62
     8
370
    15
100
AcDbLine
 10
1250.2891694121
 20
1220.0754716981
 30
0.0
 11
1262.2891694121
 21
1220.0754716981
 31
0.0
  0
LINE
  5
194
330
1F
100
AcDbEntity
  8
0
  6
Continuous
 62
     8
370
    15
100
AcDbLine
 10
1250.2891694121
 20
1410.0754716981
 30
0.0
 11
1262.2891694121
 21
1410.0754716981
 31
0.0
  0
LINE
  5
195
330
1F
100
AcDbEntity
  8
0
  6
Continuous
 62
     7
370
    15
100
AcDbLine
 10
1571.9442009728
 20
828.6584598556
 30
0.0
 11
1566.0863365966
 21
828.6584598556
 31
0.0
  0
LINE
  5
196
330
1F
100
AcDbEntity
  8
0
  6
Continuous
 62
     7
370
    15
100
AcDbLine
 10
1566.0863365966
 20
816.6584598556
 30
0.0
 11
1571.9442009728
 21
816.6584598556
 31
0.0
  0
LINE
  5
197
330
1F
100
AcDbEntity
  8
0
  6
Continuous
 62
     7
370
    15
100
AcDbLine
 10
1575.6864468244
 20
828.6584598556
 30
0.0
 11
1571.9442009728
 21
828.6584598556
 31
0.0
  0
LINE
  5
198
330
1F
100
AcDbEntity
  8
0
  6
Continuous
 62
     7
370
    15
100
AcDbLine
 10
1571.9442009728
 20
816.6584598556
 30
0.0
 11
1575.6864468244
 21
816.6584598556
 31
0.0
  0
LINE
  5
199
330
1F
100
AcDbEntity
  8
0
  6
Continuous
 62
     7
370
    15
100
AcDbLine
 10
1601.8493977283
 20
828.6584598556
 30
0.0
 11
1592.5997589881
 21
828.6584598556
 31
0.0
  0
LINE
  5
19A
330
1F
100
AcDbEntity
  8
0
  6
Continuous
 62
     7
370
    15
100
AcDbLine
 10
1592.5997589881
 20
816.6584598556
 30
0.0
 11
1601.8493977283
 21
816.6584598556
 31
0.0
  0
LINE
  5
19B
330
1F
100
AcDbEntity
  8
0
  6
Continuous
 62
     7
370
    15
100
AcDbLine
 10
1628.0123486322
 20
828.6584598556
 30
0.0
 11
1618.762709892
 21
828.6584598556
 31
0.0
  0
LINE
  5
19C
330
1F
100
AcDbEntity
  8
0
  6
Continuous
 62
     7
370
    15
100
AcDbLine
 10
1618.762709892
 20
816.6584598556
 30
0.0
 11
1628.0123486322
 21
816.6584598556
 31
0.0
  0
LINE
  5
19D
330
1F
100
AcDbEntity
  8
0
  6
Continuous
 62
     7
370
    15
100
AcDbLine
 10
1501.0396554023
 20
832.6584598556
 30
0.0
 11
1501.0396554023
 21
812.6584598556
 31
0.0
  0
CIRCLE
  5
19E
330
1F
100
AcDbEntity
  8
0
  6
Continuous
 62
     7
370
    15
100
AcDbCircle
 10
1566.0863365966
 20
822.6584598556
 30
0.0
 40
6.0
  0
LINE
  5
19F
330
1F
100
AcDbEntity
  8
0
  6
Continuous
 62
     7
370
    15
100
AcDbLine
 10
1502.7971977774
 20
812.6584598556
 30
0.0
 11
1502.7971977774
 21
832.6584598556
 31
0.0
  0
LINE
  5
1A0
330
1F
100
AcDbEntity
  8
0
  6
Continuous
 62
     7
370
    15
100
AcDbLine
 10
1589.7713318633
 20
832.6584598556
 30
0.0
 11
1502.7971977774
 21
832.6584598556
 31
0.0
  0
LINE
  5
1A1
330
1F
100
AcDbEntity
  8
0
  6
Continuous
 62
     7
370
    15
100
AcDbLine
 10
1589.7713318633
 20
812.6584598556
 30
0.0
 11
1589.7713318633
 21
832.6584598556
 31
0.0
  0
LWPOLYLINE
  5
1A2
330
1F
100
AcDbEntity
  8
0
  6
Continuous
 62
     7
370
    15
100
AcDbPolyline
 90
       14
 70
   128
 43
0.0
 10
1575.6864468244
 20
816.6584598556
 10
1576.4814384136
 20
816.7647363512
 10
1577.4928753705
 20
817.2294975408
 10
1578.3908077782
 20
818.0353803989
 10
1579.1188152413
 20
819.1317483418
 10
1579.6311543733
 20
820.4497125395
 10
1579.8956330225
 20
821.9064604542
 10
1579.8956330225
 20
823.410459257
 10
1579.6311543733
 20
824.8672071717
 10
1579.1188152413
 20
826.1851713693
 10
1578.3908077782
 20
827.2815393122
 10
1577.4928753705
 20
828.0874221704
 10
1576.4814384136
 20
828.5521833599
 10
1575.6864468244
 20
828.6584598556
  0
LINE
  5
1A3
330
1F
100
AcDbEntity
  8
0
  6
Continuous
 62
     7
370
    15
100
AcDbLine
 10
1589.7713318633
 20
812.6584598556
 30
0.0
 11
1502.7971977774
 21
812.6584598556
 31
0.0
  0
LINE
  5
1A4
330
1F
100
AcDbEntity
  8
0
  6
Continuous
 62
     7
370
    15
100
AcDbLine
 10
1592.5997589881
 20
832.6584598556
 30
0.0
 11
1589.7713318633
 21
832.6584598556
 31
0.0
  0
LINE
  5
1A5
330
1F
100
AcDbEntity
  8
0
  6
Continuous
 62
     7
370
    15
100
AcDbLine
 10
1592.5997589881
 20
812.6584598556
 30
0.0
 11
1592.5997589881
 21
832.6584598556
 31
0.0
  0
LINE
  5
1A6
330
1F
100
AcDbEntity
  8
0
  6
Continuous
 62
     7
370
    15
100
AcDbLine
 10
1592.5997589881
 20
812.6584598556
 30
0.0
 11
1589.7713318633
 21
812.6584598556
 31
0.0
  0
LWPOLYLINE
  5
1A7
330
1F
100
AcDbEntity
  8
0
  6
Continuous
 62
     7
370
    15
100
AcDbPolyline
 90
       14
 70
   128
 43
0.0
 10
1601.8493977283
 20
816.6584598556
 10
1602.6443893175
 20
816.7647363512
 10
1603.6558262744
 20
817.2294975408
 10
1604.5537586821
 20
818.0353803989
 10
1605.2817661452
 20
819.1317483418
 10
1605.7941052772
 20
820.4497125395
 10
1606.0585839264
 20
821.9064604542
 10
1606.0585839264
 20
823.410459257
 10
1605.7941052772
 20
824.8672071717
 10
1605.2817661452
 20
826.1851713693
 10
1604.5537586821
 20
827.2815393122
 10
1603.6558262744
 20
828.0874221704
 10
1602.6443893175
 20
828.5521833599
 10
1601.8493977283
 20
828.6584598556
  0
LINE
  5
1A8
330
1F
100
AcDbEntity
  8
0
  6
Continuous
 62
     7
370
    15
100
AcDbLine
 10
1615.9342827672
 20
832.6584598556
 30
0.0
 11
1592.5997589881
 21
832.6584598556
 31
0.0
  0
LINE
  5
1A9
330
1F
100
AcDbEntity
  8
0
  6
Continuous
 62
     7
370
    15
100
AcDbLine
 10
1615.9342827672
 20
812.6584598556
 30
0.0
 11
1615.9342827672
 21
832.6584598556
 31
0.0
  0
LINE
  5
1AA
330
1F
100
AcDbEntity
  8
0
  6
Continuous
 62
     7
370
    15
100
AcDbLine
 10
1615.9342827672
 20
812.6584598556
 30
0.0
 11
1592.5997589881
 21
812.6584598556
 31
0.0
  0
LINE
  5
1AB
330
1F
100
AcDbEntity
  8
0
  6
Continuous
 62
     7
370
    15
100
AcDbLine
 10
1618.762709892
 20
832.6584598556
 30
0.0
 11
1615.9342827672
 21
832.6584598556
 31
0.0
  0
LINE
  5
1AC
330
1F
100
AcDbEntity
  8
0
  6
Continuous
 62
     7
370
    15
100
AcDbLine
 10
1618.762709892
 20
812.6584598556
 30
0.0
 11
1618.762709892
 21
832.6584598556
 31
0.0
  0
LINE
  5
1AD
330
1F
100
AcDbEntity
  8
0
  6
Continuous
 62
     7
370
    15
100
AcDbLine
 10
1618.762709892
 20
812.6584598556
 30
0.0
 11
1615.9342827672
 21
812.6584598556
 31
0.0
  0
LWPOLYLINE
  5
1AE
330
1F
100
AcDbEntity
  8
0
  6
Continuous
 62
     7
370
    15
100
AcDbPolyline
 90
       14
 70
   128
 43
0.0
 10
1628.0123486322
 20
816.6584598556
 10
1628.8073402215
 20
816.7647363512
 10
1629.8187771783
 20
817.2294975408
 10
1630.716709586
 20
818.0353803989
 10
1631.4447170491
 20
819.1317483418
 10
1631.9570561811
 20
820.4497125395
 10
1632.2215348303
 20
821.9064604542
 10
1632.2215348303
 20
823.410459257
 10
1631.9570561811
 20
824.8672071717
 10
1631.4447170491
 20
826.1851713693
 10
1630.716709586
 20
827.2815393122
 10
1629.8187771783
 20
828.0874221704
 10
1628.8073402215
 20
828.5521833599
 10
1628.0123486322
 20
828.6584598556
  0
LINE
  5
1AF
330
1F
100
AcDbEntity
  8
0
  6
Continuous
 62
     7
370
    15
100
AcDbLine
 10
1642.0972336711
 20
812.6584598556
 30
0.0
 11
1618.762709892
 21
812.6584598556
 31
0.0
  0
LINE
  5
1B0
330
1F
100
AcDbEntity
  8
0
  6
Continuous
 62
     7
370
    15
100
AcDbLine
 10
1642.0972336711
 20
832.6584598556
 30
0.0
 11
1618.762709892
 21
832.6584598556
 31
0.0
  0
LINE
  5
1B1
330
1F
100
AcDbEntity
  8
0
  6
Continuous
 62
     7
370
    15
100
AcDbLine
 10
1642.0972336711
 20
812.6584598556
 30
0.0
 11
1642.0972336711
 21
832.6584598556
 31
0.0
  0
LINE
  5
1B2
330
1F
100
AcDbEntity
  8
0
  6
Continuous
 62
     7
370
    15
100
AcDbLine
 10
1644.9256607959
 20
812.6584598556
 30
0.0
 11
1642.0972336711
 21
812.6584598556
 31
0.0
  0
LINE
  5
1B3
330
1F
100
AcDbEntity
  8
0
  6
Continuous
 62
     7
370
    15
100
AcDbLine
 10
1644.9256607959
 20
832.6584598556
 30
0.0
 11
1642.0972336711
 21
832.6584598556
 31
0.0
  0
LINE
  5
1B4
330
1F
100
AcDbEntity
  8
0
  6
Continuous
 62
     7
370
    15
100
AcDbLine
 10
1644.9256607959
 20
812.6584598556
 30
0.0
 11
1644.9256607959
 21
832.6584598556
 31
0.0
  0
LINE
  5
1B5
330
1F
100
AcDbEntity
  8
0
  6
Continuous
 62
     7
370
    15
100
AcDbLine
 10
1501.0396554023
 20
832.6584598556
 30
0.0
 11
1502.7971977774
 21
832.6584598556
 31
0.0
  0
LINE
  5
1B6
330
1F
100
AcDbEntity
  8
0
  6
Continuous
 62
     7
370
    15
100
AcDbLine
 10
1501.0396554023
 20
812.6584598556
 30
0.0
 11
1502.7971977774
 21
812.6584598556
 31
0.0
  0
LWPOLYLINE
  5
1B7
330
1F
100
AcDbEntity
  8
0
  6
Continuous
 62
     8
370
    15
100
AcDbPolyline
 90
       14
 70
   128
 43
0.0
 10
1571.9442009728
 20
828.6584598556
 10
1572.9993028066
 20
828.4699588223
 10
1573.9881087117
 20
827.9162999358
 10
1574.8484883767
 20
827.0322716201
 10
1575.5263809828
 20
825.8734206254
 10
1575.9791920446
 20
824.5125618218
 10
1576.1784697777
 20
823.0352029727
 10
1576.1116928292
 20
821.5341719681
 10
1575.7830570404
 20
820.1037841062
 10
1575.2132118066
 20
818.8339159171
 10
1574.4379625995
 20
817.8043578893
 10
1573.506021178
 20
817.0798009402
 10
1572.475944849
 20
816.7057716477
 10
1571.9442009728
 20
816.6584598556
  0
INSERT
  5
1C3
330
1F
100
AcDbEntity
  8
0
  6
Continuous
 62
     7
370
     0
100
AcDbBlockReference
  2
SW_CENTERMARKSYMBOL_0
 10
1566.0863365966
 20
822.6584598556
 30
0.0
  0
LINE
  5
1C4
330
1F
100
AcDbEntity
  8
0
  6
Continuous
 62
     7
370
    15
100
AcDbLine
 10
1571.9442009728
 20
1807.4422389325
 30
0.0
 11
1566.0863365966
 21
1807.4422389325
 31
0.0
  0
LINE
  5
1C5
330
1F
100
AcDbEntity
  8
0
  6
Continuous
 62
     7
370
    15
100
AcDbLine
 10
1566.0863365966
 20
1795.4422389325
 30
0.0
 11
1571.9442009728
 21
1795.4422389325
 31
0.0
  0
LINE
  5
1C6
330
1F
100
AcDbEntity
  8
0
  6
Continuous
 62
     7
370
    15
100
AcDbLine
 10
1575.6814974583
 20
1807.4422389325
 30
0.0
 11
1571.9442009728
 21
1807.4422389325
 31
0.0
  0
LINE
  5
1C7
330
1F
100
AcDbEntity
  8
0
  6
Continuous
 62
     7
370
    15
100
AcDbLine
 10
1571.9442009728
 20
1795.4422389325
 30
0.0
 11
1575.6814974583
 21
1795.4422389325
 31
0.0
  0
LINE
  5
1C8
330
1F
100
AcDbEntity
  8
0
  6
Continuous
 62
     7
370
    15
100
AcDbLine
 10
1601.8444483622
 20
1807.4422389325
 30
0.0
 11
1592.5997589881
 21
1807.4422389325
 31
0.0
  0
LINE
  5
1C9
330
1F
100
AcDbEntity
  8
0
  6
Continuous
 62
     7
370
    15
100
AcDbLine
 10
1592.5997589881
 20
1795.4422389325
 30
0.0
 11
1601.8444483622
 21
1795.4422389325
 31
0.0
  0
LINE
  5
1CA
330
1F
100
AcDbEntity
  8
0
  6
Continuous
 62
     7
370
    15
100
AcDbLine
 10
1628.0073992661
 20
1807.4422389325
 30
0.0
 11
1618.762709892
 21
1807.4422389325
 31
0.0
  0
LINE
  5
1CB
330
1F
100
AcDbEntity
  8
0
  6
Continuous
 62
     7
370
    15
100
AcDbLine
 10
1618.762709892
 20
1795.4422389325
 30
0.0
 11
1628.0073992661
 21
1795.4422389325
 31
0.0
  0
LINE
  5
1CC
330
1F
100
AcDbEntity
  8
0
  6
Continuous
 62
     7
370
    15
100
AcDbLine
 10
1501.0396554023
 20
1811.4422389325
 30
0.0
 11
1501.0396554023
 21
1791.4422389325
 31
0.0
  0
CIRCLE
  5
1CD
330
1F
100
AcDbEntity
  8
0
  6
Continuous
 62
     7
370
    15
100
AcDbCircle
 10
1566.0863365966
 20
1801.4422389325
 30
0.0
 40
5.999999999999773
  0
LWPOLYLINE
  5
1CE
330
1F
100
AcDbEntity
  8
0
  6
Continuous
 62
     7
370
    15
100
AcDbPolyline
 90
       14
 70
   128
 43
0.0
 10
1575.6814974583
 20
1807.4422389325
 10
1576.4764890475
 20
1807.3359624368
 10
1577.4879260044
 20
1806.8712012473
 10
1578.3858584121
 20
1806.0653183891
 10
1579.1138658752
 20
1804.9689504462
 10
1579.6262050072
 20
1803.6509862486
 10
1579.8906836563
 20
1802.1942383339
 10
1579.8906836563
 20
1800.6902395311
 10
1579.6262050072
 20
1799.2334916164
 10
1579.1138658752
 20
1797.9155274187
 10
1578.3858584121
 20
1796.8191594758
 10
1577.4879260044
 20
1796.0132766177
 10
1576.4764890475
 20
1795.5485154281
 10
1575.6814974583
 20
1795.4422389325
  0
LINE
  5
1CF
330
1F
100
AcDbEntity
  8
0
  6
Continuous
 62
     7
370
    15
100
AcDbLine
 10
1589.7713318633
 20
1811.4422389325
 30
0.0
 11
1502.7971977774
 21
1811.4422389325
 31
0.0
  0
LINE
  5
1D0
330
1F
100
AcDbEntity
  8
0
  6
Continuous
 62
     7
370
    15
100
AcDbLine
 10
1589.7713318633
 20
1811.4422389325
 30
0.0
 11
1589.7713318633
 21
1791.4422389325
 31
0.0
  0
LINE
  5
1D1
330
1F
100
AcDbEntity
  8
0
  6
Continuous
 62
     7
370
    15
100
AcDbLine
 10
1589.7713318633
 20
1791.4422389325
 30
0.0
 11
1502.7971977774
 21
1791.4422389325
 31
0.0
  0
LINE
  5
1D2
330
1F
100
AcDbEntity
  8
0
  6
Continuous
 62
     7
370
    15
100
AcDbLine
 10
1502.7971977774
 20
1811.4422389325
 30
0.0
 11
1502.7971977774
 21
1791.4422389325
 31
0.0
  0
LINE
  5
1D3
330
1F
100
AcDbEntity
  8
0
  6
Continuous
 62
     7
370
    15
100
AcDbLine
 10
1592.5997589881
 20
1811.4422389325
 30
0.0
 11
1592.5997589881
 21
1791.4422389325
 31
0.0
  0
LINE
  5
1D4
330
1F
100
AcDbEntity
  8
0
  6
Continuous
 62
     7
370
    15
100
AcDbLine
 10
1592.5997589881
 20
1791.4422389325
 30
0.0
 11
1589.7713318633
 21
1791.4422389325
 31
0.0
  0
LINE
  5
1D5
330
1F
100
AcDbEntity
  8
0
  6
Continuous
 62
     7
370
    15
100
AcDbLine
 10
1592.5997589881
 20
1811.4422389325
 30
0.0
 11
1589.7713318633
 21
1811.4422389325
 31
0.0
  0
LWPOLYLINE
  5
1D6
330
1F
100
AcDbEntity
  8
0
  6
Continuous
 62
     7
370
    15
100
AcDbPolyline
 90
       14
 70
   128
 43
0.0
 10
1601.8444483622
 20
1807.4422389325
 10
1602.6394399514
 20
1807.3359624368
 10
1603.6508769083
 20
1806.8712012473
 10
1604.548809316
 20
1806.0653183891
 10
1605.2768167791
 20
1804.9689504462
 10
1605.7891559111
 20
1803.6509862486
 10
1606.0536345603
 20
1802.1942383339
 10
1606.0536345603
 20
1800.6902395311
 10
1605.7891559111
 20
1799.2334916164
 10
1605.2768167791
 20
1797.9155274187
 10
1604.548809316
 20
1796.8191594758
 10
1603.6508769083
 20
1796.0132766177
 10
1602.6394399514
 20
1795.5485154281
 10
1601.8444483622
 20
1795.4422389325
  0
LINE
  5
1D7
330
1F
100
AcDbEntity
  8
0
  6
Continuous
 62
     7
370
    15
100
AcDbLine
 10
1618.762709892
 20
1811.4422389325
 30
0.0
 11
1618.762709892
 21
1791.4422389325
 31
0.0
  0
LINE
  5
1D8
330
1F
100
AcDbEntity
  8
0
  6
Continuous
 62
     7
370
    15
100
AcDbLine
 10
1615.9342827672
 20
1811.4422389325
 30
0.0
 11
1615.9342827672
 21
1791.4422389325
 31
0.0
  0
LINE
  5
1D9
330
1F
100
AcDbEntity
  8
0
  6
Continuous
 62
     7
370
    15
100
AcDbLine
 10
1618.762709892
 20
1791.4422389325
 30
0.0
 11
1615.9342827672
 21
1791.4422389325
 31
0.0
  0
LINE
  5
1DA
330
1F
100
AcDbEntity
  8
0
  6
Continuous
 62
     7
370
    15
100
AcDbLine
 10
1618.762709892
 20
1811.4422389325
 30
0.0
 11
1615.9342827672
 21
1811.4422389325
 31
0.0
  0
LINE
  5
1DB
330
1F
100
AcDbEntity
  8
0
  6
Continuous
 62
     7
370
    15
100
AcDbLine
 10
1615.9342827672
 20
1791.4422389325
 30
0.0
 11
1592.5997589881
 21
1791.4422389325
 31
0.0
  0
LINE
  5
1DC
330
1F
100
AcDbEntity
  8
0
  6
Continuous
 62
     7
370
    15
100
AcDbLine
 10
1615.9342827672
 20
1811.4422389325
 30
0.0
 11
1592.5997589881
 21
1811.4422389325
 31
0.0
  0
LWPOLYLINE
  5
1DD
330
1F
100
AcDbEntity
  8
0
  6
Continuous
 62
     7
370
    15
100
AcDbPolyline
 90
       14
 70
   128
 43
0.0
 10
1628.0073992661
 20
1807.4422389325
 10
1628.8023908553
 20
1807.3359624368
 10
1629.8138278122
 20
1806.8712012473
 10
1630.7117602199
 20
1806.0653183891
 10
1631.439767683
 20
1804.9689504462
 10
1631.952106815
 20
1803.6509862486
 10
1632.2165854642
 20
1802.1942383339
 10
1632.2165854642
 20
1800.6902395311
 10
1631.952106815
 20
1799.2334916164
 10
1631.439767683
 20
1797.9155274187
 10
1630.7117602199
 20
1796.8191594758
 10
1629.8138278122
 20
1796.0132766177
 10
1628.8023908553
 20
1795.5485154281
 10
1628.0073992661
 20
1795.4422389325
  0
LINE
  5
1DE
330
1F
100
AcDbEntity
  8
0
  6
Continuous
 62
     7
370
    15
100
AcDbLine
 10
1642.0972336711
 20
1811.4422389325
 30
0.0
 11
1618.762709892
 21
1811.4422389325
 31
0.0
  0
LINE
  5
1DF
330
1F
100
AcDbEntity
  8
0
  6
Continuous
 62
     7
370
    15
100
AcDbLine
 10
1642.0972336711
 20
1811.4422389325
 30
0.0
 11
1642.0972336711
 21
1791.4422389325
 31
0.0
  0
LINE
  5
1E0
330
1F
100
AcDbEntity
  8
0
  6
Continuous
 62
     7
370
    15
100
AcDbLine
 10
1642.0972336711
 20
1791.4422389325
 30
0.0
 11
1618.762709892
 21
1791.4422389325
 31
0.0
  0
LINE
  5
1E1
330
1F
100
AcDbEntity
  8
0
  6
Continuous
 62
     7
370
    15
100
AcDbLine
 10
1644.9256607959
 20
1811.4422389325
 30
0.0
 11
1642.0972336711
 21
1811.4422389325
 31
0.0
  0
LINE
  5
1E2
330
1F
100
AcDbEntity
  8
0
  6
Continuous
 62
     7
370
    15
100
AcDbLine
 10
1644.9256607959
 20
1811.4422389325
 30
0.0
 11
1644.9256607959
 21
1791.4422389325
 31
0.0
  0
LINE
  5
1E3
330
1F
100
AcDbEntity
  8
0
  6
Continuous
 62
     7
370
    15
100
AcDbLine
 10
1644.9256607959
 20
1791.4422389325
 30
0.0
 11
1642.0972336711
 21
1791.4422389325
 31
0.0
  0
LINE
  5
1E4
330
1F
100
AcDbEntity
  8
0
  6
Continuous
 62
     7
370
    15
100
AcDbLine
 10
1502.7971977774
 20
1791.4422389325
 30
0.0
 11
1501.0396554023
 21
1791.4422389325
 31
0.0
  0
LINE
  5
1E5
330
1F
100
AcDbEntity
  8
0
  6
Continuous
 62
     7
370
    15
100
AcDbLine
 10
1502.7971977774
 20
1811.4422389325
 30
0.0
 11
1501.0396554023
 21
1811.4422389325
 31
0.0
  0
LWPOLYLINE
  5
1E6
330
1F
100
AcDbEntity
  8
0
  6
Continuous
 62
     8
370
    15
100
AcDbPolyline
 90
       14
 70
   128
 43
0.0
 10
1571.9442009728
 20
1795.4422389325
 10
1572.9993028066
 20
1795.6307399657
 10
1573.9881087117
 20
1796.1843988522
 10
1574.8484883767
 20
1797.0684271679
 10
1575.5263809828
 20
1798.2272781626
 10
1575.9791920446
 20
1799.5881369662
 10
1576.1784697777
 20
1801.0654958153
 10
1576.1116928292
 20
1802.56652682
 10
1575.7830570404
 20
1803.9969146819
 10
1575.2132118066
 20
1805.266782871
 10
1574.4379625995
 20
1806.2963408987
 10
1573.506021178
 20
1807.0208978478
 10
1572.475944849
 20
1807.3949271404
 10
1571.9442009728
 20
1807.4422389325
  0
INSERT
  5
1F2
330
1F
100
AcDbEntity
  8
0
  6
Continuous
 62
     7
370
     0
100
AcDbBlockReference
  2
SW_CENTERMARKSYMBOL_1
 10
1566.0863365966
 20
1801.4422389325
 30
0.0
  0
LINE
  5
1F3
330
1F
100
AcDbEntity
  8
0
  6
Continuous
 62
     7
370
    15
100
AcDbLine
 10
2007.8604506302
 20
815.0754716981
 30
0.0
 11
2007.8604506302
 21
1220.0754716981
 31
0.0
  0
LINE
  5
1F4
330
1F
100
AcDbEntity
  8
0
  6
Continuous
 62
     7
370
    15
100
AcDbLine
 10
1995.8604506302
 20
1220.0754716981
 30
0.0
 11
1995.8604506302
 21
815.0754716981
 31
0.0
  0
LINE
  5
1F5
330
1F
100
AcDbEntity
  8
0
  6
Continuous
 62
     7
370
    15
100
AcDbLine
 10
1995.8604506302
 20
1815.0754716981
 30
0.0
 11
1995.8604506302
 21
1410.0754716981
 31
0.0
  0
LINE
  5
1F6
330
1F
100
AcDbEntity
  8
0
  6
Continuous
 62
     7
370
    15
100
AcDbLine
 10
2007.8604506302
 20
1410.0754716981
 30
0.0
 11
2007.8604506302
 21
1815.0754716981
 31
0.0
  0
LINE
  5
1F7
330
1F
100
AcDbEntity
  8
0
  6
Continuous
 62
     7
370
    15
100
AcDbLine
 10
1995.8604506302
 20
1410.0754716981
 30
0.0
 11
1995.8604506302
 21
1395.9333360744
 31
0.0
  0
LINE
  5
1F8
330
1F
100
AcDbEntity
  8
0
  6
Continuous
 62
     7
370
    15
100
AcDbLine
 10
2007.8604506302
 20
1395.9333360744
 30
0.0
 11
2007.8604506302
 21
1410.0754716981
 31
0.0
  0
LINE
  5
1F9
330
1F
100
AcDbEntity
  8
0
  6
Continuous
 62
     7
370
    15
100
AcDbLine
 10
2007.8604506302
 20
1220.0754716981
 30
0.0
 11
2007.8604506302
 21
1234.2176073218
 31
0.0
  0
LINE
  5
1FA
330
1F
100
AcDbEntity
  8
0
  6
Continuous
 62
     7
370
    15
100
AcDbLine
 10
1995.8604506302
 20
1234.2176073218
 30
0.0
 11
1995.8604506302
 21
1220.0754716981
 31
0.0
  0
LINE
  5
1FB
330
1F
100
AcDbEntity
  8
0
  6
Continuous
 62
     7
370
    15
100
AcDbLine
 10
2007.8604506302
 20
1392.1960395889
 30
0.0
 11
2007.8604506302
 21
1395.9333360744
 31
0.0
  0
LINE
  5
1FC
330
1F
100
AcDbEntity
  8
0
  6
Continuous
 62
     7
370
    15
100
AcDbLine
 10
1995.8604506302
 20
1395.9333360744
 30
0.0
 11
1995.8604506302
 21
1392.1960395889
 31
0.0
  0
LINE
  5
1FD
330
1F
100
AcDbEntity
  8
0
  6
Continuous
 62
     7
370
    15
100
AcDbLine
 10
1995.8604506302
 20
1237.9598531734
 30
0.0
 11
1995.8604506302
 21
1234.2176073218
 31
0.0
  0
LINE
  5
1FE
330
1F
100
AcDbEntity
  8
0
  6
Continuous
 62
     7
370
    15
100
AcDbLine
 10
2007.8604506302
 20
1234.2176073218
 30
0.0
 11
2007.8604506302
 21
1237.9598531734
 31
0.0
  0
LINE
  5
1FF
330
1F
100
AcDbEntity
  8
0
  6
Continuous
 62
     7
370
    15
100
AcDbLine
 10
1991.8604506302
 20
1319.3117399081
 30
0.0
 11
2011.8604506302
 21
1319.3117399081
 31
0.0
  0
LINE
  5
200
330
1F
100
AcDbEntity
  8
0
  6
Continuous
 62
     7
370
    15
100
AcDbLine
 10
1991.8604506302
 20
1310.8491022204
 30
0.0
 11
2011.8604506302
 21
1310.8491022204
 31
0.0
  0
LINE
  5
201
330
1F
100
AcDbEntity
  8
0
  6
Continuous
 62
     7
370
    15
100
AcDbLine
 10
2011.8604506302
 20
1319.3117399081
 30
0.0
 11
2011.8604506302
 21
1310.8491022204
 31
0.0
  0
LINE
  5
202
330
1F
100
AcDbEntity
  8
0
  6
Continuous
 62
     7
370
    15
100
AcDbLine
 10
1991.8604506302
 20
1319.3117399081
 30
0.0
 11
1991.8604506302
 21
1310.8491022204
 31
0.0
  0
LINE
  5
203
330
1F
100
AcDbEntity
  8
0
  6
Continuous
 62
     7
370
    15
100
AcDbLine
 10
1991.8604506302
 20
1223.8749681345
 30
0.0
 11
1995.8604506302
 21
1223.8749681345
 31
0.0
  0
LINE
  5
204
330
1F
100
AcDbEntity
  8
0
  6
Continuous
 62
     7
370
    15
100
AcDbLine
 10
2007.8604506302
 20
1223.8749681345
 30
0.0
 11
2011.8604506302
 21
1223.8749681345
 31
0.0
  0
LWPOLYLINE
  5
205
330
1F
100
AcDbEntity
  8
0
  6
Continuous
 62
     7
370
    15
100
AcDbPolyline
 90
        8
 70
   128
 43
0.0
 10
2001.8604506302
 20
1242.2024938605
 10
2000.3683113072
 20
1242.0692035017
 10
1998.9699285856
 20
1241.6777075485
 10
1997.7531679946
 20
1241.0526051317
 10
1996.7944830772
 20
1240.233173735
 10
1996.1541115324
 20
1239.2709012467
 10
1995.8722902596
 20
1238.2262507863
 10
1995.8604506302
 20
1237.9598531734
  0
LWPOLYLINE
  5
206
330
1F
100
AcDbEntity
  8
0
  6
Continuous
 62
     7
370
    15
100
AcDbPolyline
 90
        8
 70
   128
 43
0.0
 10
2007.8604506302
 20
1237.9598531734
 10
2007.8486110008
 20
1238.2262507863
 10
2007.566789728
 20
1239.2709012467
 10
2006.9264181832
 20
1240.233173735
 10
2005.9677332658
 20
1241.0526051317
 10
2004.7509726748
 20
1241.6777075485
 10
2003.3525899532
 20
1242.0692035017
 10
2001.8604506302
 20
1242.2024938605
  0
LINE
  5
207
330
1F
100
AcDbEntity
  8
0
  6
Continuous
 62
     7
370
    15
100
AcDbLine
 10
2011.8604506302
 20
1223.8749681345
 30
0.0
 11
2011.8604506302
 21
1310.8491022204
 31
0.0
  0
LINE
  5
208
330
1F
100
AcDbEntity
  8
0
  6
Continuous
 62
     7
370
    15
100
AcDbLine
 10
1991.8604506302
 20
1223.8749681345
 30
0.0
 11
1991.8604506302
 21
1310.8491022204
 31
0.0
  0
LWPOLYLINE
  5
209
330
1F
100
AcDbEntity
  8
0
  6
Continuous
 62
     7
370
    15
100
AcDbPolyline
 90
        8
 70
   128
 43
0.0
 10
2001.8604506302
 20
1387.9533989018
 10
2000.3683113072
 20
1388.0866892607
 10
1998.9699285856
 20
1388.4781852138
 10
1997.7531679946
 20
1389.1032876306
 10
1996.7944830772
 20
1389.9227190273
 10
1996.1541115324
 20
1390.8849915156
 10
1995.8722902596
 20
1391.929641976
 10
1995.8604506302
 20
1392.1960395889
  0
LWPOLYLINE
  5
20A
330
1F
100
AcDbEntity
  8
0
  6
Continuous
 62
     7
370
    15
100
AcDbPolyline
 90
        8
 70
   128
 43
0.0
 10
2007.8604506302
 20
1392.1960395889
 10
2007.8486110008
 20
1391.929641976
 10
2007.566789728
 20
1390.8849915156
 10
2006.9264181832
 20
1389.9227190273
 10
2005.9677332658
 20
1389.1032876306
 10
2004.7509726748
 20
1388.4781852138
 10
2003.3525899532
 20
1388.0866892607
 10
2001.8604506302
 20
1387.9533989018
  0
LINE
  5
20B
330
1F
100
AcDbEntity
  8
0
  6
Continuous
 62
     7
370
    15
100
AcDbLine
 10
1991.8604506302
 20
1406.285873994
 30
0.0
 11
1995.8604506302
 21
1406.285873994
 31
0.0
  0
LINE
  5
20C
330
1F
100
AcDbEntity
  8
0
  6
Continuous
 62
     7
370
    15
100
AcDbLine
 10
2007.8604506302
 20
1406.285873994
 30
0.0
 11
2011.8604506302
 21
1406.285873994
 31
0.0
  0
LINE
  5
20D
330
1F
100
AcDbEntity
  8
0
  6
Continuous
 62
     7
370
    15
100
AcDbLine
 10
2011.8604506302
 20
1406.285873994
 30
0.0
 11
2011.8604506302
 21
1319.3117399081
 31
0.0
  0
LINE
  5
20E
330
1F
100
AcDbEntity
  8
0
  6
Continuous
 62
     7
370
    15
100
AcDbLine
 10
1991.8604506302
 20
1406.285873994
 30
0.0
 11
1991.8604506302
 21
1319.3117399081
 31
0.0
  0
LINE
  5
20F
330
1F
100
AcDbEntity
  8
0
  6
Continuous
 62
     7
370
    15
100
AcDbLine
 10
1995.8604506302
 20
815.0754716981
 30
0.0
 11
2007.8604506302
 21
815.0754716981
 31
0.0
  0
LINE
  5
210
330
1F
100
AcDbEntity
  8
0
  6
Continuous
 62
     7
370
    15
100
AcDbLine
 10
1995.8604506302
 20
1815.0754716981
 30
0.0
 11
2007.8604506302
 21
1815.0754716981
 31
0.0
  0
LINE
  5
211
330
1F
100
AcDbEntity
  8
0
  6
Continuous
 62
     8
370
    15
100
AcDbLine
 10
1995.8604506302
 20
1220.0754716981
 30
0.0
 11
2007.8604506302
 21
1220.0754716981
 31
0.0
  0
LINE
  5
212
330
1F
100
AcDbEntity
  8
0
  6
Continuous
 62
     8
370
    15
100
AcDbLine
 10
1995.8604506302
 20
1410.0754716981
 30
0.0
 11
2007.8604506302
 21
1410.0754716981
 31
0.0
  0
LWPOLYLINE
  5
213
330
1F
100
AcDbEntity
  8
0
  6
Continuous
 62
     8
370
    15
100
AcDbPolyline
 90
       14
 70
   128
 43
0.0
 10
1995.8604506302
 20
1395.9333360744
 10
1995.9077624223
 20
1395.4015921982
 10
1996.2817917149
 20
1394.3715158692
 10
1997.006348664
 20
1393.4395744477
 10
1998.0359066917
 20
1392.6643252406
 10
1999.3057748808
 20
1392.0944800068
 10
2000.7361627427
 20
1391.765844218
 10
2002.2371937474
 20
1391.6990672695
 10
2003.7145525965
 20
1391.8983450026
 10
2005.0754114001
 20
1392.3511560644
 10
2006.2342623947
 20
1393.0290486705
 10
2007.1182907105
 20
1393.8894283355
 10
2007.671949597
 20
1394.8782342406
 10
2007.8604506302
 20
1395.9333360744
  0
LWPOLYLINE
  5
214
330
1F
100
AcDbEntity
  8
0
  6
Continuous
 62
     8
370
    15
100
AcDbPolyline
 90
       15
 70
   128
 43
0.0
 10
1995.8604506302
 20
1234.2176073218
 10
1995.9077624223
 20
1234.749351198
 10
1996.2817917149
 20
1235.779427527
 10
1997.006348664
 20
1236.7113689485
 10
1998.0359066917
 20
1237.4866181556
 10
1999.3057748808
 20
1238.0564633894
 10
2000.7361627427
 20
1238.3850991782
 10
2002.2371937474
 20
1238.4518761267
 10
2003.7145525965
 20
1238.2525983936
 10
2005.0754114001
 20
1237.7997873319
 10
2006.2342623947
 20
1237.1218947257
 10
2007.1182907105
 20
1236.2615150608
 10
2007.671949597
 20
1235.2727091556
 10
2007.8604506302
 20
1234.2176073218
 10
2007.8604506302
 20
1234.2176073218
  0
ENDSEC
  0
SECTION
  2
OBJECTS
  0
DICTIONARY
  5
C
330
0
100
AcDbDictionary
281
     1
  3
ACAD_GROUP
350
D
  3
ACAD_LAYOUT
350
1A
  3
ACAD_MLINESTYLE
350
17
  3
ACAD_PLOTSETTINGS
350
19
  3
ACAD_PLOTSTYLENAME
350
E
  3
ACAD_SCALELIST
350
47
  0
DICTIONARY
  5
D
102
{ACAD_REACTORS
330
C
102
}
330
C
100
AcDbDictionary
281
     1
  0
DICTIONARY
  5
1A
102
{ACAD_REACTORS
330
C
102
}
330
C
100
AcDbDictionary
281
     1
  3
Layout1
350
1E
  3
Layout2
350
26
  3
Model
350
22
  0
DICTIONARY
  5
17
102
{ACAD_REACTORS
330
C
102
}
330
C
100
AcDbDictionary
281
     1
  3
Standard
350
18
  0
DICTIONARY
  5
19
102
{ACAD_REACTORS
330
C
102
}
330
C
100
AcDbDictionary
281
     1
  0
ACDBDICTIONARYWDFLT
  5
E
102
{ACAD_REACTORS
330
C
102
}
330
C
100
AcDbDictionary
281
     1
  3
Normal
350
F
100
AcDbDictionaryWithDefault
340
F
  0
DICTIONARY
  5
47
102
{ACAD_REACTORS
330
C
102
}
330
C
100
AcDbDictionary
281
     1
  3
A0
350
48
  3
A1
350
49
  3
A2
350
4A
  3
A3
350
4B
  3
A4
350
4C
  3
A5
350
4D
  3
A6
350
4E
  3
A7
350
4F
  3
A8
350
50
  3
A9
350
51
  3
B0
350
52
  3
B1
350
53
  3
B2
350
54
  3
B3
350
55
  3
B4
350
56
  3
B5
350
57
  3
B6
350
58
  3
B7
350
59
  3
B8
350
5A
  3
B9
350
5B
  3
C0
350
5C
  3
C1
350
5D
  3
C2
350
5E
  3
C3
350
5F
  3
C4
350
60
  3
C5
350
61
  3
C6
350
62
  3
C7
350
63
  3
C8
350
64
  3
C9
350
65
  3
D0
350
66
  3
D1
350
67
  3
D2
350
68
  0
LAYOUT
  5
1E
102
{ACAD_REACTORS
330
1A
102
}
330
1A
100
AcDbPlotSettings
  1

  2
none_device
  4

  6

 40
0.0
 41
0.0
 42
0.0
 43
0.0
 44
0.0
 45
0.0
 46
0.0
 47
0.0
 48
0.0
 49
0.0
140
0.0
141
0.0
142
1.0
143
1.0
 70
   688
 72
     1
 73
     0
 74
     5
  7

 75
    16
147
1.0
148
0.0
149
0.0
100
AcDbLayout
  1
Layout1
 70
     1
 71
     1
 10
0.0
 20
0.0
 11
420.0
 21
297.0
 12
0.0
 22
0.0
 32
0.0
 14
1.0000000000E+20
 24
1.0000000000E+20
 34
1.0000000000E+20
 15
-1.0000000000E+20
 25
-1.0000000000E+20
 35
-1.0000000000E+20
146
0.0
 13
0.0
 23
0.0
 33
0.0
 16
1.0
 26
0.0
 36
0.0
 17
0.0
 27
1.0
 37
0.0
 76
     0
330
1B
  0
LAYOUT
  5
26
102
{ACAD_REACTORS
330
1A
102
}
330
1A
100
AcDbPlotSettings
  1

  2
none_device
  4

  6

 40
0.0
 41
0.0
 42
0.0
 43
0.0
 44
0.0
 45
0.0
 46
0.0
 47
0.0
 48
0.0
 49
0.0
140
0.0
141
0.0
142
1.0
143
1.0
 70
   688
 72
     1
 73
     0
 74
     5
  7

 75
    16
147
1.0
148
0.0
149
0.0
100
AcDbLayout
  1
Layout2
 70
     1
 71
     2
 10
0.0
 20
0.0
 11
0.0
 21
0.0
 12
0.0
 22
0.0
 32
0.0
 14
0.0
 24
0.0
 34
0.0
 15
0.0
 25
0.0
 35
0.0
146
0.0
 13
0.0
 23
0.0
 33
0.0
 16
1.0
 26
0.0
 36
0.0
 17
0.0
 27
1.0
 37
0.0
 76
     0
330
23
  0
LAYOUT
  5
22
102
{ACAD_REACTORS
330
1A
102
}
330
1A
100
AcDbPlotSettings
  1

  2
none_device
  4
Letter_(8.50_x_11.00_Inches)
  6

 40
6.35
 41
6.35
 42
6.35000508
 43
6.35000508
 44
215.9
 45
279.4
 46
0.0
 47
0.0
 48
0.0
 49
0.0
140
0.0
141
0.0
142
1.0
143
1.0
 70
  1712
 72
     1
 73
     0
 74
     0
  7

 75
     0
147
1.0
148
0.0
149
0.0
100
AcDbLayout
  1
Model
 70
     1
 71
     0
 10
0.0
 20
0.0
 11
2970.0
 21
2100.0
 12
0.0
 22
0.0
 32
0.0
 14
0.0
 24
0.0
 34
0.0
 15
2970.0
 25
2100.0
 35
0.0
146
0.0
 13
0.0
 23
0.0
 33
0.0
 16
1.0
 26
0.0
 36
0.0
 17
0.0
 27
1.0
 37
0.0
 76
     0
330
1F
331
29
  0
MLINESTYLE
  5
18
102
{ACAD_REACTORS
330
17
102
}
330
17
100
AcDbMlineStyle
  2
Standard
 70
     0
  3

 62
   256
 51
90.0
 52
90.0
 71
     2
 49
0.5
 62
   256
  6
BYLAYER
 49
-0.5
 62
   256
  6
BYLAYER
  0
ACDBPLACEHOLDER
  5
F
102
{ACAD_REACTORS
330
E
102
}
330
E
  0
SCALE
  5
48
102
{ACAD_REACTORS
330
47
102
}
330
47
100
AcDbScale
 70
     0
300
1:1
140
1.0
141
1.0
290
     1
  0
SCALE
  5
49
102
{ACAD_REACTORS
330
47
102
}
330
47
100
AcDbScale
 70
     0
300
1:2
140
1.0
141
2.0
290
     0
  0
SCALE
  5
4A
102
{ACAD_REACTORS
330
47
102
}
330
47
100
AcDbScale
 70
     0
300
1:4
140
1.0
141
4.0
290
     0
  0
SCALE
  5
4B
102
{ACAD_REACTORS
330
47
102
}
330
47
100
AcDbScale
 70
     0
300
1:5
140
1.0
141
5.0
290
     0
  0
SCALE
  5
4C
102
{ACAD_REACTORS
330
47
102
}
330
47
100
AcDbScale
 70
     0
300
1:8
140
1.0
141
8.0
290
     0
  0
SCALE
  5
4D
102
{ACAD_REACTORS
330
47
102
}
330
47
100
AcDbScale
 70
     0
300
1:10
140
1.0
141
10.0
290
     0
  0
SCALE
  5
4E
102
{ACAD_REACTORS
330
47
102
}
330
47
100
AcDbScale
 70
     0
300
1:16
140
1.0
141
16.0
290
     0
  0
SCALE
  5
4F
102
{ACAD_REACTORS
330
47
102
}
330
47
100
AcDbScale
 70
     0
300
1:20
140
1.0
141
20.0
290
     0
  0
SCALE
  5
50
102
{ACAD_REACTORS
330
47
102
}
330
47
100
AcDbScale
 70
     0
300
1:30
140
1.0
141
30.0
290
     0
  0
SCALE
  5
51
102
{ACAD_REACTORS
330
47
102
}
330
47
100
AcDbScale
 70
     0
300
1:40
140
1.0
141
40.0
290
     0
  0
SCALE
  5
52
102
{ACAD_REACTORS
330
47
102
}
330
47
100
AcDbScale
 70
     0
300
1:50
140
1.0
141
50.0
290
     0
  0
SCALE
  5
53
102
{ACAD_REACTORS
330
47
102
}
330
47
100
AcDbScale
 70
     0
300
1:100
140
1.0
141
100.0
290
     0
  0
SCALE
  5
54
102
{ACAD_REACTORS
330
47
102
}
330
47
100
AcDbScale
 70
     0
300
2:1
140
2.0
141
1.0
290
     0
  0
SCALE
  5
55
102
{ACAD_REACTORS
330
47
102
}
330
47
100
AcDbScale
 70
     0
300
4:1
140
4.0
141
1.0
290
     0
  0
SCALE
  5
56
102
{ACAD_REACTORS
330
47
102
}
330
47
100
AcDbScale
 70
     0
300
8:1
140
8.0
141
1.0
290
     0
  0
SCALE
  5
57
102
{ACAD_REACTORS
330
47
102
}
330
47
100
AcDbScale
 70
     0
300
10:1
140
10.0
141
1.0
290
     0
  0
SCALE
  5
58
102
{ACAD_REACTORS
330
47
102
}
330
47
100
AcDbScale
 70
     0
300
100:1
140
100.0
141
1.0
290
     0
  0
SCALE
  5
59
102
{ACAD_REACTORS
330
47
102
}
330
47
100
AcDbScale
 70
     0
300
1/128" = 1'-0"
140
0.0078125
141
12.0
290
     0
  0
SCALE
  5
5A
102
{ACAD_REACTORS
330
47
102
}
330
47
100
AcDbScale
 70
     0
300
1/64" = 1'-0"
140
0.015625
141
12.0
290
     0
  0
SCALE
  5
5B
102
{ACAD_REACTORS
330
47
102
}
330
47
100
AcDbScale
 70
     0
300
1/32" = 1'-0"
140
0.03125
141
12.0
290
     0
  0
SCALE
  5
5C
102
{ACAD_REACTORS
330
47
102
}
330
47
100
AcDbScale
 70
     0
300
1/16" = 1'-0"
140
0.0625
141
12.0
290
     0
  0
SCALE
  5
5D
102
{ACAD_REACTORS
330
47
102
}
330
47
100
AcDbScale
 70
     0
300
3/32" = 1'-0"
140
0.09375
141
12.0
290
     0
  0
SCALE
  5
5E
102
{ACAD_REACTORS
330
47
102
}
330
47
100
AcDbScale
 70
     0
300
1/8" = 1'-0"
140
0.125
141
12.0
290
     0
  0
SCALE
  5
5F
102
{ACAD_REACTORS
330
47
102
}
330
47
100
AcDbScale
 70
     0
300
3/16" = 1'-0"
140
0.1875
141
12.0
290
     0
  0
SCALE
  5
60
102
{ACAD_REACTORS
330
47
102
}
330
47
100
AcDbScale
 70
     0
300
1/4" = 1'-0"
140
0.25
141
12.0
290
     0
  0
SCALE
  5
61
102
{ACAD_REACTORS
330
47
102
}
330
47
100
AcDbScale
 70
     0
300
3/8" = 1'-0"
140
0.375
141
12.0
290
     0
  0
SCALE
  5
62
102
{ACAD_REACTORS
330
47
102
}
330
47
100
AcDbScale
 70
     0
300
1/2" = 1'-0"
140
0.5
141
12.0
290
     0
  0
SCALE
  5
63
102
{ACAD_REACTORS
330
47
102
}
330
47
100
AcDbScale
 70
     0
300
3/4" = 1'-0"
140
0.75
141
12.0
290
     0
  0
SCALE
  5
64
102
{ACAD_REACTORS
330
47
102
}
330
47
100
AcDbScale
 70
     0
300
1" = 1'-0"
140
1.0
141
12.0
290
     0
  0
SCALE
  5
65
102
{ACAD_REACTORS
330
47
102
}
330
47
100
AcDbScale
 70
     0
300
1-1/2" = 1'-0"
140
1.5
141
12.0
290
     0
  0
SCALE
  5
66
102
{ACAD_REACTORS
330
47
102
}
330
47
100
AcDbScale
 70
     0
300
3" = 1'-0"
140
3.0
141
12.0
290
     0
  0
SCALE
  5
67
102
{ACAD_REACTORS
330
47
102
}
330
47
100
AcDbScale
 70
     0
300
6" = 1'-0"
140
6.0
141
12.0
290
     0
  0
SCALE
  5
68
102
{ACAD_REACTORS
330
47
102
}
330
47
100
AcDbScale
 70
     0
300
1'-0" = 1'-0"
140
12.0
141
12.0
290
     0
  0
ENDSEC
  0
EOF
